999
dxfrw 0.6.3
  0
SECTION
  2
HEADER
  9
$ACADVER
  1
AC1021
  9
$DWGCODEPAGE
  3
ANSI_1252
  9
$INSBASE
 10
0
 20
0
 30
0
  9
$EXTMIN
 10
-248.0478092507566
 20
-75.45291425665357
 30
0
  9
$EXTMAX
 10
472.4536131680434
 20
144.8255342897892
 30
0
  9
$LIMMIN
 10
0
 20
0
  9
$LIMMAX
 10
12
 20
9
  9
$ORTHOMODE
 70
    0
  9
$REGENMODE
 70
    1
  9
$FILLMODE
 70
    1
  9
$QTEXTMODE
 70
    0
  9
$MIRRTEXT
 70
    1
  9
$LTSCALE
 40
1
  9
$ATTMODE
 70
    1
  9
$TEXTSIZE
 40
0.2
  9
$TRACEWID
 40
0.05
  9
$TEXTSTYLE
  7
STANDARD
  9
$CLAYER
  8
DEFAULT
  9
$CELTYPE
  6
BYLAYER
  9
$CECOLOR
 62
  256
  9
$CELTSCALE
 40
1
  9
$DISPSILH
 70
    0
  9
$DIMSCALE
 40
1
  9
$DIMASZ
 40
0.18
  9
$DIMEXO
 40
0.0625
  9
$DIMDLI
 40
0.38
  9
$DIMRND
 40
0
  9
$DIMDLE
 40
0
  9
$DIMEXE
 40
0.18
  9
$DIMTP
 40
0
  9
$DIMTM
 40
0
  9
$DIMTXT
 40
0.18
  9
$DIMCEN
 40
0.09
  9
$DIMTSZ
 40
0
  9
$DIMTOL
 70
    0
  9
$DIMLIM
 70
    0
  9
$DIMTIH
 70
    1
  9
$DIMTOH
 70
    1
  9
$DIMSE1
 70
    0
  9
$DIMSE2
 70
    0
  9
$DIMTAD
 70
    0
  9
$DIMZIN
 70
    0
  9
$DIMBLK
  1

  9
$DIMASO
 70
    1
  9
$DIMSHO
 70
    1
  9
$DIMPOST
  1

  9
$DIMAPOST
  1

  9
$DIMALT
 70
    0
  9
$DIMALTD
 70
    2
  9
$DIMALTF
 40
25.4
  9
$DIMLFAC
 40
1
  9
$DIMTOFL
 70
    0
  9
$DIMTVP
 40
0
  9
$DIMTIX
 70
    0
  9
$DIMSOXD
 70
    0
  9
$DIMSAH
 70
    0
  9
$DIMBLK1
  1

  9
$DIMBLK2
  1

  9
$DIMSTYLE
  2
STANDARD
  9
$DIMCLRD
 70
    0
  9
$DIMCLRE
 70
    0
  9
$DIMCLRT
 70
    0
  9
$DIMTFAC
 40
1
  9
$DIMGAP
 40
0.09
  9
$DIMJUST
 70
    0
  9
$DIMSD1
 70
    0
  9
$DIMSD2
 70
    0
  9
$DIMTOLJ
 70
    0
  9
$DIMTZIN
 70
    8
  9
$DIMALTZ
 70
    0
  9
$DIMALTTZ
 70
    0
  9
$DIMUPT
 70
    0
  9
$DIMDEC
 70
    4
  9
$DIMTDEC
 70
    2
  9
$DIMALTU
 70
    2
  9
$DIMALTTD
 70
    3
  9
$DIMTXSTY
  7
STANDARD
  9
$DIMAUNIT
 70
    0
  9
$DIMADEC
 70
    0
  9
$DIMALTRND
 40
0
  9
$DIMAZIN
 70
    0
  9
$DIMDSEP
 70
   44
  9
$DIMATFIT
 70
    3
  9
$DIMFRAC
 70
    0
  9
$DIMLDRBLK
  1
STANDARD
  9
$DIMLUNIT
 70
    2
  9
$DIMLWD
 70
   -2
  9
$DIMLWE
 70
   -2
  9
$DIMTMOVE
 70
    0
  9
$DIMFXL
 40
1
  9
$DIMFXLON
 70
    0
  9
$DIMJOGANG
 40
0.7854
  9
$DIMTFILL
 70
    0
  9
$DIMTFILLCLR
 70
    0
  9
$DIMARCSYM
 70
    0
  9
$DIMLTYPE
  6

  9
$DIMLTEX1
  6

  9
$DIMLTEX2
  6

  9
$LUNITS
 70
    2
  9
$LUPREC
 70
    4
  9
$SKETCHINC
 40
0.1
  9
$FILLETRAD
 40
0.5
  9
$AUNITS
 70
    0
  9
$AUPREC
 70
    0
  9
$MENU
  1
.
  9
$ELEVATION
 40
0
  9
$PELEVATION
 40
0
  9
$THICKNESS
 40
0
  9
$LIMCHECK
 70
    0
  9
$CHAMFERA
 40
0
  9
$CHAMFERB
 40
0
  9
$CHAMFERC
 40
0
  9
$CHAMFERD
 40
0
  9
$SKPOLY
 70
    0
  9
$USRTIMER
 70
    1
  9
$ANGBASE
 50
0
  9
$ANGDIR
 70
    0
  9
$PDMODE
 70
    0
  9
$PDSIZE
 40
0
  9
$PLINEWID
 40
0
  9
$SPLFRAME
 70
    0
  9
$SPLINETYPE
 70
    6
  9
$SPLINESEGS
 70
    8
  9
$HANDSEED
  5
20000
  9
$SURFTAB1
 70
    6
  9
$SURFTAB2
 70
    6
  9
$SURFTYPE
 70
    6
  9
$SURFU
 70
    6
  9
$SURFV
 70
    6
  9
$UCSBASE
  2

  9
$UCSNAME
  2

  9
$UCSORG
 10
0
 20
0
 30
0
  9
$UCSXDIR
 10
1
 20
0
 30
0
  9
$UCSYDIR
 10
0
 20
1
 30
0
  9
$UCSORTHOREF
  2

  9
$UCSORTHOVIEW
 70
    0
  9
$UCSORGTOP
 10
0
 20
0
 30
0
  9
$UCSORGBOTTOM
 10
0
 20
0
 30
0
  9
$UCSORGLEFT
 10
0
 20
0
 30
0
  9
$UCSORGRIGHT
 10
0
 20
0
 30
0
  9
$UCSORGFRONT
 10
0
 20
0
 30
0
  9
$UCSORGBACK
 10
0
 20
0
 30
0
  9
$PUCSBASE
  2

  9
$PUCSNAME
  2

  9
$PUCSORG
 10
0
 20
0
 30
0
  9
$PUCSXDIR
 10
1
 20
0
 30
0
  9
$PUCSYDIR
 10
0
 20
1
 30
0
  9
$PUCSORTHOREF
  2

  9
$PUCSORTHOVIEW
 70
    0
  9
$PUCSORGTOP
 10
0
 20
0
 30
0
  9
$PUCSORGBOTTOM
 10
0
 20
0
 30
0
  9
$PUCSORGLEFT
 10
0
 20
0
 30
0
  9
$PUCSORGRIGHT
 10
0
 20
0
 30
0
  9
$PUCSORGFRONT
 10
0
 20
0
 30
0
  9
$PUCSORGBACK
 10
0
 20
0
 30
0
  9
$USERI1
 70
    0
  9
$USERI2
 70
    0
  9
$USERI3
 70
    0
  9
$USERI4
 70
    0
  9
$USERI5
 70
    0
  9
$USERR1
 40
0
  9
$USERR2
 40
0
  9
$USERR3
 40
0
  9
$USERR4
 40
0
  9
$USERR5
 40
0
  9
$WORLDVIEW
 70
    1
  9
$SHADEDGE
 70
    3
  9
$SHADEDIF
 70
   70
  9
$TILEMODE
 70
    1
  9
$MAXACTVP
 70
   64
  9
$PINSBASE
 10
0
 20
0
 30
0
  9
$PLIMCHECK
 70
    0
  9
$PEXTMIN
 10
1e+020
 20
1e+020
 30
1e+020
  9
$PEXTMAX
 10
-1e+020
 20
-1e+020
 30
-1e+020
  9
$GRIDMODE
 70
    0
  9
$SNAPSTYLE
 70
    0
  9
$PLIMMIN
 10
0
 20
0
  9
$PLIMMAX
 10
12
 20
9
  9
$UNITMODE
 70
    0
  9
$VISRETAIN
 70
    1
  9
$PLINEGEN
 70
    0
  9
$PSLTSCALE
 70
    1
  9
$TREEDEPTH
 70
 3020
  9
$CMLSTYLE
  2
Standard
  9
$CMLJUST
 70
    0
  9
$CMLSCALE
 40
20
  9
$PROXYGRAPHICS
 70
    1
  9
$MEASUREMENT
 70
    1
  9
$CELWEIGHT
370
   -1
  9
$ENDCAPS
280
    0
  9
$JOINSTYLE
280
    0
  9
$LWDISPLAY
290
    0
  9
$INSUNITS
 70
    4
  9
$HYPERLINKBASE
  1

  9
$STYLESHEET
  1

  9
$XEDIT
290
    1
  9
$CEPSNTYPE
380
    0
  9
$PSTYLEMODE
290
    1
  9
$EXTNAMES
290
    1
  9
$PSVPSCALE
 40
1
  9
$OLESTARTUP
290
    0
  9
$SORTENTS
280
  127
  9
$INDEXCTL
280
    0
  9
$HIDETEXT
280
    1
  9
$XCLIPFRAME
290
    0
  9
$HALOGAP
280
    0
  9
$OBSCOLOR
 70
  257
  9
$OBSLTYPE
280
    0
  9
$INTERSECTIONDISPLAY
280
    0
  9
$INTERSECTIONCOLOR
 70
  257
  9
$DIMASSOC
280
    1
  9
$PROJECTNAME
  1

  9
$CAMERADISPLAY
290
    0
  9
$LENSLENGTH
 40
50
  9
$CAMERAHEIGHT
 40
0
  9
$STEPSPERSEC
 40
2
  9
$STEPSIZE
 40
50
  9
$3DDWFPREC
 40
2
  9
$PSOLWIDTH
 40
5
  9
$PSOLHEIGHT
 40
80
  9
$LOFTANG1
 40
1.570796326794897
  9
$LOFTANG2
 40
1.570796326794897
  9
$LOFTMAG1
 40
0
  9
$LOFTMAG2
 40
0
  9
$LOFTPARAM
 70
    7
  9
$LOFTNORMALS
280
    1
  9
$LATITUDE
 40
1
  9
$LONGITUDE
 40
1
  9
$NORTHDIRECTION
 40
0
  9
$TIMEZONE
 70
-8000
  9
$LIGHTGLYPHDISPLAY
280
    1
  9
$TILEMODELIGHTSYNCH
280
    1
  9
$SOLIDHIST
280
    1
  9
$SHOWHIST
280
    1
  9
$DWFFRAME
280
    2
  9
$DGNFRAME
280
    0
  9
$REALWORLDSCALE
290
    1
  9
$INTERFERECOLOR
 62
    1
  9
$CSHADOW
280
    0
  9
$SHADOWPLANELOCATION
 40
0
  0
ENDSEC
  0
SECTION
  2
CLASSES
  0
ENDSEC
  0
SECTION
  2
TABLES
  0
TABLE
  2
VPORT
  5
8
330
0
100
AcDbSymbolTable
 70
    1
  0
VPORT
  5
31
330
2
100
AcDbSymbolTableRecord
100
AcDbViewportTableRecord
  2
*ACTIVE
 70
    0
 10
0
 20
0
 11
1
 21
1
 12
330.6269902278749
 22
121.8723703889297
 13
0
 23
0
 14
10
 24
10
 15
10
 25
10
 16
0
 26
0
 36
1
 17
0
 27
0
 37
0
 40
503.5019097820015
 41
1.886925795053004
 42
50
 43
0
 44
0
 50
0
 51
0
 71
    0
 72
  100
 73
    1
 74
    3
 75
    0
 76
    0
 77
    0
 78
    0
281
    0
 65
    1
110
0
120
0
130
0
111
1
121
0
131
0
112
0
122
1
132
0
 79
    0
146
0
348
10020
 60
    7
 61
    5
292
1
282
    1
141
0
142
0
 63
  250
421
3358443
  0
ENDTAB
  0
TABLE
  2
LTYPE
  5
5
330
0
100
AcDbSymbolTable
 70
    4
  0
LTYPE
  5
14
330
5
100
AcDbSymbolTableRecord
100
AcDbLinetypeTableRecord
  2
ByBlock
 70
    0
  3

 72
   65
 73
    0
 40
0
  0
LTYPE
  5
15
330
5
100
AcDbSymbolTableRecord
100
AcDbLinetypeTableRecord
  2
ByLayer
 70
    0
  3

 72
   65
 73
    0
 40
0
  0
LTYPE
  5
16
330
5
100
AcDbSymbolTableRecord
100
AcDbLinetypeTableRecord
  2
Continuous
 70
    0
  3
Solid line
 72
   65
 73
    0
 40
0
  0
LTYPE
  5
32
330
5
100
AcDbSymbolTableRecord
100
AcDbLinetypeTableRecord
  2
DOT
 70
    0
  3
Dot . . . . . . . . . . . . . . . . . . . . . .
 72
   65
 73
    2
 40
6.35
 49
0
 74
    0
 49
-6.35
 74
    0
  0
LTYPE
  5
33
330
5
100
AcDbSymbolTableRecord
100
AcDbLinetypeTableRecord
  2
DOTTINY
 70
    0
  3
Dot (.15x) .....................................
 72
   65
 73
    2
 40
0.9525
 49
0
 74
    0
 49
-0.9525
 74
    0
  0
LTYPE
  5
34
330
5
100
AcDbSymbolTableRecord
100
AcDbLinetypeTableRecord
  2
DOT2
 70
    0
  3
Dot (.5x) .....................................
 72
   65
 73
    2
 40
3.175
 49
0
 74
    0
 49
-3.175
 74
    0
  0
LTYPE
  5
35
330
5
100
AcDbSymbolTableRecord
100
AcDbLinetypeTableRecord
  2
DOTX2
 70
    0
  3
Dot (2x) .  .  .  .  .  .  .  .  .  .  .  .  .
 72
   65
 73
    2
 40
12.7
 49
0
 74
    0
 49
-12.7
 74
    0
  0
LTYPE
  5
36
330
5
100
AcDbSymbolTableRecord
100
AcDbLinetypeTableRecord
  2
DASHED
 70
    0
  3
Dashed _ _ _ _ _ _ _ _ _ _ _ _ _ _ _ _ _
 72
   65
 73
    2
 40
19.05
 49
12.7
 74
    0
 49
-6.35
 74
    0
  0
LTYPE
  5
37
330
5
100
AcDbSymbolTableRecord
100
AcDbLinetypeTableRecord
  2
DASHEDTINY
 70
    0
  3
Dashed (.15x) _ _ _ _ _ _ _ _ _ _ _ _ _ _ _ _ _
 72
   65
 73
    2
 40
2.8575
 49
1.905
 74
    0
 49
-0.9525
 74
    0
  0
LTYPE
  5
38
330
5
100
AcDbSymbolTableRecord
100
AcDbLinetypeTableRecord
  2
DASHED2
 70
    0
  3
Dashed (.5x) _ _ _ _ _ _ _ _ _ _ _ _ _ _ _ _ _
 72
   65
 73
    2
 40
9.524999999999999
 49
6.35
 74
    0
 49
-3.175
 74
    0
  0
LTYPE
  5
39
330
5
100
AcDbSymbolTableRecord
100
AcDbLinetypeTableRecord
  2
DASHEDX2
 70
    0
  3
Dashed (2x) ____  ____  ____  ____  ____  ___
 72
   65
 73
    2
 40
38.09999999999999
 49
25.4
 74
    0
 49
-12.7
 74
    0
  0
LTYPE
  5
3A
330
5
100
AcDbSymbolTableRecord
100
AcDbLinetypeTableRecord
  2
DASHDOT
 70
    0
  3
Dash dot __ . __ . __ . __ . __ . __ . __ . __
 72
   65
 73
    4
 40
25.4
 49
12.7
 74
    0
 49
-6.35
 74
    0
 49
0
 74
    0
 49
-6.35
 74
    0
  0
LTYPE
  5
3B
330
5
100
AcDbSymbolTableRecord
100
AcDbLinetypeTableRecord
  2
DASHDOTTINY
 70
    0
  3
Dash dot (.15x) _._._._._._._._._._._._._._._.
 72
   65
 73
    4
 40
3.81
 49
1.905
 74
    0
 49
-0.9525
 74
    0
 49
0
 74
    0
 49
-0.9525
 74
    0
  0
LTYPE
  5
3C
330
5
100
AcDbSymbolTableRecord
100
AcDbLinetypeTableRecord
  2
DASHDOT2
 70
    0
  3
Dash dot (.5x) _._._._._._._._._._._._._._._.
 72
   65
 73
    4
 40
12.7
 49
6.35
 74
    0
 49
-3.175
 74
    0
 49
0
 74
    0
 49
-3.175
 74
    0
  0
LTYPE
  5
3D
330
5
100
AcDbSymbolTableRecord
100
AcDbLinetypeTableRecord
  2
DASHDOTX2
 70
    0
  3
Dash dot (2x) ____  .  ____  .  ____  .  ___
 72
   65
 73
    4
 40
50.8
 49
25.4
 74
    0
 49
-12.7
 74
    0
 49
0
 74
    0
 49
-12.7
 74
    0
  0
LTYPE
  5
3E
330
5
100
AcDbSymbolTableRecord
100
AcDbLinetypeTableRecord
  2
DIVIDE
 70
    0
  3
Divide ____ . . ____ . . ____ . . ____ . . ____
 72
   65
 73
    6
 40
31.75
 49
12.7
 74
    0
 49
-6.35
 74
    0
 49
0
 74
    0
 49
-6.35
 74
    0
 49
0
 74
    0
 49
-6.35
 74
    0
  0
LTYPE
  5
3F
330
5
100
AcDbSymbolTableRecord
100
AcDbLinetypeTableRecord
  2
DIVIDETINY
 70
    0
  3
Divide (.15x) __..__..__..__..__..__..__..__.._
 72
   65
 73
    6
 40
4.7625
 49
1.905
 74
    0
 49
-0.9525
 74
    0
 49
0
 74
    0
 49
-0.9525
 74
    0
 49
0
 74
    0
 49
-0.9525
 74
    0
  0
LTYPE
  5
40
330
5
100
AcDbSymbolTableRecord
100
AcDbLinetypeTableRecord
  2
DIVIDE2
 70
    0
  3
Divide (.5x) __..__..__..__..__..__..__..__.._
 72
   65
 73
    6
 40
15.875
 49
6.35
 74
    0
 49
-3.175
 74
    0
 49
0
 74
    0
 49
-3.175
 74
    0
 49
0
 74
    0
 49
-3.175
 74
    0
  0
LTYPE
  5
41
330
5
100
AcDbSymbolTableRecord
100
AcDbLinetypeTableRecord
  2
DIVIDEX2
 70
    0
  3
Divide (2x) ________  .  .  ________  .  .  _
 72
   65
 73
    6
 40
63.5
 49
25.4
 74
    0
 49
-12.7
 74
    0
 49
0
 74
    0
 49
-12.7
 74
    0
 49
0
 74
    0
 49
-12.7
 74
    0
  0
LTYPE
  5
42
330
5
100
AcDbSymbolTableRecord
100
AcDbLinetypeTableRecord
  2
BORDER
 70
    0
  3
Border __ __ . __ __ . __ __ . __ __ . __ __ .
 72
   65
 73
    6
 40
44.45
 49
12.7
 74
    0
 49
-6.35
 74
    0
 49
12.7
 74
    0
 49
-6.35
 74
    0
 49
0
 74
    0
 49
-6.35
 74
    0
  0
LTYPE
  5
43
330
5
100
AcDbSymbolTableRecord
100
AcDbLinetypeTableRecord
  2
BORDERTINY
 70
    0
  3
Border (.15x) __.__.__.__.__.__.__.__.__.__.__.
 72
   65
 73
    6
 40
6.6675
 49
1.905
 74
    0
 49
-0.9525
 74
    0
 49
1.905
 74
    0
 49
-0.9525
 74
    0
 49
0
 74
    0
 49
-0.9525
 74
    0
  0
LTYPE
  5
44
330
5
100
AcDbSymbolTableRecord
100
AcDbLinetypeTableRecord
  2
BORDER2
 70
    0
  3
Border (.5x) __.__.__.__.__.__.__.__.__.__.__.
 72
   65
 73
    6
 40
22.225
 49
6.35
 74
    0
 49
-3.175
 74
    0
 49
6.35
 74
    0
 49
-3.175
 74
    0
 49
0
 74
    0
 49
-3.175
 74
    0
  0
LTYPE
  5
45
330
5
100
AcDbSymbolTableRecord
100
AcDbLinetypeTableRecord
  2
BORDERX2
 70
    0
  3
Border (2x) ____  ____  .  ____  ____  .  ___
 72
   65
 73
    6
 40
88.89999999999999
 49
25.4
 74
    0
 49
-12.7
 74
    0
 49
25.4
 74
    0
 49
-12.7
 74
    0
 49
0
 74
    0
 49
-12.7
 74
    0
  0
LTYPE
  5
46
330
5
100
AcDbSymbolTableRecord
100
AcDbLinetypeTableRecord
  2
CENTER
 70
    0
  3
Center ____ _ ____ _ ____ _ ____ _ ____ _ ____
 72
   65
 73
    4
 40
50.8
 49
31.75
 74
    0
 49
-6.35
 74
    0
 49
6.35
 74
    0
 49
-6.35
 74
    0
  0
LTYPE
  5
47
330
5
100
AcDbSymbolTableRecord
100
AcDbLinetypeTableRecord
  2
CENTERTINY
 70
    0
  3
Center (.15x) ___ _ ___ _ ___ _ ___ _ ___ _ ___
 72
   65
 73
    4
 40
7.62
 49
4.7625
 74
    0
 49
-0.9525
 74
    0
 49
0.9525
 74
    0
 49
-0.9525
 74
    0
  0
LTYPE
  5
48
330
5
100
AcDbSymbolTableRecord
100
AcDbLinetypeTableRecord
  2
CENTER2
 70
    0
  3
Center (.5x) ___ _ ___ _ ___ _ ___ _ ___ _ ___
 72
   65
 73
    4
 40
28.575
 49
19.05
 74
    0
 49
-3.175
 74
    0
 49
3.175
 74
    0
 49
-3.175
 74
    0
  0
LTYPE
  5
49
330
5
100
AcDbSymbolTableRecord
100
AcDbLinetypeTableRecord
  2
CENTERX2
 70
    0
  3
Center (2x) ________  __  ________  __  _____
 72
   65
 73
    4
 40
101.6
 49
63.5
 74
    0
 49
-12.7
 74
    0
 49
12.7
 74
    0
 49
-12.7
 74
    0
  0
ENDTAB
  0
TABLE
  2
LAYER
  5
2
330
0
100
AcDbSymbolTable
 70
    1
  0
LAYER
  5
10
330
2
100
AcDbSymbolTableRecord
100
AcDbLayerTableRecord
  2
0
 70
    0
 62
    7
  6
CONTINUOUS
370
   -3
390
F
  0
LAYER
  5
4A
330
2
100
AcDbSymbolTableRecord
100
AcDbLayerTableRecord
  2
BOX_TOP_AND_BOTT
 70
    0
 62
    7
  6
CONTINUOUS
370
   -3
390
F
  0
LAYER
  5
4B
330
2
100
AcDbSymbolTableRecord
100
AcDbLayerTableRecord
  2
DEFAULT
 70
    0
 62
    7
  6
CONTINUOUS
370
   -3
390
F
  0
LAYER
  5
4C
330
2
100
AcDbSymbolTableRecord
100
AcDbLayerTableRecord
  2
DRAWER
 70
    0
 62
    7
  6
CONTINUOUS
370
   -3
390
F
  0
LAYER
  5
4D
330
2
100
AcDbSymbolTableRecord
100
AcDbLayerTableRecord
  2
DRAWER_BOTTOM
 70
    0
 62
    7
  6
CONTINUOUS
370
   -3
390
F
  0
LAYER
  5
4E
330
2
100
AcDbSymbolTableRecord
100
AcDbLayerTableRecord
  2
PART1
 70
    0
 62
    7
  6
CONTINUOUS
370
   -3
390
F
  0
LAYER
  5
4F
330
2
100
AcDbSymbolTableRecord
100
AcDbLayerTableRecord
  2
PART2
 70
    0
 62
    7
  6
CONTINUOUS
370
   -3
390
F
  0
LAYER
  5
50
330
2
100
AcDbSymbolTableRecord
100
AcDbLayerTableRecord
  2
PART3
 70
    0
 62
    7
  6
CONTINUOUS
370
   -3
390
F
  0
LAYER
  5
51
330
2
100
AcDbSymbolTableRecord
100
AcDbLayerTableRecord
  2
PART4
 70
    0
 62
    7
  6
CONTINUOUS
370
   -3
390
F
  0
LAYER
  5
52
330
2
100
AcDbSymbolTableRecord
100
AcDbLayerTableRecord
  2
PART5
 70
    0
 62
    7
  6
CONTINUOUS
370
   -3
390
F
  0
LAYER
  5
53
330
2
100
AcDbSymbolTableRecord
100
AcDbLayerTableRecord
  2
PART6
 70
    0
 62
    7
  6
CONTINUOUS
370
   -3
390
F
  0
ENDTAB
  0
TABLE
  2
STYLE
  5
3
330
0
100
AcDbSymbolTable
 70
    3
  0
STYLE
  5
54
330
2
100
AcDbSymbolTableRecord
100
AcDbTextStyleTableRecord
  2
Standard
 70
    0
 40
0
 41
1
 50
0
 71
    0
 42
1
  3
txt
  4

  0
ENDTAB
  0
TABLE
  2
VIEW
  5
6
330
0
100
AcDbSymbolTable
 70
    0
  0
ENDTAB
  0
TABLE
  2
UCS
  5
7
330
0
100
AcDbSymbolTable
 70
    0
  0
ENDTAB
  0
TABLE
  2
APPID
  5
9
330
0
100
AcDbSymbolTable
 70
    1
  0
APPID
  5
12
330
9
100
AcDbSymbolTableRecord
100
AcDbRegAppTableRecord
  2
ACAD
 70
    0
  0
APPID
  5
55
330
9
100
AcDbSymbolTableRecord
100
AcDbRegAppTableRecord
  2
LibreCad
 70
    0
  0
ENDTAB
  0
TABLE
  2
DIMSTYLE
  5
A
330
0
100
AcDbSymbolTable
 70
    1
100
AcDbDimStyleTable
 71
    1
  0
DIMSTYLE
105
56
330
A
100
AcDbSymbolTableRecord
100
AcDbDimStyleTableRecord
  2
Standard
 70
    0
 40
1
 41
0.18
 42
0.0625
 43
0.38
 44
0.18
 45
0
 46
0
 47
0
 48
0
 49
1
140
0.18
141
0.09
142
0
143
25.4
144
1
145
0
146
1
147
0.09
148
0
 71
    0
 72
    0
 73
    1
 74
    1
 75
    0
 76
    0
 77
    0
 78
    0
 79
    0
170
    0
171
    2
172
    0
173
    0
174
    0
175
    0
176
    0
177
    0
178
    0
179
    0
271
    4
272
    4
273
    2
274
    2
275
    0
276
    0
277
    2
278
    0
279
    0
280
    0
281
    0
282
    0
283
    1
284
    0
285
    0
286
    0
288
    0
289
    3
340
standard
341

371
   -2
372
   -2
  0
ENDTAB
  0
TABLE
  2
BLOCK_RECORD
  5
1
330
0
100
AcDbSymbolTable
 70
    2
  0
BLOCK_RECORD
  5
1F
330
1
100
AcDbSymbolTableRecord
100
AcDbBlockTableRecord
  2
*Model_Space
 70
    0
280
    1
281
    0
  0
BLOCK_RECORD
  5
1E
330
1
100
AcDbSymbolTableRecord
100
AcDbBlockTableRecord
  2
*Paper_Space
 70
    0
280
    1
281
    0
  0
BLOCK_RECORD
  5
57
330
1
100
AcDbSymbolTableRecord
100
AcDbBlockTableRecord
  2
SE
 70
    0
280
    1
281
    0
  0
BLOCK_RECORD
  5
5A
330
1
100
AcDbSymbolTableRecord
100
AcDbBlockTableRecord
  2
SE1
 70
    0
280
    1
281
    0
  0
BLOCK_RECORD
  5
5D
330
1
100
AcDbSymbolTableRecord
100
AcDbBlockTableRecord
  2
SE2
 70
    0
280
    1
281
    0
  0
BLOCK_RECORD
  5
60
330
1
100
AcDbSymbolTableRecord
100
AcDbBlockTableRecord
  2
SE3
 70
    0
280
    1
281
    0
  0
ENDTAB
  0
ENDSEC
  0
SECTION
  2
BLOCKS
  0
BLOCK
  5
20
330
1F
100
AcDbEntity
  8
0
100
AcDbBlockBegin
  2
*Model_Space
 70
    0
 10
0
 20
0
 30
0
  3
*Model_Space
  1

  0
ENDBLK
  5
21
330
1F
100
AcDbEntity
  8
0
100
AcDbBlockEnd
  0
BLOCK
  5
1C
330
1B
100
AcDbEntity
  8
0
100
AcDbBlockBegin
  2
*Paper_Space
 70
    0
 10
0
 20
0
 30
0
  3
*Paper_Space
  1

  0
ENDBLK
  5
1D
330
1F
100
AcDbEntity
  8
0
100
AcDbBlockEnd
  0
BLOCK
  5
58
330
57
100
AcDbEntity
  8
0
100
AcDbBlockBegin
  2
SE
 70
    0
 10
0
 20
0
  3
SE
  1

  0
LINE
  5
63
100
AcDbEntity
  8
DRAWER
  6
CONTINUOUS
 62
    7
370
   -1
100
AcDbLine
 10
134.3692284954
 20
323.1833627582
 11
134.3692284954
 21
177.3833627582
  0
LINE
  5
64
100
AcDbEntity
  8
DRAWER
  6
CONTINUOUS
 62
    7
370
   -1
100
AcDbLine
 10
124.8692284954
 20
164.6833627582
 11
295.8692284954
 21
164.6833627582
  0
LINE
  5
65
100
AcDbEntity
  8
DRAWER
  6
CONTINUOUS
 62
    7
370
   -1
100
AcDbLine
 10
286.3692284954
 20
177.3833627582
 11
286.3692284954
 21
323.1833627582
  0
LINE
  5
66
100
AcDbEntity
  8
DRAWER
  6
CONTINUOUS
 62
    7
370
   -1
100
AcDbLine
 10
286.3692284954
 20
323.1833627582
 11
134.3692284954
 21
323.1833627582
  0
LINE
  5
67
100
AcDbEntity
  8
DRAWER
  6
CONTINUOUS
 62
    7
370
   -1
100
AcDbLine
 10
264.6043186125
 20
232.3890410044
 11
210.3692284954
 21
178.1539508874
  0
ARC
  5
68
100
AcDbEntity
  8
DRAWER
  6
CONTINUOUS
 62
    7
370
   -1
100
AcDbCircle
 10
237.3099968587
 20
259.6833627582
 40
38.6
100
AcDbArc
 50
314.9999999999999
 51
134.2625520712
  0
ARC
  5
69
100
AcDbEntity
  8
DRAWER
  6
CONTINUOUS
 62
    7
370
   -1
100
AcDbCircle
 10
183.4284601322
 20
259.6833627582
 40
38.60000000000002
100
AcDbArc
 50
45.7374479288
 51
225
  0
LINE
  5
6A
100
AcDbEntity
  8
DRAWER
  6
CONTINUOUS
 62
    7
370
   -1
100
AcDbLine
 10
210.3692284954
 20
178.1539508874
 11
156.1341383784
 21
232.3890410044
  0
LINE
  5
6B
100
AcDbEntity
  8
DRAWER
  6
CONTINUOUS
 62
    7
370
   -1
100
AcDbLine
 10
124.8692284954
 20
164.6833627582
 11
124.8692284954
 21
177.3833627582
  0
LINE
  5
6C
100
AcDbEntity
  8
DRAWER
  6
CONTINUOUS
 62
    7
370
   -1
100
AcDbLine
 10
124.8692284954
 20
177.3833627582
 11
134.3692284954
 21
177.3833627582
  0
LINE
  5
6D
100
AcDbEntity
  8
DRAWER
  6
CONTINUOUS
 62
    7
370
   -1
100
AcDbLine
 10
295.8692284954
 20
164.6833627582
 11
295.8692284954
 21
177.3833627582
  0
LINE
  5
6E
100
AcDbEntity
  8
DRAWER
  6
CONTINUOUS
 62
    7
370
   -1
100
AcDbLine
 10
295.8692284954
 20
177.3833627582
 11
286.3692284954
 21
177.3833627582
  0
ENDBLK
  5
59
330
57
100
AcDbEntity
  8
0
100
AcDbBlockEnd
  0
BLOCK
  5
5B
330
5A
100
AcDbEntity
  8
0
100
AcDbBlockBegin
  2
SE1
 70
    0
 10
0
 20
0
  3
SE1
  1

  0
LINE
  5
6F
100
AcDbEntity
  8
DRAWER_BOTTOM
  6
CONTINUOUS
 62
    7
370
   -1
100
AcDbLine
 10
486.1392390815
 20
179.3968402105
 11
476.6392390815
 21
179.3968402105
  0
LINE
  5
70
100
AcDbEntity
  8
DRAWER_BOTTOM
  6
CONTINUOUS
 62
    7
370
   -1
100
AcDbLine
 10
486.1392390815
 20
166.6968402105
 11
486.1392390815
 21
179.3968402105
  0
LINE
  5
71
100
AcDbEntity
  8
DRAWER_BOTTOM
  6
CONTINUOUS
 62
    7
370
   -1
100
AcDbLine
 10
315.1392390815
 20
166.6968402105
 11
486.1392390815
 21
166.6968402105
  0
LINE
  5
72
100
AcDbEntity
  8
DRAWER_BOTTOM
  6
CONTINUOUS
 62
    7
370
   -1
100
AcDbLine
 10
315.1392390815
 20
179.3968402105
 11
315.1392390815
 21
166.6968402105
  0
LINE
  5
73
100
AcDbEntity
  8
DRAWER_BOTTOM
  6
CONTINUOUS
 62
    7
370
   -1
100
AcDbLine
 10
324.6392390815
 20
179.3968402105
 11
315.1392390815
 21
179.3968402105
  0
LINE
  5
74
100
AcDbEntity
  8
DRAWER_BOTTOM
  6
CONTINUOUS
 62
    7
370
   -1
100
AcDbLine
 10
324.6392390815
 20
325.1968402105
 11
324.6392390815
 21
179.3968402105
  0
LINE
  5
75
100
AcDbEntity
  8
DRAWER_BOTTOM
  6
CONTINUOUS
 62
    7
370
   -1
100
AcDbLine
 10
476.6392390815
 20
325.1968402105
 11
324.6392390815
 21
325.1968402105
  0
LINE
  5
76
100
AcDbEntity
  8
DRAWER_BOTTOM
  6
CONTINUOUS
 62
    7
370
   -1
100
AcDbLine
 10
476.6392390815
 20
179.3968402105
 11
476.6392390815
 21
325.1968402105
  0
ENDBLK
  5
5C
330
5A
100
AcDbEntity
  8
0
100
AcDbBlockEnd
  0
BLOCK
  5
5E
330
5D
100
AcDbEntity
  8
0
100
AcDbBlockBegin
  2
SE2
 70
    0
 10
0
 20
0
  3
SE2
  1

  0
LINE
  5
77
100
AcDbEntity
  8
BOX_TOP_AND_BOTT
  6
CONTINUOUS
 62
    7
370
   -1
100
AcDbLine
 10
501.2244884538
 20
159.8712558815
 11
706.2244884537999
 21
159.8712558815
  0
LINE
  5
78
100
AcDbEntity
  8
BOX_TOP_AND_BOTT
  6
CONTINUOUS
 62
    7
370
   -1
100
AcDbLine
 10
706.2244884537999
 20
159.8712558815
 11
706.2244884537999
 21
331.0712558815
  0
LINE
  5
79
100
AcDbEntity
  8
BOX_TOP_AND_BOTT
  6
CONTINUOUS
 62
    7
370
   -1
100
AcDbLine
 10
706.2244884537999
 20
331.0712558815
 11
622.7244884537999
 21
331.0712558815
  0
LINE
  5
7A
100
AcDbEntity
  8
BOX_TOP_AND_BOTT
  6
CONTINUOUS
 62
    7
370
   -1
100
AcDbLine
 10
501.2244884538
 20
331.0712558815
 11
501.2244884538
 21
159.8712558815
  0
LINE
  5
7B
100
AcDbEntity
  8
BOX_TOP_AND_BOTT
  6
CONTINUOUS
 62
    7
370
   -1
100
AcDbLine
 10
584.7244884537999
 20
331.0712558815
 11
501.2244884538
 21
331.0712558815
  0
LINE
  5
7C
100
AcDbEntity
  8
BOX_TOP_AND_BOTT
  6
CONTINUOUS
 62
    7
370
   -1
100
AcDbLine
 10
584.7244884537999
 20
331.0712558815
 11
584.7244884537999
 21
324.7712558815
  0
LINE
  5
7D
100
AcDbEntity
  8
BOX_TOP_AND_BOTT
  6
CONTINUOUS
 62
    7
370
   -1
100
AcDbLine
 10
597.4244884538
 20
312.0712558815
 11
610.0244884538
 21
312.0712558815
  0
ARC
  5
7E
100
AcDbEntity
  8
BOX_TOP_AND_BOTT
  6
CONTINUOUS
 62
    7
370
   -1
100
AcDbCircle
 10
597.4244884538
 20
324.7712558815
 40
12.7
100
AcDbArc
 50
180
 51
270
  0
LINE
  5
7F
100
AcDbEntity
  8
BOX_TOP_AND_BOTT
  6
CONTINUOUS
 62
    7
370
   -1
100
AcDbLine
 10
622.7244884537999
 20
324.7712558815
 11
622.7244884537999
 21
331.0712558815
  0
ARC
  5
80
100
AcDbEntity
  8
BOX_TOP_AND_BOTT
  6
CONTINUOUS
 62
    7
370
   -1
100
AcDbCircle
 10
610.0244884538
 20
324.7712558815
 40
12.7
100
AcDbArc
 50
270
 51
0
  0
ENDBLK
  5
5F
330
5D
100
AcDbEntity
  8
0
100
AcDbBlockEnd
  0
BLOCK
  5
61
330
60
100
AcDbEntity
  8
0
100
AcDbBlockBegin
  2
SE3
 70
    0
 10
0
 20
0
  3
SE3
  1

  0
LINE
  5
81
100
AcDbEntity
  8
PART1
  6
CONTINUOUS
 62
    7
370
   -1
100
AcDbLine
 10
50.7638343983
 20
185.147294533
 11
-3.1177023282
 21
239.0288312594
  0
LINE
  5
82
100
AcDbEntity
  8
PART1
  6
CONTINUOUS
 62
    7
370
   -1
100
AcDbLine
 10
-3.1177023282
 20
239.0288312594
 11
23.823066035
 21
265.9695996226
  0
LINE
  5
83
100
AcDbEntity
  8
PART1
  6
CONTINUOUS
 62
    7
370
   -1
100
AcDbLine
 10
23.823066035
 20
265.9695996226
 11
50.7638343983
 21
239.0288312594
  0
LINE
  5
84
100
AcDbEntity
  8
PART1
  6
CONTINUOUS
 62
    7
370
   -1
100
AcDbLine
 10
50.7638343983
 20
239.0288312594
 11
50.7638343983
 21
185.147294533
  0
LINE
  5
85
100
AcDbEntity
  8
PART2
  6
CONTINUOUS
 62
    7
370
   -1
100
AcDbLine
 10
23.823066035
 20
265.9695996226
 11
-3.1177023282
 21
239.0288312594
  0
ARC
  5
86
100
AcDbEntity
  8
PART2
  6
CONTINUOUS
 62
    7
370
   -1
100
AcDbCircle
 10
23.823066035
 20
265.9695996226
 40
38.10000000000003
100
AcDbArc
 50
135
 51
225
  0
LINE
  5
87
100
AcDbEntity
  8
PART2
  6
CONTINUOUS
 62
    7
370
   -1
100
AcDbLine
 10
-3.1177023282
 20
292.9103679858
 11
23.823066035
 21
265.9695996226
  0
LINE
  5
88
100
AcDbEntity
  8
PART2
  6
CONTINUOUS
 62
    7
370
   -1
100
AcDbLine
 10
23.823066035
 20
265.9695996226
 11
-3.1177023282
 21
292.9103679858
  0
ARC
  5
89
100
AcDbEntity
  8
PART2
  6
CONTINUOUS
 62
    7
370
   -1
100
AcDbCircle
 10
23.823066035
 20
265.9695996226
 40
38.10000000000003
100
AcDbArc
 50
45.00000000000002
 51
135
  0
LINE
  5
8A
100
AcDbEntity
  8
PART2
  6
CONTINUOUS
 62
    7
370
   -1
100
AcDbLine
 10
50.7638343983
 20
292.9103679858
 11
23.823066035
 21
265.9695996226
  0
LINE
  5
8B
100
AcDbEntity
  8
PART3
  6
CONTINUOUS
 62
    7
370
   -1
100
AcDbLine
 10
50.7638343983
 20
239.0288312594
 11
23.823066035
 21
265.9695996226
  0
LINE
  5
8C
100
AcDbEntity
  8
PART3
  6
CONTINUOUS
 62
    7
370
   -1
100
AcDbLine
 10
23.823066035
 20
265.9695996226
 11
50.7638343983
 21
292.9103679858
  0
LINE
  5
8D
100
AcDbEntity
  8
PART3
  6
CONTINUOUS
 62
    7
370
   -1
100
AcDbLine
 10
50.7638343983
 20
292.9103679858
 11
77.7046027615
 21
265.9695996226
  0
LINE
  5
8E
100
AcDbEntity
  8
PART3
  6
CONTINUOUS
 62
    7
370
   -1
100
AcDbLine
 10
77.7046027615
 20
265.9695996226
 11
50.7638343983
 21
239.0288312594
  0
LINE
  5
8F
100
AcDbEntity
  8
PART2
  6
CONTINUOUS
 62
    7
370
   -1
100
AcDbLine
 10
77.7046027615
 20
265.9695996226
 11
50.7638343983
 21
292.9103679858
  0
ARC
  5
90
100
AcDbEntity
  8
PART2
  6
CONTINUOUS
 62
    7
370
   -1
100
AcDbCircle
 10
77.7046027615
 20
265.9695996226
 40
38.10000000000003
100
AcDbArc
 50
45.00000000000003
 51
135
  0
LINE
  5
91
100
AcDbEntity
  8
PART2
  6
CONTINUOUS
 62
    7
370
   -1
100
AcDbLine
 10
104.6453711247
 20
292.9103679858
 11
77.7046027615
 21
265.9695996226
  0
LINE
  5
92
100
AcDbEntity
  8
PART4
  6
CONTINUOUS
 62
    7
370
   -1
100
AcDbLine
 10
104.6453711247
 20
292.9103679858
 11
77.7046027615
 21
265.9695996226
  0
LINE
  5
93
100
AcDbEntity
  8
PART4
  6
CONTINUOUS
 62
    7
370
   -1
100
AcDbLine
 10
77.7046027615
 20
265.9695996226
 11
115.8046027615
 21
265.9695996226
  0
ARC
  5
94
100
AcDbEntity
  8
PART4
  6
CONTINUOUS
 62
    7
370
   -1
100
AcDbCircle
 10
77.7046027615
 20
265.9695996226
 40
38.1
100
AcDbArc
 50
0
 51
44.99999999999997
  0
LINE
  5
95
100
AcDbEntity
  8
PART4
  6
CONTINUOUS
 62
    7
370
   -1
100
AcDbLine
 10
115.8046027615
 20
265.9695996226
 11
77.7046027615
 21
265.9695996226
  0
LINE
  5
96
100
AcDbEntity
  8
PART4
  6
CONTINUOUS
 62
    7
370
   -1
100
AcDbLine
 10
77.7046027615
 20
265.9695996226
 11
104.6453711247
 21
239.0288312594
  0
ARC
  5
97
100
AcDbEntity
  8
PART4
  6
CONTINUOUS
 62
    7
370
   -1
100
AcDbCircle
 10
77.7046027615
 20
265.9695996226
 40
38.09999999999999
100
AcDbArc
 50
315
 51
0
  0
LINE
  5
98
100
AcDbEntity
  8
PART5
  6
CONTINUOUS
 62
    7
370
   -1
100
AcDbLine
 10
77.7046027615
 20
265.9695996226
 11
77.7046027615
 21
212.0880628962
  0
LINE
  5
99
100
AcDbEntity
  8
PART5
  6
CONTINUOUS
 62
    7
370
   -1
100
AcDbLine
 10
77.7046027615
 20
212.0880628962
 11
104.6453711247
 21
239.0288312594
  0
LINE
  5
9A
100
AcDbEntity
  8
PART5
  6
CONTINUOUS
 62
    7
370
   -1
100
AcDbLine
 10
104.6453711247
 20
239.0288312594
 11
77.7046027615
 21
265.9695996226
  0
LINE
  5
9B
100
AcDbEntity
  8
PART6
  6
CONTINUOUS
 62
    7
370
   -1
100
AcDbLine
 10
77.7046027615
 20
265.9695996226
 11
77.7046027615
 21
212.0880628962
  0
LINE
  5
9C
100
AcDbEntity
  8
PART6
  6
CONTINUOUS
 62
    7
370
   -1
100
AcDbLine
 10
77.7046027615
 20
212.0880628962
 11
50.7638343983
 21
185.147294533
  0
LINE
  5
9D
100
AcDbEntity
  8
PART6
  6
CONTINUOUS
 62
    7
370
   -1
100
AcDbLine
 10
50.7638343983
 20
185.147294533
 11
50.7638343983
 21
239.0288312594
  0
LINE
  5
9E
100
AcDbEntity
  8
PART6
  6
CONTINUOUS
 62
    7
370
   -1
100
AcDbLine
 10
50.7638343983
 20
239.0288312594
 11
77.7046027615
 21
265.9695996226
  0
ENDBLK
  5
62
330
60
100
AcDbEntity
  8
0
100
AcDbBlockEnd
  0
ENDSEC
  0
SECTION
  2
ENTITIES
  0
LWPOLYLINE
  5
9F
100
AcDbEntity
  8
DEFAULT
  6
ByLayer
 62
    5
370
   -1
100
AcDbPolyline
 90
   19
 70
    1
 43
0
 10
73.69115445439348
 20
110.6572230020083
 10
71.39485815809721
 20
110.6572230020083
 10
71.39485815809721
 20
115.0819923505893
 42
0.06590434034420063
 10
71.25018228515398
 20
116.8991220155407
 42
0.160013069576577
 10
70.78027505435563
 20
117.5397466181704
 42
0.1575149176298452
 10
69.9978675763046
 20
117.7683341131194
 42
0.1576987046344956
 10
68.94636329106262
 20
117.4419453301959
 42
0.1684371822617424
 10
68.30805297342064
 20
116.5767836552074
 42
0.06598099185767088
 10
68.13559889883793
 20
114.5843063530025
 10
68.13559889883794
 20
110.6572230020083
 10
65.83930260254164
 20
110.6572230020083
 10
65.83930260254164
 20
119.3238896686749
 10
67.98745075068979
 20
119.3238896686749
 10
67.98745075068979
 20
118.0600018394403
 42
-0.2486296121988515
 10
70.81152496605111
 20
119.5461118908971
 42
-0.1053164015608127
 10
72.18247404895564
 20
119.2718066708988
 42
-0.1292191717088653
 10
73.12228907570132
 20
118.5721539549342
 42
-0.105493237426188
 10
73.56615480761155
 20
117.6062974293004
 42
-0.05336413851770001
 10
73.69115445439347
 20
116.058844414372
  0
LWPOLYLINE
  5
A0
100
AcDbEntity
  8
DEFAULT
  6
ByLayer
 62
    5
370
   -1
100
AcDbPolyline
 90
    9
 70
    1
 43
0
 10
61.17263593587498
 20
114.8053711501564
 10
59.83583089248566
 20
114.4546770059473
 42
0.08111657795612769
 10
58.64022944683464
 20
114.0553721391671
 42
0.2517191883486158
 10
58.209672972912
 20
113.2475018747621
 42
0.2041672574556273
 10
58.55342313186015
 20
112.4153251187737
 42
0.2097521333282617
 10
59.42958091014657
 20
112.0646304094157
 42
0.1670482644845848
 10
60.56268309755561
 20
112.472038381972
 42
0.1651612454991219
 10
61.08698874141569
 20
113.2312979238058
 42
0.05936679481637881
 10
61.17263593587498
 20
114.3481961602584
  0
LWPOLYLINE
  5
A1
100
AcDbEntity
  8
DEFAULT
  6
ByLayer
 62
    5
370
   -1
100
AcDbPolyline
 90
   25
 70
    1
 43
0
 10
58.28374704698609
 20
116.6572230020083
 10
56.20967297291202
 20
116.9535192983045
 42
-0.1714833175990237
 10
57.39428001071201
 20
118.9106957010749
 42
-0.1608829132837442
 10
59.89138673061569
 20
119.5461118908971
 42
-0.1088364278880773
 10
62.13212718878197
 20
119.1821073584025
 42
-0.1580303644335281
 10
63.16858551328485
 20
118.2573388575449
 42
-0.1088017057953483
 10
63.46893223217128
 20
116.198890587042
 10
63.46893223217128
 20
113.5137051192823
 42
0.05140802196953209
 10
63.59393244410213
 20
111.8233112387152
 42
0.06922878642324429
 10
64.06152482476386
 20
110.6572230020083
 10
61.76522852846756
 20
110.6572230020083
 10
61.54532115638196
 20
111.3285193689482
 10
61.46430366219593
 20
111.5958811688346
 42
-0.09332441867381724
 10
60.21083039798032
 20
110.7255105158897
 42
-0.1040133466925708
 10
58.78606274484613
 20
110.435000779786
 42
-0.1965430357596658
 10
56.68247433153011
 20
111.1612742723218
 42
-0.2154369487651162
 10
55.91337667661571
 20
112.9975014509004
 42
-0.1373780248024342
 10
56.25596941049554
 20
114.3076862828675
 42
-0.1473783213970957
 10
57.21603937593668
 20
115.1890519088124
 42
-0.06344049348471609
 10
58.99671071638525
 20
115.7231956657531
 42
0.0472009877729022
 10
61.17263593587498
 20
116.2868526316379
 10
61.17263593587496
 20
116.5194916794749
 42
0.2070921599656528
 10
60.86534466657866
 20
117.4812972173696
 42
0.1777887432707715
 10
59.70504355521325
 20
117.7683341131194
 42
0.1651091138038977
 10
58.80631711839266
 20
117.5218065296115
 42
0.1491587679877501
  0
LWPOLYLINE
  5
A2
100
AcDbEntity
  8
DEFAULT
  6
ByLayer
 62
    5
370
   -1
100
AcDbPolyline
 90
    4
 70
    1
 43
0
 10
51.98745075068979
 20
110.6572230020083
 10
51.98745075068979
 20
122.5831489279342
 10
54.28374704698609
 20
122.5831489279342
 10
54.28374704698609
 20
110.6572230020083
  0
LWPOLYLINE
  5
A3
100
AcDbEntity
  8
DEFAULT
  6
ByLayer
 62
    5
370
   -1
100
AcDbPolyline
 90
    8
 70
    1
 43
0
 10
44.13559889883794
 20
115.1363901985021
 42
0.166212785212059
 10
44.70388613014492
 20
112.9268990868823
 42
0.2404461653497594
 10
46.08814560133504
 20
112.2127785575638
 42
0.2413239634427049
 10
47.39312258564366
 20
112.8684502512305
 42
0.1627449374921727
 10
47.91337667661572
 20
115.0194925271984
 42
0.1661976731382082
 10
47.3769186346873
 20
117.091829898521
 42
0.2412377667960481
 10
46.04879427931036
 20
117.7683341131194
 42
0.2367422129321823
 10
44.67958076885933
 20
117.1039822965893
 42
0.1723447809988975
  0
LWPOLYLINE
  5
A4
100
AcDbEntity
  8
DEFAULT
  6
ByLayer
 62
    5
370
   -1
100
AcDbPolyline
 90
   13
 70
    1
 43
0
 10
41.83930260254164
 20
119.3238896686749
 10
43.98745075068979
 20
119.3238896686749
 10
43.98745075068979
 20
118.0600018394403
 42
-0.1189653659007499
 10
45.0968262893474
 20
119.1271307979556
 42
-0.1382105598910254
 10
46.64833142231282
 20
119.5461118908971
 42
-0.2273648758850449
 10
49.17263593587497
 20
118.3557188580535
 42
-0.1838682188936126
 10
50.209672972912
 20
115.0403250481301
 42
-0.1823656645300168
 10
49.1639558130116
 20
111.6456493164741
 42
-0.2285594541574868
 10
46.62981262121983
 20
110.435000779786
 42
-0.11631980068078
 10
45.34624743552599
 20
110.7185659654799
 42
-0.09041523807775481
 10
44.13559889883794
 20
111.6907888941383
 10
44.13559889883794
 20
107.3238896686749
 10
41.83930260254164
 20
107.3238896686749
  0
LWPOLYLINE
  5
A5
100
AcDbEntity
  8
DEFAULT
  6
ByLayer
 62
    5
370
   -1
100
AcDbPolyline
 90
    5
 70
    1
 43
0
 10
33.17263593587498
 20
115.7683341131194
 42
0.1931771868552583
 10
32.64543729449305
 20
117.2584962826132
 42
0.2094545272840989
 10
31.42379378480501
 20
117.7683341131194
 42
0.217515125702241
 10
30.1518028497943
 20
117.2301404987374
 42
0.1974850402976637
 10
29.65759025771036
 20
115.7683341131194
  0
LWPOLYLINE
  5
A6
100
AcDbEntity
  8
DEFAULT
  6
ByLayer
 62
    5
370
   -1
100
AcDbPolyline
 90
   14
 70
    1
 43
0
 10
33.02448778772683
 20
113.397963742749
 10
35.32078408402313
 20
113.1016674464527
 42
-0.1601948643917373
 10
33.92495092729885
 20
111.1167139723408
 42
-0.1590209405814524
 10
31.53722031120171
 20
110.435000779786
 42
-0.2510606897924124
 10
28.18073847650209
 20
111.9211119615407
 42
-0.1603231689598277
 10
27.32078408402314
 20
114.9245848018947
 42
-0.1928988919450596
 10
28.45446498396632
 20
118.3192605335506
 42
-0.218695711049943
 10
31.32078408402313
 20
119.5461118908971
 42
-0.2248762650829836
 10
34.39254387310953
 20
118.2700705332963
 42
-0.1866850592647392
 10
35.46893223217128
 20
114.360926705712
 10
29.61708038031941
 20
114.360926705712
 42
0.1907233177561242
 10
30.1836320391729
 20
112.7781722262
 42
0.2135192120775232
 10
31.53374803599676
 20
112.2127785575638
 42
0.1657236937100844
 10
32.45793725917127
 20
112.4934501805868
 42
0.1589948514629505
  0
LWPOLYLINE
  5
A7
100
AcDbEntity
  8
DEFAULT
  6
ByLayer
 62
    5
370
   -1
100
AcDbPolyline
 90
    4
 70
    1
 43
0
 10
23.39485815809721
 20
110.6572230020083
 10
23.39485815809721
 20
122.5831489279342
 10
25.69115445439348
 20
122.5831489279342
 10
25.69115445439348
 20
110.6572230020083
  0
LWPOLYLINE
  5
A8
100
AcDbEntity
  8
DEFAULT
  6
ByLayer
 62
    5
370
   -1
100
AcDbPolyline
 90
   14
 70
    1
 43
0
 10
14.13559889883794
 20
110.6572230020083
 10
14.13559889883794
 20
112.435000779786
 10
17.33930288511613
 20
116.2266676583836
 10
18.50596926920832
 20
117.5461118908971
 10
17.46314623712763
 20
117.4963437432576
 10
14.43189519513425
 20
117.4720378168231
 10
14.43189519513425
 20
119.3238896686749
 10
21.54300630624536
 20
119.3238896686749
 10
21.54300630624536
 20
117.6942600390453
 10
18.20157212773174
 20
113.8551398629449
 10
17.02448778772683
 20
112.5831489279342
 10
18.22819177400501
 20
112.6572230020083
 10
21.83930260254164
 20
112.6572230020083
 10
21.83930260254164
 20
110.6572230020083
  0
LWPOLYLINE
  5
A9
100
AcDbEntity
  8
DEFAULT
  6
ByLayer
 62
    5
370
   -1
100
AcDbPolyline
 90
   14
 70
    1
 43
0
 10
5.839302602541636
 20
110.6572230020083
 10
5.839302602541636
 20
112.435000779786
 10
9.043006588819821
 20
116.2266676583836
 10
10.20967297291202
 20
117.5461118908971
 10
9.166849940831327
 20
117.4963437432576
 10
6.135598898837941
 20
117.4720378168231
 10
6.135598898837941
 20
119.3238896686749
 10
13.24671000994906
 20
119.3238896686749
 10
13.24671000994906
 20
117.6942600390453
 10
9.905275831435461
 20
113.8551398629449
 10
8.728191491430522
 20
112.5831489279342
 10
9.931895477708707
 20
112.6572230020083
 10
13.54300630624536
 20
112.6572230020083
 10
13.54300630624536
 20
110.6572230020083
  0
LWPOLYLINE
  5
AA
100
AcDbEntity
  8
DEFAULT
  6
ByLayer
 62
    5
370
   -1
100
AcDbPolyline
 90
   19
 70
    1
 43
0
 10
2.357821121060169
 20
110.6572230020083
 10
2.357821121060168
 20
111.9454178879753
 42
-0.1223972716446019
 10
1.12402521330378
 20
110.8458804623984
 42
-0.1257588650398447
 10
-0.4905578904378
 20
110.435000779786
 42
-0.1301059334599577
 10
-2.043219883322571
 20
110.8198389635103
 42
-0.1670007383232326
 10
-3.038590748198299
 20
111.9002788754601
 42
-0.1009427833083571
 10
-3.345882582643557
 20
113.8238905163984
 10
-3.345882582643554
 20
119.3238896686749
 10
-1.04958628634725
 20
119.3238896686749
 10
-1.049586286347242
 20
115.3447233199045
 42
0.05037300662597056
 10
-0.9245860744163907
 20
113.1057189993408
 42
0.1675734251047262
 10
-0.4685673792888222
 20
112.453519580879
 42
0.1610647544742549
 10
0.3705527968116086
 20
112.2127785575638
 42
0.1578518894734129
 10
1.411062109053567
 20
112.5351169178971
 42
0.1591085904630703
 10
2.040113026149053
 20
113.3343070594387
 42
0.06279480214682299
 10
2.209672972912019
 20
115.6699552429086
 10
2.209672972912017
 20
119.3238896686749
 10
4.505969269208322
 20
119.3238896686749
 10
4.505969269208322
 20
110.6572230020083
  0
LWPOLYLINE
  5
AB
100
AcDbEntity
  8
DEFAULT
  6
ByLayer
 62
    5
370
   -1
100
AcDbPolyline
 90
    8
 70
    1
 43
0
 10
-11.1977344344954
 20
115.1363901985021
 42
0.1662127852120649
 10
-10.62944720318839
 20
112.9268990868823
 42
0.2404461653497619
 10
-9.24518773199827
 20
112.2127785575638
 42
0.2413239634427087
 10
-7.940210747689624
 20
112.8684502512305
 42
0.1627449374921689
 10
-7.419956656717598
 20
115.0194925271984
 42
0.1661976731382155
 10
-7.95641469864603
 20
117.091829898521
 42
0.2412377667960473
 10
-9.284539054022986
 20
117.7683341131194
 42
0.2367422129321749
 10
-10.65375256447397
 20
117.1039822965893
 42
0.1723447809989019
  0
LWPOLYLINE
  5
AC
100
AcDbEntity
  8
DEFAULT
  6
ByLayer
 62
    5
370
   -1
100
AcDbPolyline
 90
   13
 70
    1
 43
0
 10
-13.49403073079168
 20
119.3238896686749
 10
-11.34588258264355
 20
119.3238896686749
 10
-11.34588258264355
 20
118.0600018394403
 42
-0.1189653659007514
 10
-10.23650704398594
 20
119.1271307979556
 42
-0.1382105598910251
 10
-8.685001911020521
 20
119.5461118908972
 42
-0.2273648758850405
 10
-6.160697397458367
 20
118.3557188580535
 42
-0.1838682188936163
 10
-5.123660360421328
 20
115.0403250481301
 42
-0.182365664530017
 10
-6.169377520321749
 20
111.6456493164741
 42
-0.2285594541574915
 10
-8.703520712113518
 20
110.435000779786
 42
-0.1163198006807769
 10
-9.987085897807344
 20
110.7185659654798
 42
-0.0904152380777604
 10
-11.19773443449541
 20
111.6907888941383
 10
-11.1977344344954
 20
107.3238896686749
 10
-13.49403073079168
 20
107.3238896686749
  0
LWPOLYLINE
  5
AD
100
AcDbEntity
  8
DEFAULT
  6
ByLayer
 62
    5
370
   -1
100
AcDbPolyline
 90
   19
 70
    1
 43
0
 10
-20.38291961968056
 20
110.6572230020083
 10
-22.67921591597687
 20
110.6572230020083
 10
-22.67921591597687
 20
115.0819923505893
 42
0.06590434034420063
 10
-22.82389178892009
 20
116.8991220155407
 42
0.1600130695765559
 10
-23.29379901971845
 20
117.5397466181704
 42
0.1575149176298294
 10
-24.07620649776948
 20
117.7683341131194
 42
0.1576987046345034
 10
-25.12771078301146
 20
117.4419453301959
 42
0.1684371822617437
 10
-25.76602110065341
 20
116.5767836552074
 42
0.06598099185767312
 10
-25.93847517523614
 20
114.5843063530025
 10
-25.93847517523614
 20
110.6572230020083
 10
-28.23477147153243
 20
110.6572230020083
 10
-28.23477147153243
 20
119.3238896686749
 10
-26.08662332338429
 20
119.3238896686749
 10
-26.08662332338429
 20
118.0600018394403
 42
-0.2486296121988504
 10
-23.26254910802297
 20
119.5461118908971
 42
-0.1053164015608076
 10
-21.89160002511843
 20
119.2718066708988
 42
-0.1292191717088709
 10
-20.95178499837276
 20
118.5721539549342
 42
-0.1054932374261998
 10
-20.50791926646245
 20
117.6062974293004
 42
-0.05336413851771381
 10
-20.38291961968056
 20
116.058844414372
  0
LWPOLYLINE
  5
AE
100
AcDbEntity
  8
DEFAULT
  6
ByLayer
 62
    5
370
   -1
100
AcDbPolyline
 90
    8
 70
    1
 43
0
 10
-36.60514184190279
 20
114.9905569004905
 42
0.1807696907208242
 10
-36.00560469890033
 20
112.9836123500807
 42
0.2292871242715544
 10
-34.52759549262379
 20
112.2868526316379
 42
0.2303193461660796
 10
-33.05247928386905
 20
112.9836123500807
 42
0.179440807586979
 10
-32.45699369375464
 20
115.0067608514469
 42
0.1800932450793847
 10
-33.05247928386906
 20
116.9975008857515
 42
0.2303192267205953
 10
-34.52759549262379
 20
117.6942600390453
 42
0.2292870050707578
 10
-36.00560469890032
 20
116.9975008857515
 42
0.1807697890868445
  0
LWPOLYLINE
  5
AF
100
AcDbEntity
  8
DEFAULT
  6
ByLayer
 62
    5
370
   -1
100
AcDbPolyline
 90
   10
 70
    1
 43
0
 10
-38.9014381381991
 20
115.1132416971358
 42
-0.1222574291832683
 10
-38.34183159490446
 20
117.3377793346436
 42
-0.150919920783595
 10
-36.75618298757276
 20
118.9795613623416
 42
-0.1287246067144171
 10
-34.46509453893492
 20
119.5461118908971
 42
-0.2109274079128406
 10
-31.26139168295466
 20
118.261389845284
 42
-0.2026212639801802
 10
-30.0125492493102
 20
115.0148628269251
 42
-0.2022295973323171
 10
-31.27354408102297
 20
111.7359267763556
 42
-0.2115506096600919
 10
-34.44889171827647
 20
110.435000779786
 42
-0.1188796278362268
 10
-36.70757226500158
 20
110.9766677996708
 42
-0.158235579832029
 10
-38.34183159490447
 20
112.5652099696732
 42
-0.1239053267140347
  0
LWPOLYLINE
  5
B0
100
AcDbEntity
  8
DEFAULT
  6
ByLayer
 62
    5
370
   -1
100
AcDbPolyline
 90
    4
 70
    1
 43
0
 10
-42.97551221227317
 20
110.6572230020083
 10
-42.97551221227317
 20
119.3238896686749
 10
-40.67921591597687
 20
119.3238896686749
 10
-40.67921591597687
 20
110.6572230020083
  0
LWPOLYLINE
  5
B1
100
AcDbEntity
  8
DEFAULT
  6
ByLayer
 62
    5
370
   -1
100
AcDbPolyline
 90
    4
 70
    1
 43
0
 10
-42.97551221227317
 20
120.5831489279342
 10
-42.97551221227317
 20
122.5831489279342
 10
-40.67921591597687
 20
122.5831489279342
 10
-40.67921591597687
 20
120.5831489279342
  0
LWPOLYLINE
  5
B2
100
AcDbEntity
  8
DEFAULT
  6
ByLayer
 62
    5
370
   -1
100
AcDbPolyline
 90
   21
 70
    1
 43
0
 10
-44.53106776782873
 20
119.3238896686749
 10
-44.53106776782873
 20
117.5461118908971
 10
-46.08662332338427
 20
117.5461118908971
 10
-46.08662332338427
 20
113.9674089642733
 10
-46.04264173593736
 20
112.700625876921
 42
0.177762969804133
 10
-45.84414616246658
 20
112.4037508680906
 42
0.1671411134724726
 10
-45.46625252915219
 20
112.2868526316379
 42
0.08186704238750471
 10
-44.5681042397168
 20
112.5056037089531
 10
-44.38291961968059
 20
110.7683346782683
 42
-0.1009135694950965
 10
-46.16995566770693
 20
110.435000779786
 42
-0.1023112505794131
 10
-47.27238665595466
 20
110.6456493164741
 42
-0.1427327602514168
 10
-47.99287302314889
 20
111.1902098990296
 42
-0.1112474266807626
 10
-48.31000184037691
 20
112.0935660361235
 42
-0.03579443777193524
 10
-48.38291961968058
 20
113.726667940958
 10
-48.38291961968058
 20
117.5461118908971
 10
-49.49403073079169
 20
117.5461118908971
 10
-49.49403073079169
 20
119.3238896686749
 10
-48.38291961968058
 20
119.3238896686749
 10
-48.38291961968058
 20
120.9535192983045
 10
-46.08662332338427
 20
122.2868526316379
 10
-46.08662332338427
 20
119.3238896686749
  0
LWPOLYLINE
  5
B3
100
AcDbEntity
  8
DEFAULT
  6
ByLayer
 62
    5
370
   -1
100
AcDbPolyline
 90
   18
 70
    1
 43
0
 10
-50.3088455456065
 20
116.8053711501564
 10
-52.60514184190279
 20
116.435000779786
 42
0.1809968098175272
 10
-53.11787266993078
 20
117.4332652073325
 42
0.1804760167670019
 10
-54.15491027211679
 20
117.7683341131194
 42
0.2329674834671354
 10
-55.50791926646247
 20
117.1664826851292
 42
0.1695179555120465
 10
-56.01254924931023
 20
115.1525941494584
 42
0.1610966817175017
 10
-55.49576630324519
 20
112.9344223498263
 42
0.2405540491094061
 10
-54.10861326938429
 20
112.2868526316379
 42
0.1883458441869424
 10
-53.04321988332257
 20
112.6537512919523
 42
0.1622604489947791
 10
-52.45699369375465
 20
113.9164822612675
 10
-50.16069739745836
 20
113.6201859649712
 42
-0.1724509721436033
 10
-51.50213214112092
 20
111.239399334135
 42
-0.1746967243539236
 10
-54.16185369222875
 20
110.435000779786
 42
-0.2163976905724319
 10
-57.18268790860733
 20
111.641598328735
 42
-0.1943870566321078
 10
-58.30884554560648
 20
114.9824549250124
 42
-0.194505461597255
 10
-57.1832666211415
 20
118.3435658948362
 42
-0.2157801631579843
 10
-54.13870632116041
 20
119.5461118908971
 42
-0.1599423076957981
 10
-51.64102088872257
 20
118.8690289637646
 42
-0.1682635697126341
  0
LWPOLYLINE
  5
B4
100
AcDbEntity
  8
DEFAULT
  6
ByLayer
 62
    5
370
   -1
100
AcDbPolyline
 90
    5
 70
    1
 43
0
 10
-61.86440110116206
 20
115.7683341131194
 42
0.1931771868552464
 10
-62.39159974254395
 20
117.2584962826132
 42
0.2094545272840951
 10
-63.61324325223202
 20
117.7683341131194
 42
0.2175151257022491
 10
-64.88523418724272
 20
117.2301404987374
 42
0.1974850402976504
 10
-65.3794467793267
 20
115.7683341131194
  0
LWPOLYLINE
  5
B5
100
AcDbEntity
  8
DEFAULT
  6
ByLayer
 62
    5
370
   -1
100
AcDbPolyline
 90
   14
 70
    1
 43
0
 10
-62.01254924931021
 20
113.397963742749
 10
-59.71625295301391
 20
113.1016674464527
 42
-0.160194864391743
 10
-61.11208610973819
 20
111.1167139723408
 42
-0.1590209405814524
 10
-63.49981672583533
 20
110.435000779786
 42
-0.2510606897924089
 10
-66.85629856053491
 20
111.9211119615408
 42
-0.1603231689598308
 10
-67.71625295301389
 20
114.9245848018947
 42
-0.1928988919450639
 10
-66.58257205307071
 20
118.3192605335506
 42
-0.2186957110499472
 10
-63.71625295301391
 20
119.5461118908971
 42
-0.224876265082984
 10
-60.6444931639275
 20
118.2700705332963
 42
-0.1866850592647447
 10
-59.56810480486575
 20
114.360926705712
 10
-65.41995665671764
 20
114.360926705712
 42
0.1907233177561231
 10
-64.85340499786413
 20
112.7781722262
 42
0.2135192120775257
 10
-63.50328900104027
 20
112.2127785575638
 42
0.1657236937100899
 10
-62.57909977786576
 20
112.4934501805868
 42
0.1589948514629571
  0
LWPOLYLINE
  5
B6
100
AcDbEntity
  8
DEFAULT
  6
ByLayer
 62
    5
370
   -1
100
AcDbPolyline
 90
   26
 70
    1
 43
0
 10
-77.12366036042131
 20
113.1016674464527
 10
-74.82736406412502
 20
113.397963742749
 42
0.1817134537412919
 10
-74.23303476878101
 20
112.4037508680906
 42
0.1637490318832906
 10
-72.98129820731681
 20
112.0646304094156
 42
0.1581548590316304
 10
-71.64680744891518
 20
112.3968068828296
 42
0.2454173628753093
 10
-71.3458825826435
 20
113.0194925271984
 42
0.1967133408659172
 10
-71.50907612638184
 20
113.4593072713696
 42
0.1152480441762463
 10
-72.27759506876207
 20
113.7660203932807
 42
-0.0750101977649322
 10
-75.79842787226825
 20
114.8991214503918
 42
-0.2630575377237298
 10
-76.82736406412505
 20
116.8643998286403
 42
-0.2278055359034053
 10
-75.93789646270197
 20
118.7729638133926
 42
-0.1789409577799004
 10
-73.18037305847071
 20
119.5461118908971
 42
-0.1478680227512812
 10
-70.53685432802132
 20
118.9471540255778
 42
-0.1798681362132259
 10
-69.34588258264353
 20
117.1757415205268
 10
-71.49403073079171
 20
116.8053711501564
 42
0.1762609448243977
 10
-72.01949323457112
 20
117.6300240780519
 42
0.1598214678236301
 10
-73.12366036042131
 20
117.9164822612675
 42
0.1371855487857661
 10
-74.41879866650034
 20
117.6595384172938
 42
0.2593740206710589
 10
-74.67921591597684
 20
117.1861583461416
 42
0.2456185528240436
 10
-74.45120656841308
 20
116.7625475529268
 42
0.06647987495787806
 10
-72.31578953086742
 20
116.1068764244091
 42
-0.1095214193377344
 10
-69.76602110065343
 20
115.0762052252477
 42
-0.2284114958797616
 10
-69.04958628634725
 20
113.3597698457926
 42
-0.2276229810650797
 10
-70.04264173593737
 20
111.2972694572527
 42
-0.1809722242825228
 10
-72.98129820731683
 20
110.435000779786
 42
-0.1534212868271948
 10
-75.77701663880239
 20
111.1525935843095
 42
-0.1853542620166117
  0
LWPOLYLINE
  5
B7
100
AcDbEntity
  8
DEFAULT
  6
ByLayer
 62
    5
370
   -1
100
AcDbPolyline
 90
   26
 70
    1
 43
0
 10
-86.38291961968056
 20
113.1016674464527
 10
-84.08662332338429
 20
113.397963742749
 42
0.1817134537412993
 10
-83.49229402804028
 20
112.4037508680905
 42
0.1637490318832803
 10
-82.24055746657606
 20
112.0646304094157
 42
0.1581548590316313
 10
-80.90606670817442
 20
112.3968068828296
 42
0.2454173628752688
 10
-80.60514184190276
 20
113.0194925271984
 42
0.1967133408658923
 10
-80.76833538564108
 20
113.4593072713696
 42
0.1152480441762349
 10
-81.53685432802132
 20
113.7660203932807
 42
-0.0750101977649322
 10
-85.0576871315275
 20
114.8991214503918
 42
-0.2630575377237194
 10
-86.08662332338429
 20
116.8643998286403
 42
-0.2278055359034071
 10
-85.19715572196121
 20
118.7729638133926
 42
-0.1789409577799058
 10
-82.43963231772996
 20
119.5461118908972
 42
-0.1478680227512817
 10
-79.79611358728059
 20
118.9471540255778
 42
-0.1798681362132217
 10
-78.60514184190279
 20
117.1757415205268
 10
-80.75328999005094
 20
116.8053711501564
 42
0.1762609448244125
 10
-81.27875249383038
 20
117.6300240780519
 42
0.1598214678236144
 10
-82.38291961968058
 20
117.9164822612675
 42
0.1371855487857661
 10
-83.6780579257596
 20
117.6595384172938
 42
0.2593740206710555
 10
-83.93847517523612
 20
117.1861583461416
 42
0.2456185528240042
 10
-83.71046582767234
 20
116.7625475529268
 42
0.06647987495788119
 10
-81.57504879012667
 20
116.1068764244091
 42
-0.1095214193377367
 10
-79.02528035991268
 20
115.0762052252477
 42
-0.2284114958797669
 10
-78.30884554560649
 20
113.3597698457926
 42
-0.2276229810650804
 10
-79.30190099519663
 20
111.2972694572527
 42
-0.1809722242825258
 10
-82.24055746657606
 20
110.435000779786
 42
-0.1534212868271908
 10
-85.03627589806165
 20
111.1525935843095
 42
-0.1853542620166081
  0
LWPOLYLINE
  5
B8
100
AcDbEntity
  8
DEFAULT
  6
ByLayer
 62
    5
370
   -1
100
AcDbPolyline
 90
    4
 70
    1
 43
0
 10
-90.16069739745835
 20
110.6572230020083
 10
-90.16069739745835
 20
119.3238896686749
 10
-87.86440110116206
 20
119.3238896686749
 10
-87.86440110116206
 20
110.6572230020083
  0
LWPOLYLINE
  5
B9
100
AcDbEntity
  8
DEFAULT
  6
ByLayer
 62
    5
370
   -1
100
AcDbPolyline
 90
    4
 70
    1
 43
0
 10
-90.16069739745835
 20
120.5831489279342
 10
-90.16069739745835
 20
122.5831489279342
 10
-87.86440110116206
 20
122.5831489279342
 10
-87.86440110116206
 20
120.5831489279342
  0
LWPOLYLINE
  5
BA
100
AcDbEntity
  8
DEFAULT
  6
ByLayer
 62
    5
370
   -1
100
AcDbPolyline
 90
    8
 70
    1
 43
0
 10
-98.53106776782872
 20
115.1514367243901
 42
0.127684143678947
 10
-98.15375284704849
 20
113.121343672614
 42
0.2820756800878808
 10
-96.6259743628345
 20
112.2127785575638
 42
0.239266813272357
 10
-95.29958614505999
 20
112.8939130375844
 42
0.1689742320291645
 10
-94.75328999005092
 20
114.9292145021679
 42
0.1638068512632735
 10
-95.28396090663779
 20
117.1039822965893
 42
0.2405029912267611
 10
-96.64217831379088
 20
117.7683341131194
 42
0.2351273436094309
 10
-97.98824332287565
 20
117.1120842720675
 42
0.1734205701458605
  0
LWPOLYLINE
  5
BB
100
AcDbEntity
  8
DEFAULT
  6
ByLayer
 62
    5
370
   -1
100
AcDbPolyline
 90
   12
 70
    1
 43
0
 10
-92.45699369375464
 20
110.6572230020083
 10
-94.60514184190279
 20
110.6572230020083
 10
-94.60514184190279
 20
111.9211119615408
 42
-0.1195257890911644
 10
-95.83604362183945
 20
110.8094221378955
 42
-0.1234715217774194
 10
-97.26717880829622
 20
110.435000779786
 42
-0.2283648896821256
 10
-99.78106762654144
 20
111.6456493164741
 42
-0.1826315182993452
 10
-100.827364064125
 20
115.0229648024033
 42
-0.1842914998158254
 10
-99.80710912542955
 20
118.3927558950905
 42
-0.2252478569575029
 10
-97.22782635597359
 20
119.5461118908971
 42
-0.2270824258515579
 10
-94.75328999005096
 20
118.3470387351901
 10
-94.75328999005094
 20
122.5831489279342
 10
-92.45699369375464
 20
122.5831489279342
  0
LWPOLYLINE
  5
BC
100
AcDbEntity
  8
DEFAULT
  6
ByLayer
 62
    5
370
   -1
100
AcDbPolyline
 90
   21
 70
    1
 43
0
 10
-106.4569936937546
 20
119.3238896686749
 10
-106.4569936937546
 20
117.5461118908971
 10
-108.0125492493102
 20
117.5461118908971
 10
-108.0125492493102
 20
113.9674089642733
 10
-107.9685676618633
 20
112.700625876921
 42
0.1777629698041194
 10
-107.7700720883925
 20
112.4037508680906
 42
0.167141113472473
 10
-107.3921784550781
 20
112.2868526316379
 42
0.08186704238748972
 10
-106.4940301656427
 20
112.5056037089531
 10
-106.3088455456065
 20
110.7683346782683
 42
-0.10091356949509
 10
-108.0958815936329
 20
110.435000779786
 42
-0.1023112505794068
 10
-109.1983125818806
 20
110.6456493164741
 42
-0.1427327602514172
 10
-109.9187989490748
 20
111.1902098990297
 42
-0.1112474266808088
 10
-110.2359277663028
 20
112.0935660361234
 42
-0.03579443777192524
 10
-110.3088455456065
 20
113.726667940958
 10
-110.3088455456065
 20
117.5461118908971
 10
-111.4199566567176
 20
117.5461118908971
 10
-111.4199566567176
 20
119.3238896686749
 10
-110.3088455456065
 20
119.3238896686749
 10
-110.3088455456065
 20
120.9535192983045
 10
-108.0125492493102
 20
122.2868526316379
 10
-108.0125492493102
 20
119.3238896686749
  0
LWPOLYLINE
  5
BD
100
AcDbEntity
  8
DEFAULT
  6
ByLayer
 62
    5
370
   -1
100
AcDbPolyline
 90
   13
 70
    1
 43
0
 10
-114.6051418419028
 20
110.6572230020083
 10
-116.9014381381991
 20
110.6572230020083
 10
-116.9014381381991
 20
119.3238896686749
 10
-114.7532899900509
 20
119.3238896686749
 10
-114.7532899900509
 20
118.1005105865333
 42
-0.0977550519460753
 10
-113.8123175382369
 20
119.2567601450107
 42
-0.1561720185079187
 10
-112.8644005360131
 20
119.5461118908971
 42
-0.1438170981369812
 10
-111.4199566567176
 20
119.1097694219309
 10
-112.1236597952723
 20
117.099353726614
 42
0.1496770151887601
 10
-113.1468077314896
 20
117.4720378168231
 42
0.1810970994866853
 10
-113.922849371665
 20
117.2064132848371
 42
0.1501348396488125
 10
-114.4228496542394
 20
116.2463438845449
 42
0.05091113596421065
 10
-114.6051418419028
 20
113.3377787694947
  0
LWPOLYLINE
  5
BE
100
AcDbEntity
  8
DEFAULT
  6
ByLayer
 62
    5
370
   -1
100
AcDbPolyline
 90
    9
 70
    1
 43
0
 10
-121.5681048048658
 20
114.8053711501564
 10
-122.9049098482551
 20
114.4546770059473
 42
0.0811165779561268
 10
-124.1005112939061
 20
114.0553721391671
 42
0.2517191883486377
 10
-124.5310677678287
 20
113.2475018747621
 42
0.2041672574556471
 10
-124.1873176088806
 20
112.4153251187737
 42
0.2097521333282605
 10
-123.3111598305942
 20
112.0646304094157
 42
0.1670482644845848
 10
-122.1780576431851
 20
112.472038381972
 42
0.1651612454991078
 10
-121.653751999325
 20
113.2312979238058
 42
0.05936679481637903
 10
-121.5681048048658
 20
114.3481961602584
  0
LWPOLYLINE
  5
BF
100
AcDbEntity
  8
DEFAULT
  6
ByLayer
 62
    5
370
   -1
100
AcDbPolyline
 90
   25
 70
    1
 43
0
 10
-124.4569936937546
 20
116.6572230020083
 10
-126.5310677678287
 20
116.9535192983045
 42
-0.1714833175990271
 10
-125.3464607300287
 20
118.9106957010749
 42
-0.1608829132837428
 10
-122.849354010125
 20
119.5461118908971
 42
-0.1088364278880774
 10
-120.6086135519588
 20
119.1821073584025
 42
-0.15803036443352
 10
-119.5721552274559
 20
118.2573388575449
 42
-0.1088017057953438
 10
-119.2718085085695
 20
116.198890587042
 10
-119.2718085085695
 20
113.5137051192823
 42
0.05140802196953977
 10
-119.1468082966386
 20
111.8233112387152
 42
0.06922878642325811
 10
-118.6792159159769
 20
110.6572230020083
 10
-120.9755122122732
 20
110.6572230020083
 10
-121.1954195843588
 20
111.3285193689482
 10
-121.2764370785448
 20
111.5958811688346
 42
-0.09332441867381142
 10
-122.5299103427604
 20
110.7255105158897
 42
-0.1040133466925704
 10
-123.9546779958946
 20
110.435000779786
 42
-0.1965430357596661
 10
-126.0582664092106
 20
111.1612742723218
 42
-0.2154369487651122
 10
-126.827364064125
 20
112.9975014509004
 42
-0.1373780248024388
 10
-126.4847713302452
 20
114.3076862828675
 42
-0.1473783213971052
 10
-125.524701364804
 20
115.1890519088124
 42
-0.06344049348471201
 10
-123.7440300243555
 20
115.7231956657531
 42
0.04720098777290421
 10
-121.5681048048658
 20
116.2868526316379
 10
-121.5681048048658
 20
116.5194916794749
 42
0.2070921599656383
 10
-121.8753960741621
 20
117.4812972173696
 42
0.1777887432707754
 10
-123.0356971855275
 20
117.7683341131194
 42
0.1651091138039025
 10
-123.9344236223481
 20
117.5218065296115
 42
0.1491587679877575
  0
LWPOLYLINE
  5
C0
100
AcDbEntity
  8
DEFAULT
  6
ByLayer
 62
    5
370
   -1
100
AcDbPolyline
 90
    5
 70
    1
 43
0
 10
-130.2347714715324
 20
115.7683341131194
 42
0.1931771868552452
 10
-130.7619701129143
 20
117.2584962826132
 42
0.2094545272840882
 10
-131.9836136226024
 20
117.7683341131194
 42
0.2175151257022402
 10
-133.2556045576131
 20
117.2301404987374
 42
0.1974850402976747
 10
-133.749817149697
 20
115.7683341131194
  0
LWPOLYLINE
  5
C1
100
AcDbEntity
  8
DEFAULT
  6
ByLayer
 62
    5
370
   -1
100
AcDbPolyline
 90
   14
 70
    1
 43
0
 10
-130.3829196196806
 20
113.397963742749
 10
-128.0866233233843
 20
113.1016674464527
 42
-0.1601948643917493
 10
-129.4824564801086
 20
111.1167139723408
 42
-0.1590209405814604
 10
-131.8701870962057
 20
110.435000779786
 42
-0.2510606897924137
 10
-135.2266689309053
 20
111.9211119615407
 42
-0.1603231689598287
 10
-136.0866233233843
 20
114.9245848018947
 42
-0.1928988919450616
 10
-134.9529424234411
 20
118.3192605335506
 42
-0.2186957110499423
 10
-132.0866233233843
 20
119.5461118908971
 42
-0.2248762650829867
 10
-129.0148635342979
 20
118.2700705332963
 42
-0.1866850592647467
 10
-127.9384751752361
 20
114.360926705712
 10
-133.790327027088
 20
114.360926705712
 42
0.1907233177561387
 10
-133.2237753682345
 20
112.7781722262
 42
0.2135192120775374
 10
-131.8736593714106
 20
112.2127785575638
 42
0.1657236937100835
 10
-130.9494701482361
 20
112.4934501805868
 42
0.1589948514629589
  0
LWPOLYLINE
  5
C2
100
AcDbEntity
  8
DEFAULT
  6
ByLayer
 62
    5
370
   -1
100
AcDbPolyline
 90
   12
 70
    1
 43
0
 10
-147.4199566567176
 20
110.6572230020083
 10
-147.4199566567176
 20
122.5831489279342
 10
-144.9755122122732
 20
122.5831489279342
 10
-144.9755122122732
 20
117.9164822612675
 10
-140.2347714715324
 20
117.9164822612675
 10
-140.2347714715324
 20
122.5831489279342
 10
-137.790327027088
 20
122.5831489279342
 10
-137.790327027088
 20
110.6572230020083
 10
-140.2347714715324
 20
110.6572230020083
 10
-140.2347714715324
 20
115.9164822612675
 10
-144.9755122122732
 20
115.9164822612675
 10
-144.9755122122732
 20
110.6572230020083
  0
LWPOLYLINE
  5
C3
100
AcDbEntity
  8
DEFAULT
  6
ByLayer
 62
    5
370
   -1
100
AcDbPolyline
 90
   30
 70
    1
 43
0
 10
54.46184444485658
 20
141.3418442014031
 10
56.53591851893066
 20
141.3418442014031
 10
56.53591851893066
 20
140.1670758418327
 42
-0.2373869490350039
 10
59.23152081230512
 20
141.5640664236253
 42
-0.1315120310734607
 10
60.67191426901045
 20
141.2168445546212
 42
-0.1393853272245128
 10
61.67365040661294
 20
140.1670758418327
 42
-0.1018343532165941
 10
62.89934490404011
 20
141.2168445546212
 42
-0.1239296679571219
 10
64.30328060139152
 20
141.5640664236253
 42
-0.1355305589141697
 10
65.9109191547232
 20
141.175177817311
 42
-0.1623661969580475
 10
66.89355834384749
 20
140.0339742195727
 42
-0.09154428103144722
 10
67.12851111152324
 20
138.2330479404286
 10
67.12851111152324
 20
132.6751775347365
 10
64.83221481522693
 20
132.6751775347365
 10
64.83221481522692
 20
137.6311970775875
 42
0.114147013791051
 10
64.59841947261953
 20
139.2967057540369
 42
0.2721000606534024
 10
63.62966938431498
 20
139.7862886458476
 42
0.1575639071466876
 10
62.73441409240144
 20
139.4923071996879
 42
0.1657627374473875
 10
62.12908982405739
 20
138.6311965124385
 42
0.07234374872549773
 10
61.94332592633805
 20
136.839529633841
 10
61.94332592633805
 20
132.6751775347365
 10
59.64702963004177
 20
132.6751775347365
 10
59.64702963004177
 20
137.426335101092
 42
0.06098923679750197
 10
59.52723839606728
 20
139.0600157184607
 42
0.1633931196985061
 10
59.1551324532434
 20
139.6068905860039
 42
0.1561218014296468
 10
58.47110384540306
 20
139.7862886458476
 42
0.1551837175468122
 10
57.53418294647714
 20
139.5004091751661
 42
0.1670025847935331
 10
56.93811807867962
 20
138.6757568124196
 42
0.07226985949626313
 10
56.75814074115285
 20
136.8881414867101
 10
56.75814074115286
 20
132.6751775347365
 10
54.46184444485658
 20
132.6751775347365
  0
LWPOLYLINE
  5
C4
100
AcDbEntity
  8
DEFAULT
  6
ByLayer
 62
    5
370
   -1
100
AcDbPolyline
 90
    8
 70
    1
 43
0
 10
46.31369629670843
 20
137.0085114332188
 42
0.1807696907208289
 10
46.9132334397109
 20
135.0015668828089
 42
0.2292871242715487
 10
48.39124264598743
 20
134.3048071643661
 42
0.2303193461660835
 10
49.86635885474213
 20
135.0015668828089
 42
0.1794408075869755
 10
50.4618444448566
 20
137.0247153841751
 42
0.1800932450793856
 10
49.86635885474214
 20
139.0154554184797
 42
0.2303192267206155
 10
48.39124264598743
 20
139.7122145717735
 42
0.2292870050707693
 10
46.91323343971089
 20
139.0154554184797
 42
0.1807697890868382
  0
LWPOLYLINE
  5
C5
100
AcDbEntity
  8
DEFAULT
  6
ByLayer
 62
    5
370
   -1
100
AcDbPolyline
 90
   10
 70
    1
 43
0
 10
44.01740000041211
 20
137.131196229864
 42
-0.1222574291832735
 10
44.57700654370679
 20
139.3557338673718
 42
-0.1509199207836041
 10
46.16265515103846
 20
140.9975158950698
 42
-0.1287246067144227
 10
48.4537435996763
 20
141.5640664236253
 42
-0.2109274079128287
 10
51.65744645565658
 20
140.2793443780122
 42
-0.2026212639801733
 10
52.90628888930104
 20
137.0328173596533
 42
-0.2022295973323197
 10
51.64529405758827
 20
133.7538813090838
 42
-0.2115506096601035
 10
48.46994642033476
 20
132.4529553125142
 42
-0.118879627836225
 10
46.21126587360963
 20
132.994622332399
 42
-0.158235579832029
 10
44.57700654370677
 20
134.5831645024015
 42
-0.1239053267140386
  0
LWPOLYLINE
  5
C6
100
AcDbEntity
  8
DEFAULT
  6
ByLayer
 62
    5
370
   -1
100
AcDbPolyline
 90
   18
 70
    1
 43
0
 10
42.75814074115286
 20
138.8233256828846
 10
40.46184444485657
 20
138.4529553125142
 42
0.1809968098175313
 10
39.9491136168286
 20
139.4512197400607
 42
0.1804760167669657
 10
38.91207601464259
 20
139.7862886458476
 42
0.2329674834671361
 10
37.5590670202969
 20
139.1844372178574
 42
0.1695179555120283
 10
37.05443703744917
 20
137.1705486821866
 42
0.1610966817174966
 10
37.57121998351415
 20
134.9523768825546
 42
0.2405540491094231
 10
38.95837301737507
 20
134.3048071643661
 42
0.1883458441869578
 10
40.02376640343682
 20
134.6717058246805
 42
0.1622604489947777
 10
40.60999259300472
 20
135.9344367939957
 10
42.906288889301
 20
135.6381404976994
 42
-0.1724509721436047
 10
41.56485414563844
 20
133.2573538668632
 42
-0.1746967243539412
 10
38.90513259453061
 20
132.4529553125142
 42
-0.2163976905724346
 10
35.88429837815205
 20
133.6595528614632
 42
-0.1943870566321019
 10
34.75814074115283
 20
137.0004094577406
 42
-0.194505461597262
 10
35.88371966561789
 20
140.3615204275645
 42
-0.2157801631579855
 10
38.92827996559896
 20
141.5640664236253
 42
-0.1599423076957946
 10
41.42596539803679
 20
140.8869834964928
 42
-0.1682635697126509
  0
LWPOLYLINE
  5
C7
100
AcDbEntity
  8
DEFAULT
  6
ByLayer
 62
    5
370
   -1
100
AcDbPolyline
 90
    4
 70
    1
 43
0
 10
30.60999259300473
 20
132.6751775347365
 10
30.60999259300473
 20
134.9714738310328
 10
32.90628888930101
 20
134.9714738310328
 10
32.90628888930101
 20
132.6751775347365
  0
LWPOLYLINE
  5
C8
100
AcDbEntity
  8
DEFAULT
  6
ByLayer
 62
    5
370
   -1
100
AcDbPolyline
 90
    5
 70
    1
 43
0
 10
26.60999259300473
 20
137.7862886458476
 42
0.1931771868552434
 10
26.08279395162283
 20
139.2764508153414
 42
0.20945452728412
 10
24.86115044193477
 20
139.7862886458476
 42
0.2175151257022696
 10
23.58915950692408
 20
139.2480950314656
 42
0.197485040297688
 10
23.0949469148401
 20
137.7862886458476
  0
LWPOLYLINE
  5
C9
100
AcDbEntity
  8
DEFAULT
  6
ByLayer
 62
    5
370
   -1
100
AcDbPolyline
 90
   14
 70
    1
 43
0
 10
26.46184444485658
 20
135.4159182754772
 10
28.75814074115285
 20
135.1196219791809
 42
-0.1601948643917553
 10
27.36230758442859
 20
133.134668505069
 42
-0.1590209405814369
 10
24.97457696833147
 20
132.4529553125142
 42
-0.2510606897924203
 10
21.61809513363185
 20
133.939066494269
 42
-0.1603231689598284
 10
20.75814074115285
 20
136.9425393346229
 42
-0.1928988919450596
 10
21.89182164109608
 20
140.3372150662788
 42
-0.2186957110499383
 10
24.75814074115286
 20
141.5640664236253
 42
-0.2248762650829925
 10
27.82990053023928
 20
140.2880250660245
 42
-0.1866850592647435
 10
28.906288889301
 20
136.3788812384402
 10
23.05443703744914
 20
136.3788812384402
 42
0.1907233177561223
 10
23.62098869630265
 20
134.7961267589282
 42
0.2135192120775208
 10
24.97110469312651
 20
134.230733090292
 42
0.1657236937101042
 10
25.895293916301
 20
134.5114047133151
 42
0.1589948514629791
  0
LWPOLYLINE
  5
CA
100
AcDbEntity
  8
DEFAULT
  6
ByLayer
 62
    5
370
   -1
100
AcDbPolyline
 90
   18
 70
    1
 43
0
 10
19.64702963004177
 20
138.8233256828846
 10
17.35073333374547
 20
138.4529553125142
 42
0.1809968098175328
 10
16.83800250571747
 20
139.4512197400607
 42
0.1804760167669665
 10
15.80096490353148
 20
139.7862886458476
 42
0.2329674834671388
 10
14.44795590918581
 20
139.1844372178574
 42
0.1695179555120361
 10
13.94332592633805
 20
137.1705486821866
 42
0.1610966817174964
 10
14.46010887240305
 20
134.9523768825546
 42
0.2405540491094258
 10
15.84726190626395
 20
134.3048071643661
 42
0.1883458441869803
 10
16.9126552923257
 20
134.6717058246805
 42
0.1622604489947927
 10
17.49888148189363
 20
135.9344367939957
 10
19.7951777781899
 20
135.6381404976994
 42
-0.1724509721436031
 10
18.45374303452733
 20
133.2573538668632
 42
-0.1746967243539396
 10
15.79402148341953
 20
132.4529553125142
 42
-0.2163976905724353
 10
12.77318726704093
 20
133.6595528614632
 42
-0.194387056632101
 10
11.64702963004176
 20
137.0004094577406
 42
-0.1945054615972571
 10
12.77260855450677
 20
140.3615204275644
 42
-0.2157801631579912
 10
15.81716885448785
 20
141.5640664236253
 42
-0.159942307695787
 10
18.3148542869257
 20
140.8869834964928
 42
-0.1682635697126375
  0
LWPOLYLINE
  5
CB
100
AcDbEntity
  8
DEFAULT
  6
ByLayer
 62
    5
370
   -1
100
AcDbPolyline
 90
    9
 70
    1
 43
0
 10
7.498881481893619
 20
136.8233256828846
 10
6.162076438504299
 20
136.4726315386756
 42
0.08111657795610468
 10
4.966474992853252
 20
136.0733266718953
 42
0.2517191883486103
 10
4.53591851893064
 20
135.2654564074903
 42
0.2041672574556436
 10
4.879668677878776
 20
134.4332796515019
 42
0.2097521333282824
 10
5.755826456165207
 20
134.0825849421439
 42
0.1670482644845613
 10
6.888928643574243
 20
134.4899929147002
 42
0.1651612454991456
 10
7.413234287434334
 20
135.249252456534
 42
0.05936679481637658
 10
7.498881481893622
 20
136.3661506929867
  0
LWPOLYLINE
  5
CC
100
AcDbEntity
  8
DEFAULT
  6
ByLayer
 62
    5
370
   -1
100
AcDbPolyline
 90
   25
 70
    1
 43
0
 10
4.609992593004733
 20
138.6751775347365
 10
2.535918518930674
 20
138.9714738310328
 42
-0.1714833175990102
 10
3.720525556730658
 20
140.9286502338031
 42
-0.1608829132837479
 10
6.217632276634331
 20
141.5640664236253
 42
-0.1088364278880654
 10
8.458372734800612
 20
141.2000618911307
 42
-0.158030364433532
 10
9.494831059303459
 20
140.2752933902731
 42
-0.1088017057953532
 10
9.79517777818989
 20
138.2168451197702
 10
9.795177778189879
 20
135.5316596520105
 42
0.05140802196954011
 10
9.920177990120781
 20
133.8412657714435
 42
0.06922878642323758
 10
10.3877703707825
 20
132.6751775347365
 10
8.0914740744862
 20
132.6751775347365
 10
7.8715667024006
 20
133.3464739016764
 10
7.790549208214575
 20
133.6138357015628
 42
-0.09332441867382149
 10
6.537075943998954
 20
132.7434650486179
 42
-0.1040133466925897
 10
5.112308290864775
 20
132.4529553125142
 42
-0.1965430357596527
 10
3.008719877548741
 20
133.17922880505
 42
-0.2154369487651198
 10
2.239622222634363
 20
135.0154559836286
 42
-0.1373780248024327
 10
2.582214956514187
 20
136.3256408155957
 42
-0.1473783213971202
 10
3.542284921955312
 20
137.2070064415406
 42
-0.0634404934847192
 10
5.322956262403892
 20
137.7411501984813
 42
0.04720098777290777
 10
7.498881481893616
 20
138.3048071643661
 10
7.498881481893636
 20
138.5374462122031
 42
0.2070921599656227
 10
7.191590212597292
 20
139.4992517500978
 42
0.1777887432707906
 10
6.031289101231892
 20
139.7862886458476
 42
0.1651091138038856
 10
5.13256266441131
 20
139.5397610623397
 42
0.1491587679877697
  0
LWPOLYLINE
  5
CD
100
AcDbEntity
  8
DEFAULT
  6
ByLayer
 62
    5
370
   -1
100
AcDbPolyline
 90
    8
 70
    1
 43
0
 10
-4.945562962550836
 20
137.1543447312303
 42
0.1662127852120676
 10
-4.377275731243826
 20
134.9448536196105
 42
0.2404461653497792
 10
-2.993016260053708
 20
134.230733090292
 42
0.2413239634426991
 10
-1.688039275745066
 20
134.8864047839587
 42
0.1627449374921613
 10
-1.167785184773063
 20
137.0374470599266
 42
0.1661976731382075
 10
-1.704243226701443
 20
139.1097844312492
 42
0.2412377667960521
 10
-3.032367582078422
 20
139.7862886458476
 42
0.2367422129322011
 10
-4.401581092529419
 20
139.1219368293175
 42
0.1723447809989048
  0
LWPOLYLINE
  5
CE
100
AcDbEntity
  8
DEFAULT
  6
ByLayer
 62
    5
370
   -1
100
AcDbPolyline
 90
   13
 70
    1
 43
0
 10
-7.241859258847114
 20
141.3418442014031
 10
-5.09371111069899
 20
141.3418442014031
 10
-5.093711110698985
 20
140.0779563721685
 42
-0.1189653659007544
 10
-3.984335572041368
 20
141.1450853306838
 42
-0.1382105598910124
 10
-2.432830439075957
 20
141.5640664236254
 42
-0.2273648758850302
 10
0.09147407448618949
 20
140.3736733907817
 42
-0.1838682188936138
 10
1.128511111523255
 20
137.0582795808582
 42
-0.1823656645300248
 10
0.08279395162278957
 20
133.6636038492023
 42
-0.2285594541574992
 10
-2.451349240168953
 20
132.4529553125142
 42
-0.1163198006807913
 10
-3.734914425862756
 20
132.7365204982081
 42
-0.09041523807776544
 10
-4.945562962550834
 20
133.7087434268665
 10
-4.945562962550838
 20
129.3418442014031
 10
-7.241859258847114
 20
129.3418442014031
  0
LWPOLYLINE
  5
CF
100
AcDbEntity
  8
DEFAULT
  6
ByLayer
 62
    5
370
   -1
100
AcDbPolyline
 90
   26
 70
    1
 43
0
 10
-17.3159333329212
 20
135.1196219791809
 10
-15.0196370366249
 20
135.4159182754772
 42
0.1817134537412991
 10
-14.42530774128091
 20
134.4217054008188
 42
0.1637490318832735
 10
-13.17357117981669
 20
134.0825849421439
 42
0.1581548590316015
 10
-11.83908042141503
 20
134.4147614155577
 42
0.2454173628752808
 10
-11.5381555551434
 20
135.0374470599266
 42
0.196713340866006
 10
-11.7013490988817
 20
135.4772618040978
 42
0.1152480441762529
 10
-12.46986804126196
 20
135.7839749260089
 42
-0.075010197764936
 10
-15.99070084476815
 20
136.91707598312
 42
-0.2630575377237239
 10
-17.01963703662491
 20
138.8823543613685
 42
-0.2278055359033895
 10
-16.13016943520186
 20
140.7909183461208
 42
-0.1789409577799161
 10
-13.37264603097059
 20
141.5640664236254
 42
-0.1478680227512743
 10
-10.72912730052122
 20
140.965108558306
 42
-0.1798681362132242
 10
-9.538155555143428
 20
139.193696053255
 10
-11.68630370329156
 20
138.8233256828846
 42
0.1762609448244176
 10
-12.211766207071
 20
139.6479786107801
 42
0.1598214678236567
 10
-13.3159333329212
 20
139.9344367939958
 42
0.1371855487857204
 10
-14.61107163900022
 20
139.677492950022
 42
0.2593740206710821
 10
-14.87148888847677
 20
139.2041128788698
 42
0.2456185528239589
 10
-14.64347954091297
 20
138.780502085655
 42
0.066479874957864
 10
-12.5080625033673
 20
138.1248309571373
 42
-0.1095214193377288
 10
-9.958294073153294
 20
137.0941597579759
 42
-0.2284114958797747
 10
-9.241859258847118
 20
135.3777243785208
 42
-0.2276229810650795
 10
-10.23491470843727
 20
133.3152239899809
 42
-0.1809722242825354
 10
-13.17357117981669
 20
132.4529553125142
 42
-0.1534212868271785
 10
-15.96928961130226
 20
133.1705481170377
 42
-0.1853542620166095
  0
LWPOLYLINE
  5
D0
100
AcDbEntity
  8
DEFAULT
  6
ByLayer
 62
    5
370
   -1
100
AcDbPolyline
 90
   19
 70
    1
 43
0
 10
-18.79741481440269
 20
132.6751775347365
 10
-21.09371111069898
 20
132.6751775347365
 10
-21.09371111069899
 20
137.0999468833175
 42
0.06590434034420531
 10
-21.23838698364221
 20
138.9170765482689
 42
0.1600130695765575
 10
-21.70829421444056
 20
139.5577011508986
 42
0.15751491762981
 10
-22.49070169249157
 20
139.7862886458476
 42
0.157698704634501
 10
-23.54220597773357
 20
139.4598998629241
 42
0.1684371822617315
 10
-24.18051629537549
 20
138.5947381879356
 42
0.06598099185766609
 10
-24.35297036995825
 20
136.6022608857307
 10
-24.35297036995824
 20
132.6751775347365
 10
-26.64926666625453
 20
132.6751775347365
 10
-26.64926666625453
 20
141.3418442014031
 10
-24.50111851810638
 20
141.3418442014031
 10
-24.50111851810637
 20
140.0779563721685
 42
-0.2486296121988499
 10
-21.67704430274507
 20
141.5640664236253
 42
-0.1053164015607859
 10
-20.30609521984054
 20
141.289761203627
 42
-0.129219171708867
 10
-19.36628019309488
 20
140.5901084876624
 42
-0.1054932374261945
 10
-18.9224144611846
 20
139.6242519620286
 42
-0.05336413851771248
 10
-18.79741481440269
 20
138.0767989471002
  0
LWPOLYLINE
  5
D1
100
AcDbEntity
  8
DEFAULT
  6
ByLayer
 62
    5
370
   -1
100
AcDbPolyline
 90
    9
 70
    1
 43
0
 10
-31.3159333329212
 20
136.8233256828846
 10
-32.65273837631051
 20
136.4726315386756
 42
0.08111657795610316
 10
-33.84833982196152
 20
136.0733266718953
 42
0.2517191883486173
 10
-34.27889629588418
 20
135.2654564074903
 42
0.2041672574556448
 10
-33.935146136936
 20
134.4332796515019
 42
0.209752133328291
 10
-33.0589883586496
 20
134.0825849421439
 42
0.1670482644845529
 10
-31.92588617124058
 20
134.4899929147003
 42
0.1651612454991431
 10
-31.40158052738045
 20
135.249252456534
 42
0.05936679481636544
 10
-31.3159333329212
 20
136.3661506929867
  0
LWPOLYLINE
  5
D2
100
AcDbEntity
  8
DEFAULT
  6
ByLayer
 62
    5
370
   -1
100
AcDbPolyline
 90
   25
 70
    1
 43
0
 10
-34.20482222181009
 20
138.6751775347365
 10
-36.27889629588416
 20
138.9714738310327
 42
-0.1714833175990123
 10
-35.09428925808417
 20
140.9286502338031
 42
-0.1608829132837511
 10
-32.59718253818048
 20
141.5640664236253
 42
-0.1088364278880656
 10
-30.35644208001422
 20
141.2000618911307
 42
-0.1580303644335444
 10
-29.31998375551132
 20
140.2752933902731
 42
-0.1088017057953535
 10
-29.0196370366249
 20
138.2168451197702
 10
-29.01963703662491
 20
135.5316596520105
 42
0.05140802196952552
 10
-28.89463682469406
 20
133.8412657714435
 42
0.06922878642322677
 10
-28.4270444440323
 20
132.6751775347365
 10
-30.72334074032861
 20
132.6751775347365
 10
-30.94324811241421
 20
133.3464739016764
 10
-31.02426560660024
 20
133.6138357015628
 42
-0.09332441867382239
 10
-32.27773887081584
 20
132.7434650486179
 42
-0.1040133466925926
 10
-33.70250652395002
 20
132.4529553125143
 42
-0.1965430357596552
 10
-35.80609493726606
 20
133.17922880505
 42
-0.21543694876512
 10
-36.57519259218044
 20
135.0154559836286
 42
-0.1373780248024425
 10
-36.23259985830064
 20
136.3256408155957
 42
-0.1473783213971074
 10
-35.27252989285947
 20
137.2070064415406
 42
-0.06344049348472021
 10
-33.49185855241094
 20
137.7411501984813
 42
0.04720098777290777
 10
-31.3159333329212
 20
138.3048071643661
 10
-31.31593333292118
 20
138.5374462122031
 42
0.2070921599655954
 10
-31.62322460221752
 20
139.4992517500978
 42
0.1777887432707916
 10
-32.78352571358293
 20
139.7862886458476
 42
0.1651091138038624
 10
-33.68225215040351
 20
139.5397610623397
 42
0.1491587679877874
  0
LWPOLYLINE
  5
D3
100
AcDbEntity
  8
DEFAULT
  6
ByLayer
 62
    5
370
   -1
100
AcDbPolyline
 90
   30
 70
    1
 43
0
 10
-50.87148888847675
 20
141.3418442014031
 10
-48.79741481440269
 20
141.3418442014031
 10
-48.79741481440269
 20
140.1670758418327
 42
-0.2373869490350096
 10
-46.10181252102821
 20
141.5640664236253
 42
-0.131512031073478
 10
-44.66141906432286
 20
141.2168445546212
 42
-0.1393853272245007
 10
-43.65968292672039
 20
140.1670758418327
 42
-0.1018343532165858
 10
-42.43398842929322
 20
141.2168445546212
 42
-0.1239296679571261
 10
-41.03005273194179
 20
141.5640664236253
 42
-0.1355305589141703
 10
-39.42241417861011
 20
141.175177817311
 42
-0.1623661969580462
 10
-38.43977498948583
 20
140.0339742195727
 42
-0.09154428103144677
 10
-38.20482222181009
 20
138.2330479404286
 10
-38.20482222181009
 20
132.6751775347365
 10
-40.50111851810638
 20
132.6751775347365
 10
-40.50111851810641
 20
137.6311970775875
 42
0.1141470137910753
 10
-40.73491386071381
 20
139.2967057540369
 42
0.2721000606533844
 10
-41.70366394901834
 20
139.7862886458476
 42
0.1575639071466824
 10
-42.59891924093189
 20
139.4923071996879
 42
0.1657627374473813
 10
-43.20424350927594
 20
138.6311965124385
 42
0.07234374872549003
 10
-43.39000740699527
 20
136.839529633841
 10
-43.39000740699527
 20
132.6751775347365
 10
-45.68630370329157
 20
132.6751775347365
 10
-45.68630370329157
 20
137.426335101092
 42
0.06098923679750999
 10
-45.80609493726606
 20
139.0600157184607
 42
0.1633931196985038
 10
-46.17820088008993
 20
139.6068905860039
 42
0.1561218014296487
 10
-46.86222948793025
 20
139.7862886458476
 42
0.1551837175468097
 10
-47.79915038685617
 20
139.5004091751661
 42
0.1670025847935265
 10
-48.39521525465371
 20
138.6757568124196
 42
0.07226985949625499
 10
-48.57519259218045
 20
136.8881414867101
 10
-48.57519259218046
 20
132.6751775347365
 10
-50.87148888847675
 20
132.6751775347365
  0
LWPOLYLINE
  5
D4
100
AcDbEntity
  8
DEFAULT
  6
ByLayer
 62
    5
370
   -1
100
AcDbPolyline
 90
   26
 70
    1
 43
0
 10
-60.72334074032861
 20
135.1196219791809
 10
-58.4270444440323
 20
135.4159182754772
 42
0.1817134537412993
 10
-57.83271514868832
 20
134.4217054008188
 42
0.1637490318832694
 10
-56.5809785872241
 20
134.0825849421439
 42
0.158154859031599
 10
-55.24648782882247
 20
134.4147614155578
 42
0.2454173628752792
 10
-54.94556296255083
 20
135.0374470599266
 42
0.1967133408660171
 10
-55.10875650628913
 20
135.4772618040978
 42
0.1152480441762711
 10
-55.87727544866936
 20
135.7839749260089
 42
-0.07501019776493689
 10
-59.39810825217556
 20
136.91707598312
 42
-0.2630575377237167
 10
-60.42704444403235
 20
138.8823543613685
 42
-0.2278055359033842
 10
-59.53757684260925
 20
140.7909183461208
 42
-0.1789409577799152
 10
-56.780053438378
 20
141.5640664236254
 42
-0.1478680227512716
 10
-54.13653470792863
 20
140.965108558306
 42
-0.1798681362132248
 10
-52.94556296255085
 20
139.193696053255
 10
-55.09371111069899
 20
138.8233256828846
 42
0.1762609448244104
 10
-55.6191736144784
 20
139.6479786107801
 42
0.1598214678236549
 10
-56.72334074032861
 20
139.9344367939958
 42
0.1371855487857233
 10
-58.01847904640763
 20
139.677492950022
 42
0.2593740206711138
 10
-58.27889629588419
 20
139.2041128788698
 42
0.2456185528239605
 10
-58.0508869483204
 20
138.780502085655
 42
0.06647987495786445
 10
-55.9154699107747
 20
138.1248309571373
 42
-0.1095214193377288
 10
-53.36570148056073
 20
137.0941597579759
 42
-0.2284114958797838
 10
-52.64926666625458
 20
135.3777243785208
 42
-0.2276229810650804
 10
-53.64232211584466
 20
133.3152239899809
 42
-0.1809722242825368
 10
-56.5809785872241
 20
132.4529553125142
 42
-0.1534212868271782
 10
-59.37669701870969
 20
133.1705481170377
 42
-0.1853542620166045
  0
LWPOLYLINE
  5
D5
100
AcDbEntity
  8
DEFAULT
  6
ByLayer
 62
    5
370
   -1
100
AcDbPolyline
 90
   21
 70
    1
 43
0
 10
-61.46408148106934
 20
141.3418442014031
 10
-61.46408148106934
 20
139.5640664236253
 10
-63.0196370366249
 20
139.5640664236253
 10
-63.0196370366249
 20
135.9853634970015
 10
-62.97565544917798
 20
134.7185804096492
 42
0.1777629698041679
 10
-62.77715987570721
 20
134.4217054008188
 42
0.167141113472463
 10
-62.39926624239281
 20
134.3048071643661
 42
0.08186704238749241
 10
-61.50111795295743
 20
134.5235582416813
 10
-61.3159333329212
 20
132.7862892109965
 42
-0.1009135694950804
 10
-63.10296938094756
 20
132.4529553125142
 42
-0.1023112505794398
 10
-64.20540036919529
 20
132.6636038492023
 42
-0.1427327602513645
 10
-64.92588673638949
 20
133.2081644317578
 42
-0.1112474266807822
 10
-65.2430155536175
 20
134.1115205688517
 42
-0.03579443777193469
 10
-65.31593333292119
 20
135.7446224736862
 10
-65.3159333329212
 20
139.5640664236253
 10
-66.4270444440323
 20
139.5640664236253
 10
-66.4270444440323
 20
141.3418442014031
 10
-65.3159333329212
 20
141.3418442014031
 10
-65.3159333329212
 20
142.9714738310328
 10
-63.0196370366249
 20
144.3048071643661
 10
-63.0196370366249
 20
141.3418442014031
  0
LWPOLYLINE
  5
D6
100
AcDbEntity
  8
DEFAULT
  6
ByLayer
 62
    5
370
   -1
100
AcDbPolyline
 90
   19
 70
    1
 43
0
 10
-71.90852592551379
 20
141.3418442014031
 10
-70.72334074032861
 20
141.3418442014031
 10
-70.72334074032858
 20
141.991150622343
 42
-0.09505046399229106
 10
-70.49417396769648
 20
143.6138357015628
 42
-0.1716707163023843
 10
-69.64984481363973
 20
144.4865206394953
 42
-0.1257658996646721
 10
-68.09371054555001
 20
144.8233256828846
 42
-0.07814289938271426
 10
-66.20482222181009
 20
144.5270293865883
 10
-66.46408091592039
 20
142.9159185580517
 42
0.05886600594827119
 10
-67.50574765323067
 20
143.0455479051068
 42
0.2070684672812335
 10
-68.21292363213927
 20
142.817539122692
 42
0.1773524100532134
 10
-68.42704444403229
 20
141.9413813444056
 10
-68.4270444440323
 20
141.3418442014031
 10
-66.79741481440269
 20
141.3418442014031
 10
-66.79741481440269
 20
139.5640664236253
 10
-68.4270444440323
 20
139.5640664236253
 10
-68.4270444440323
 20
132.6751775347365
 10
-70.72334074032861
 20
132.6751775347365
 10
-70.72334074032861
 20
139.5640664236253
 10
-71.90852592551379
 20
139.5640664236253
  0
LWPOLYLINE
  5
D7
100
AcDbEntity
  8
DEFAULT
  6
ByLayer
 62
    5
370
   -1
100
AcDbPolyline
 90
    9
 70
    1
 43
0
 10
-75.68630370329157
 20
136.8233256828846
 10
-77.02310874668088
 20
136.4726315386756
 42
0.08111657795610243
 10
-78.2187101923319
 20
136.0733266718953
 42
0.2517191883486538
 10
-78.64926666625456
 20
135.2654564074903
 42
0.2041672574556336
 10
-78.30551650730639
 20
134.4332796515019
 42
0.209752133328306
 10
-77.42935872901998
 20
134.0825849421439
 42
0.1670482644845677
 10
-76.29625654161096
 20
134.4899929147003
 42
0.1651612454991566
 10
-75.77195089775086
 20
135.249252456534
 42
0.05936679481634962
 10
-75.68630370329157
 20
136.3661506929867
  0
LWPOLYLINE
  5
D8
100
AcDbEntity
  8
DEFAULT
  6
ByLayer
 62
    5
370
   -1
100
AcDbPolyline
 90
   25
 70
    1
 43
0
 10
-78.57519259218046
 20
138.6751775347365
 10
-80.64926666625453
 20
138.9714738310328
 42
-0.1714833175990114
 10
-79.46465962845456
 20
140.9286502338032
 42
-0.1608829132837488
 10
-76.96755290855084
 20
141.5640664236253
 42
-0.1088364278880695
 10
-74.72681245038456
 20
141.2000618911307
 42
-0.1580303644335369
 10
-73.6903541258817
 20
140.2752933902731
 42
-0.1088017057953535
 10
-73.39000740699525
 20
138.2168451197702
 10
-73.39000740699527
 20
135.5316596520105
 42
0.05140802196952541
 10
-73.26500719506438
 20
133.8412657714435
 42
0.06922878642323446
 10
-72.7974148144027
 20
132.6751775347365
 10
-75.09371111069898
 20
132.6751775347365
 10
-75.31361848278458
 20
133.3464739016764
 10
-75.39463597697059
 20
133.6138357015628
 42
-0.09332441867382957
 10
-76.64810924118621
 20
132.7434650486179
 42
-0.1040133466925968
 10
-78.07287689432039
 20
132.4529553125142
 42
-0.1965430357596484
 10
-80.17646530763645
 20
133.17922880505
 42
-0.21543694876512
 10
-80.94556296255085
 20
135.0154559836286
 42
-0.1373780248024432
 10
-80.60297022867101
 20
136.3256408155957
 42
-0.1473783213971089
 10
-79.64290026322985
 20
137.2070064415406
 42
-0.06344049348472093
 10
-77.86222892278128
 20
137.7411501984813
 42
0.04720098777290688
 10
-75.68630370329157
 20
138.3048071643661
 10
-75.68630370329156
 20
138.5374462122031
 42
0.2070921599656163
 10
-75.99359497258787
 20
139.4992517500978
 42
0.1777887432707968
 10
-77.1538960839533
 20
139.7862886458475
 42
0.1651091138038909
 10
-78.05262252077387
 20
139.5397610623397
 42
0.1491587679877712
  0
LWPOLYLINE
  5
D9
100
AcDbEntity
  8
DEFAULT
  6
ByLayer
 62
    5
370
   -1
100
AcDbPolyline
 90
   13
 70
    1
 43
0
 10
-84.4270444440323
 20
132.6751775347365
 10
-86.72334074032861
 20
132.6751775347365
 10
-86.72334074032861
 20
141.3418442014031
 10
-84.57519259218046
 20
141.3418442014031
 10
-84.57519259218046
 20
140.1184651192615
 42
-0.09775505194609088
 10
-83.63422014036648
 20
141.2747146777389
 42
-0.1561720185079532
 10
-82.68630313814261
 20
141.5640664236253
 42
-0.1438170981369894
 10
-81.24185925884711
 20
141.1277239546591
 10
-81.94556239740186
 20
139.1173082593422
 42
0.1496770151887596
 10
-82.96871033361916
 20
139.4899923495513
 42
0.1810970994867335
 10
-83.74475197379448
 20
139.2243678175653
 42
0.150134839648816
 10
-84.24475225636891
 20
138.2642984172731
 42
0.05091113596421777
 10
-84.4270444440323
 20
135.3557333022229
  0
LWPOLYLINE
  5
DA
100
AcDbEntity
  8
DEFAULT
  6
ByLayer
 62
    5
370
   -1
100
AcDbPolyline
 90
   18
 70
    1
 43
0
 10
-88.50111851810638
 20
138.8233256828846
 10
-90.79741481440267
 20
138.4529553125142
 42
0.1809968098175483
 10
-91.31014564243067
 20
139.4512197400607
 42
0.1804760167669716
 10
-92.34718324461667
 20
139.7862886458476
 42
0.2329674834671353
 10
-93.70019223896232
 20
139.1844372178574
 42
0.1695179555120288
 10
-94.20482222181008
 20
137.1705486821866
 42
0.1610966817174971
 10
-93.68803927574508
 20
134.9523768825546
 42
0.2405540491094217
 10
-92.30088624188417
 20
134.3048071643661
 42
0.1883458441869865
 10
-91.23549285582244
 20
134.6717058246805
 42
0.1622604489947896
 10
-90.64926666625453
 20
135.9344367939957
 10
-88.35297036995821
 20
135.6381404976994
 42
-0.1724509721435914
 10
-89.69440511362082
 20
133.2573538668632
 42
-0.1746967243539414
 10
-92.35412666472862
 20
132.4529553125142
 42
-0.2163976905724363
 10
-95.37496088110719
 20
133.6595528614632
 42
-0.1943870566321018
 10
-96.50111851810638
 20
137.0004094577406
 42
-0.1945054615972621
 10
-95.37553959364139
 20
140.3615204275644
 42
-0.2157801631579861
 10
-92.33097929366031
 20
141.5640664236253
 42
-0.1599423076957875
 10
-89.83329386122243
 20
140.8869834964928
 42
-0.1682635697126491
  0
LWPOLYLINE
  5
DB
100
AcDbEntity
  8
DEFAULT
  6
ByLayer
 62
    5
370
   -1
100
AcDbPolyline
 90
    4
 70
    1
 43
0
 10
-100.6492666662545
 20
132.6751775347365
 10
-100.6492666662545
 20
134.9714738310328
 10
-98.35297036995823
 20
134.9714738310328
 10
-98.35297036995823
 20
132.6751775347365
  0
LWPOLYLINE
  5
DC
100
AcDbEntity
  8
DEFAULT
  6
ByLayer
 62
    5
370
   -1
100
AcDbPolyline
 90
   13
 70
    1
 43
0
 10
-111.8066736498002
 20
132.6751775347365
 10
-114.5751925921805
 20
141.3418442014031
 10
-112.3263495933871
 20
141.3418442014031
 10
-110.6863031381426
 20
135.662446424134
 10
-109.1469515335434
 20
141.3418442014031
 10
-106.9212570361163
 20
141.3418442014031
 10
-105.5011179529574
 20
135.662446424134
 10
-103.8564417974397
 20
141.3418442014031
 10
-101.6122296292175
 20
141.3418442014031
 10
-104.3749603159582
 20
132.6751775347365
 10
-106.5520440908142
 20
132.6751775347365
 10
-108.0196364714759
 20
138.249251891385
 10
-109.5335258548702
 20
132.6751775347365
  0
LWPOLYLINE
  5
DD
100
AcDbEntity
  8
DEFAULT
  6
ByLayer
 62
    5
370
   -1
100
AcDbPolyline
 90
   13
 70
    1
 43
0
 10
-124.6955625386891
 20
132.6751775347365
 10
-127.4640814810693
 20
141.3418442014031
 10
-125.2152384822759
 20
141.3418442014031
 10
-123.5751920270315
 20
135.662446424134
 10
-122.0358404224323
 20
141.3418442014031
 10
-119.8101459250051
 20
141.3418442014031
 10
-118.3900068418463
 20
135.662446424134
 10
-116.7453306863286
 20
141.3418442014031
 10
-114.5011185181064
 20
141.3418442014031
 10
-117.2638492048471
 20
132.6751775347365
 10
-119.4409329797031
 20
132.6751775347365
 10
-120.9085253603648
 20
138.249251891385
 10
-122.422414743759
 20
132.6751775347365
  0
LWPOLYLINE
  5
DE
100
AcDbEntity
  8
DEFAULT
  6
ByLayer
 62
    5
370
   -1
100
AcDbPolyline
 90
   13
 70
    1
 43
0
 10
-137.584451427578
 20
132.6751775347365
 10
-140.3529703699582
 20
141.3418442014031
 10
-138.1041273711648
 20
141.3418442014031
 10
-136.4640809159204
 20
135.662446424134
 10
-134.9247293113212
 20
141.3418442014031
 10
-132.699034813894
 20
141.3418442014031
 10
-131.2788957307352
 20
135.662446424134
 10
-129.6342195752175
 20
141.3418442014031
 10
-127.3900074069953
 20
141.3418442014031
 10
-130.152738093736
 20
132.6751775347365
 10
-132.329821868592
 20
132.6751775347365
 10
-133.7974142492537
 20
138.249251891385
 10
-135.3113036326479
 20
132.6751775347365
  0
LINE
  5
DF
100
AcDbEntity
  8
PART1
  6
CONTINUOUS
 62
    5
370
   -1
100
AcDbLine
 10
-183.0070408874566
 20
-50.17687560515355
 11
-236.8885776139566
 21
3.704661121246431
  0
LINE
  5
E0
100
AcDbEntity
  8
PART1
  6
CONTINUOUS
 62
    5
370
   -1
100
AcDbLine
 10
-236.8885776139566
 20
3.704661121246431
 11
-209.9478092507566
 21
30.64542948444645
  0
LINE
  5
E1
100
AcDbEntity
  8
PART1
  6
CONTINUOUS
 62
    5
370
   -1
100
AcDbLine
 10
-209.9478092507566
 20
30.64542948444645
 11
-183.0070408874566
 21
3.704661121246431
  0
LINE
  5
E2
100
AcDbEntity
  8
PART1
  6
CONTINUOUS
 62
    5
370
   -1
100
AcDbLine
 10
-183.0070408874566
 20
3.704661121246431
 11
-183.0070408874566
 21
-50.17687560515355
  0
LINE
  5
E3
100
AcDbEntity
  8
PART2
  6
CONTINUOUS
 62
    5
370
   -1
100
AcDbLine
 10
-209.9478092507566
 20
30.64542948444645
 11
-236.8885776139566
 21
3.704661121246431
  0
ARC
  5
E4
100
AcDbEntity
  8
PART2
  6
CONTINUOUS
 62
    5
370
   -1
100
AcDbCircle
 10
-209.9478092507566
 20
30.64542948444645
 40
38.10000000000003
100
AcDbArc
 50
135
 51
225
  0
LINE
  5
E5
100
AcDbEntity
  8
PART2
  6
CONTINUOUS
 62
    5
370
   -1
100
AcDbLine
 10
-236.8885776139566
 20
57.58619784764645
 11
-209.9478092507566
 21
30.64542948444645
  0
LINE
  5
E6
100
AcDbEntity
  8
PART2
  6
CONTINUOUS
 62
    5
370
   -1
100
AcDbLine
 10
-209.9478092507566
 20
30.64542948444645
 11
-236.8885776139566
 21
57.58619784764645
  0
ARC
  5
E7
100
AcDbEntity
  8
PART2
  6
CONTINUOUS
 62
    5
370
   -1
100
AcDbCircle
 10
-209.9478092507566
 20
30.64542948444645
 40
38.10000000000003
100
AcDbArc
 50
45.00000000000003
 51
135
  0
LINE
  5
E8
100
AcDbEntity
  8
PART2
  6
CONTINUOUS
 62
    5
370
   -1
100
AcDbLine
 10
-183.0070408874566
 20
57.58619784764645
 11
-209.9478092507566
 21
30.64542948444645
  0
LINE
  5
E9
100
AcDbEntity
  8
PART3
  6
CONTINUOUS
 62
    5
370
   -1
100
AcDbLine
 10
-183.0070408874566
 20
3.704661121246431
 11
-209.9478092507566
 21
30.64542948444645
  0
LINE
  5
EA
100
AcDbEntity
  8
PART3
  6
CONTINUOUS
 62
    5
370
   -1
100
AcDbLine
 10
-209.9478092507566
 20
30.64542948444645
 11
-183.0070408874566
 21
57.58619784764645
  0
LINE
  5
EB
100
AcDbEntity
  8
PART3
  6
CONTINUOUS
 62
    5
370
   -1
100
AcDbLine
 10
-183.0070408874566
 20
57.58619784764645
 11
-156.0662725242566
 21
30.64542948444645
  0
LINE
  5
EC
100
AcDbEntity
  8
PART3
  6
CONTINUOUS
 62
    5
370
   -1
100
AcDbLine
 10
-156.0662725242566
 20
30.64542948444645
 11
-183.0070408874566
 21
3.704661121246431
  0
LINE
  5
ED
100
AcDbEntity
  8
PART2
  6
CONTINUOUS
 62
    5
370
   -1
100
AcDbLine
 10
-156.0662725242566
 20
30.64542948444645
 11
-183.0070408874566
 21
57.58619784764645
  0
ARC
  5
EE
100
AcDbEntity
  8
PART2
  6
CONTINUOUS
 62
    5
370
   -1
100
AcDbCircle
 10
-156.0662725242566
 20
30.64542948444645
 40
38.10000000000003
100
AcDbArc
 50
45.00000000000003
 51
135
  0
LINE
  5
EF
100
AcDbEntity
  8
PART2
  6
CONTINUOUS
 62
    5
370
   -1
100
AcDbLine
 10
-129.1255041610566
 20
57.58619784764645
 11
-156.0662725242566
 21
30.64542948444645
  0
LINE
  5
F0
100
AcDbEntity
  8
PART4
  6
CONTINUOUS
 62
    5
370
   -1
100
AcDbLine
 10
-129.1255041610566
 20
57.58619784764645
 11
-156.0662725242566
 21
30.64542948444645
  0
LINE
  5
F1
100
AcDbEntity
  8
PART4
  6
CONTINUOUS
 62
    5
370
   -1
100
AcDbLine
 10
-156.0662725242566
 20
30.64542948444645
 11
-117.9662725242566
 21
30.64542948444645
  0
ARC
  5
F2
100
AcDbEntity
  8
PART4
  6
CONTINUOUS
 62
    5
370
   -1
100
AcDbCircle
 10
-156.0662725242566
 20
30.64542948444645
 40
38.1
100
AcDbArc
 50
0
 51
44.99999999999999
  0
LINE
  5
F3
100
AcDbEntity
  8
PART4
  6
CONTINUOUS
 62
    5
370
   -1
100
AcDbLine
 10
-117.9662725242566
 20
30.64542948444645
 11
-156.0662725242566
 21
30.64542948444645
  0
LINE
  5
F4
100
AcDbEntity
  8
PART4
  6
CONTINUOUS
 62
    5
370
   -1
100
AcDbLine
 10
-156.0662725242566
 20
30.64542948444645
 11
-129.1255041610566
 21
3.704661121246431
  0
ARC
  5
F5
100
AcDbEntity
  8
PART4
  6
CONTINUOUS
 62
    5
370
   -1
100
AcDbCircle
 10
-156.0662725242566
 20
30.64542948444645
 40
38.09999999999999
100
AcDbArc
 50
315
 51
0
  0
LINE
  5
F6
100
AcDbEntity
  8
PART5
  6
CONTINUOUS
 62
    5
370
   -1
100
AcDbLine
 10
-156.0662725242566
 20
30.64542948444645
 11
-156.0662725242566
 21
-23.23610724195356
  0
LINE
  5
F7
100
AcDbEntity
  8
PART5
  6
CONTINUOUS
 62
    5
370
   -1
100
AcDbLine
 10
-156.0662725242566
 20
-23.23610724195356
 11
-129.1255041610566
 21
3.704661121246431
  0
LINE
  5
F8
100
AcDbEntity
  8
PART5
  6
CONTINUOUS
 62
    5
370
   -1
100
AcDbLine
 10
-129.1255041610566
 20
3.704661121246431
 11
-156.0662725242566
 21
30.64542948444645
  0
LINE
  5
F9
100
AcDbEntity
  8
PART6
  6
CONTINUOUS
 62
    5
370
   -1
100
AcDbLine
 10
-156.0662725242566
 20
30.64542948444645
 11
-156.0662725242566
 21
-23.23610724195356
  0
LINE
  5
FA
100
AcDbEntity
  8
PART6
  6
CONTINUOUS
 62
    5
370
   -1
100
AcDbLine
 10
-156.0662725242566
 20
-23.23610724195356
 11
-183.0070408874566
 21
-50.17687560515355
  0
LINE
  5
FB
100
AcDbEntity
  8
PART6
  6
CONTINUOUS
 62
    5
370
   -1
100
AcDbLine
 10
-183.0070408874566
 20
-50.17687560515355
 11
-183.0070408874566
 21
3.704661121246431
  0
LINE
  5
FC
100
AcDbEntity
  8
PART6
  6
CONTINUOUS
 62
    5
370
   -1
100
AcDbLine
 10
-183.0070408874566
 20
3.704661121246431
 11
-156.0662725242566
 21
30.64542948444645
  0
LINE
  5
FD
100
AcDbEntity
  8
BOX_TOP_AND_BOTT
  6
CONTINUOUS
 62
    5
370
   -1
100
AcDbLine
 10
267.4536131680434
 20
-75.45291425665357
 11
472.4536131680434
 21
-75.45291425665357
  0
LINE
  5
FE
100
AcDbEntity
  8
BOX_TOP_AND_BOTT
  6
CONTINUOUS
 62
    5
370
   -1
100
AcDbLine
 10
472.4536131680434
 20
-75.45291425665357
 11
472.4536131680434
 21
95.74708574334645
  0
LINE
  5
FF
100
AcDbEntity
  8
BOX_TOP_AND_BOTT
  6
CONTINUOUS
 62
    5
370
   -1
100
AcDbLine
 10
472.4536131680434
 20
95.74708574334645
 11
388.9536131680434
 21
95.74708574334645
  0
LINE
  5
100
100
AcDbEntity
  8
BOX_TOP_AND_BOTT
  6
CONTINUOUS
 62
    5
370
   -1
100
AcDbLine
 10
267.4536131680434
 20
95.74708574334645
 11
267.4536131680434
 21
-75.45291425665357
  0
LINE
  5
101
100
AcDbEntity
  8
BOX_TOP_AND_BOTT
  6
CONTINUOUS
 62
    5
370
   -1
100
AcDbLine
 10
350.9536131680434
 20
95.74708574334645
 11
267.4536131680434
 21
95.74708574334645
  0
LINE
  5
102
100
AcDbEntity
  8
BOX_TOP_AND_BOTT
  6
CONTINUOUS
 62
    5
370
   -1
100
AcDbLine
 10
350.9536131680434
 20
95.74708574334645
 11
350.9536131680434
 21
89.44708574334643
  0
LINE
  5
103
100
AcDbEntity
  8
BOX_TOP_AND_BOTT
  6
CONTINUOUS
 62
    5
370
   -1
100
AcDbLine
 10
363.6536131680434
 20
76.74708574334645
 11
376.2536131680434
 21
76.74708574334645
  0
ARC
  5
104
100
AcDbEntity
  8
BOX_TOP_AND_BOTT
  6
CONTINUOUS
 62
    5
370
   -1
100
AcDbCircle
 10
363.6536131680434
 20
89.44708574334643
 40
12.7
100
AcDbArc
 50
180
 51
270
  0
LINE
  5
105
100
AcDbEntity
  8
BOX_TOP_AND_BOTT
  6
CONTINUOUS
 62
    5
370
   -1
100
AcDbLine
 10
388.9536131680434
 20
89.44708574334643
 11
388.9536131680434
 21
95.74708574334645
  0
ARC
  5
106
100
AcDbEntity
  8
BOX_TOP_AND_BOTT
  6
CONTINUOUS
 62
    5
370
   -1
100
AcDbCircle
 10
376.2536131680434
 20
89.44708574334643
 40
12.7
100
AcDbArc
 50
270
 51
0
  0
LINE
  5
107
100
AcDbEntity
  8
DRAWER_BOTTOM
  6
CONTINUOUS
 62
    5
370
   -1
100
AcDbLine
 10
252.3683637957434
 20
-55.92732992765357
 11
242.8683637957434
 21
-55.92732992765357
  0
LINE
  5
108
100
AcDbEntity
  8
DRAWER_BOTTOM
  6
CONTINUOUS
 62
    5
370
   -1
100
AcDbLine
 10
252.3683637957434
 20
-68.62732992765356
 11
252.3683637957434
 21
-55.92732992765357
  0
LINE
  5
109
100
AcDbEntity
  8
DRAWER_BOTTOM
  6
CONTINUOUS
 62
    5
370
   -1
100
AcDbLine
 10
81.36836379574345
 20
-68.62732992765356
 11
252.3683637957434
 21
-68.62732992765356
  0
LINE
  5
10A
100
AcDbEntity
  8
DRAWER_BOTTOM
  6
CONTINUOUS
 62
    5
370
   -1
100
AcDbLine
 10
81.36836379574345
 20
-55.92732992765357
 11
81.36836379574345
 21
-68.62732992765356
  0
LINE
  5
10B
100
AcDbEntity
  8
DRAWER_BOTTOM
  6
CONTINUOUS
 62
    5
370
   -1
100
AcDbLine
 10
90.86836379574345
 20
-55.92732992765357
 11
81.36836379574345
 21
-55.92732992765357
  0
LINE
  5
10C
100
AcDbEntity
  8
DRAWER_BOTTOM
  6
CONTINUOUS
 62
    5
370
   -1
100
AcDbLine
 10
90.86836379574345
 20
89.87267007234644
 11
90.86836379574345
 21
-55.92732992765357
  0
LINE
  5
10D
100
AcDbEntity
  8
DRAWER_BOTTOM
  6
CONTINUOUS
 62
    5
370
   -1
100
AcDbLine
 10
242.8683637957434
 20
89.87267007234644
 11
90.86836379574345
 21
89.87267007234644
  0
LINE
  5
10E
100
AcDbEntity
  8
DRAWER_BOTTOM
  6
CONTINUOUS
 62
    5
370
   -1
100
AcDbLine
 10
242.8683637957434
 20
-55.92732992765357
 11
242.8683637957434
 21
89.87267007234644
  0
LINE
  5
10F
100
AcDbEntity
  8
DRAWER
  6
CONTINUOUS
 62
    5
370
   -1
100
AcDbLine
 10
-99.40164679035658
 20
87.85919262004646
 11
-99.40164679035658
 21
-57.94080737995355
  0
LINE
  5
110
100
AcDbEntity
  8
DRAWER
  6
CONTINUOUS
 62
    5
370
   -1
100
AcDbLine
 10
-108.9016467903566
 20
-70.64080737995357
 11
62.09835320964345
 21
-70.64080737995357
  0
LINE
  5
111
100
AcDbEntity
  8
DRAWER
  6
CONTINUOUS
 62
    5
370
   -1
100
AcDbLine
 10
52.59835320964345
 20
-57.94080737995355
 11
52.59835320964345
 21
87.85919262004646
  0
LINE
  5
112
100
AcDbEntity
  8
DRAWER
  6
CONTINUOUS
 62
    5
370
   -1
100
AcDbLine
 10
52.59835320964345
 20
87.85919262004646
 11
-99.40164679035658
 21
87.85919262004646
  0
LINE
  5
113
100
AcDbEntity
  8
DRAWER
  6
CONTINUOUS
 62
    5
370
   -1
100
AcDbLine
 10
30.83344332674341
 20
-2.935129133753549
 11
-23.40164679035658
 21
-57.17021925075358
  0
ARC
  5
114
100
AcDbEntity
  8
DRAWER
  6
CONTINUOUS
 62
    5
370
   -1
100
AcDbCircle
 10
3.539121572943429
 20
24.35919262004646
 40
38.6
100
AcDbArc
 50
314.9999999999999
 51
134.2625520712
  0
ARC
  5
115
100
AcDbEntity
  8
DRAWER
  6
CONTINUOUS
 62
    5
370
   -1
100
AcDbCircle
 10
-50.34241515355657
 20
24.35919262004646
 40
38.60000000000002
100
AcDbArc
 50
45.7374479288
 51
225
  0
LINE
  5
116
100
AcDbEntity
  8
DRAWER
  6
CONTINUOUS
 62
    5
370
   -1
100
AcDbLine
 10
-23.40164679035658
 20
-57.17021925075358
 11
-77.63673690735658
 21
-2.935129133753549
  0
LINE
  5
117
100
AcDbEntity
  8
DRAWER
  6
CONTINUOUS
 62
    5
370
   -1
100
AcDbLine
 10
-108.9016467903566
 20
-70.64080737995357
 11
-108.9016467903566
 21
-57.94080737995355
  0
LINE
  5
118
100
AcDbEntity
  8
DRAWER
  6
CONTINUOUS
 62
    5
370
   -1
100
AcDbLine
 10
-108.9016467903566
 20
-57.94080737995355
 11
-99.40164679035658
 21
-57.94080737995355
  0
LINE
  5
119
100
AcDbEntity
  8
DRAWER
  6
CONTINUOUS
 62
    5
370
   -1
100
AcDbLine
 10
62.09835320964345
 20
-70.64080737995357
 11
62.09835320964345
 21
-57.94080737995355
  0
LINE
  5
11A
100
AcDbEntity
  8
DRAWER
  6
CONTINUOUS
 62
    5
370
   -1
100
AcDbLine
 10
62.09835320964345
 20
-57.94080737995355
 11
52.59835320964345
 21
-57.94080737995355
  0
ENDSEC
  0
SECTION
  2
OBJECTS
  0
DICTIONARY
  5
C
330
0
100
AcDbDictionary
281
    1
  3
ACAD_GROUP
350
D
  0
DICTIONARY
  5
D
330
C
100
AcDbDictionary
281
    1
  0
ENDSEC
  0
EOF
