  0
SECTION
  2
HEADER
  9
$ACADVER
  1
AC1009
  9
$DWGCODEPAGE
  3
ansi_1252
  9
$INSBASE
 10
0.0
 20
0.0
 30
0.0
  9
$EXTMIN
 10
-474.6276975738924
 20
-221.3553660949673
 30
0.0
  9
$EXTMAX
 10
343.3304374130076
 20
233.1260001578041
 30
0.0
  9
$LIMMIN
 10
0.0
 20
0.0
  9
$LIMMAX
 10
12.0
 20
9.0
  9
$ORTHOMODE
 70
     0
  9
$REGENMODE
 70
     1
  9
$FILLMODE
 70
     1
  9
$QTEXTMODE
 70
     0
  9
$MIRRTEXT
 70
     1
  9
$DRAGMODE
 70
     2
  9
$LTSCALE
 40
1.0
  9
$OSMODE
 70
    37
  9
$ATTMODE
 70
     1
  9
$TEXTSIZE
 40
0.2
  9
$TRACEWID
 40
0.05
  9
$TEXTSTYLE
  7
STANDARD
  9
$CLAYER
  8
DEFAULT
  9
$CELTYPE
  6
BYLAYER
  9
$CECOLOR
 62
   256
  9
$DIMSCALE
 40
1.0
  9
$DIMASZ
 40
0.18
  9
$DIMEXO
 40
0.0625
  9
$DIMDLI
 40
0.38
  9
$DIMRND
 40
0.0
  9
$DIMDLE
 40
0.0
  9
$DIMEXE
 40
0.18
  9
$DIMTP
 40
0.0
  9
$DIMTM
 40
0.0
  9
$DIMTXT
 40
0.18
  9
$DIMCEN
 40
0.09
  9
$DIMTSZ
 40
0.0
  9
$DIMTOL
 70
     0
  9
$DIMLIM
 70
     0
  9
$DIMTIH
 70
     1
  9
$DIMTOH
 70
     1
  9
$DIMSE1
 70
     0
  9
$DIMSE2
 70
     0
  9
$DIMTAD
 70
     0
  9
$DIMZIN
 70
     0
  9
$DIMBLK
  1

  9
$DIMASO
 70
     1
  9
$DIMSHO
 70
     1
  9
$DIMPOST
  1

  9
$DIMAPOST
  1

  9
$DIMALT
 70
     0
  9
$DIMALTD
 70
     2
  9
$DIMALTF
 40
25.4
  9
$DIMLFAC
 40
1.0
  9
$DIMTOFL
 70
     0
  9
$DIMTVP
 40
0.0
  9
$DIMTIX
 70
     0
  9
$DIMSOXD
 70
     0
  9
$DIMSAH
 70
     0
  9
$DIMBLK1
  1

  9
$DIMBLK2
  1

  9
$DIMSTYLE
  2
STANDARD
  9
$DIMCLRD
 70
     0
  9
$DIMCLRE
 70
     0
  9
$DIMCLRT
 70
     0
  9
$DIMTFAC
 40
1.0
  9
$DIMGAP
 40
0.09
  9
$LUNITS
 70
     2
  9
$LUPREC
 70
     4
  9
$SKETCHINC
 40
0.1
  9
$FILLETRAD
 40
0.5
  9
$AUNITS
 70
     0
  9
$AUPREC
 70
     0
  9
$MENU
  1
.
  9
$ELEVATION
 40
0.0
  9
$PELEVATION
 40
0.0
  9
$THICKNESS
 40
0.0
  9
$LIMCHECK
 70
     0
  9
$CHAMFERA
 40
0.0
  9
$CHAMFERB
 40
0.0
  9
$SKPOLY
 70
     0
  9
$TDCREATE
 40
2458786.912455451
  9
$TDUPDATE
 40
2458786.91247015
  9
$TDINDWG
 40
0.0000000116
  9
$TDUSRTIMER
 40
0.0000000116
  9
$USRTIMER
 70
     1
  9
$ANGBASE
 50
0.0
  9
$ANGDIR
 70
     0
  9
$PDMODE
 70
     0
  9
$PDSIZE
 40
0.0
  9
$PLINEWID
 40
0.0
  9
$COORDS
 70
     1
  9
$SPLFRAME
 70
     0
  9
$SPLINETYPE
 70
     6
  9
$SPLINESEGS
 70
     8
  9
$ATTDIA
 70
     0
  9
$ATTREQ
 70
     1
  9
$HANDLING
 70
     1
  9
$HANDSEED
  5
654
  9
$SURFTAB1
 70
     6
  9
$SURFTAB2
 70
     6
  9
$SURFTYPE
 70
     6
  9
$SURFU
 70
     6
  9
$SURFV
 70
     6
  9
$UCSNAME
  2

  9
$UCSORG
 10
0.0
 20
0.0
 30
0.0
  9
$UCSXDIR
 10
1.0
 20
0.0
 30
0.0
  9
$UCSYDIR
 10
0.0
 20
1.0
 30
0.0
  9
$PUCSNAME
  2

  9
$PUCSORG
 10
0.0
 20
0.0
 30
0.0
  9
$PUCSXDIR
 10
1.0
 20
0.0
 30
0.0
  9
$PUCSYDIR
 10
0.0
 20
1.0
 30
0.0
  9
$USERI1
 70
     0
  9
$USERI2
 70
     0
  9
$USERI3
 70
     0
  9
$USERI4
 70
     0
  9
$USERI5
 70
     0
  9
$USERR1
 40
0.0
  9
$USERR2
 40
0.0
  9
$USERR3
 40
0.0
  9
$USERR4
 40
0.0
  9
$USERR5
 40
0.0
  9
$WORLDVIEW
 70
     1
  9
$SHADEDGE
 70
     3
  9
$SHADEDIF
 70
    70
  9
$TILEMODE
 70
     1
  9
$MAXACTVP
 70
    64
  9
$PLIMCHECK
 70
     0
  9
$PEXTMIN
 10
1.000000000000000E+20
 20
1.000000000000000E+20
 30
1.000000000000000E+20
  9
$PEXTMAX
 10
-1.000000000000000E+20
 20
-1.000000000000000E+20
 30
-1.000000000000000E+20
  9
$PLIMMIN
 10
0.0
 20
0.0
  9
$PLIMMAX
 10
12.0
 20
9.0
  9
$UNITMODE
 70
     0
  9
$VISRETAIN
 70
     1
  9
$PLINEGEN
 70
     0
  9
$PSLTSCALE
 70
     1
  0
ENDSEC
  0
SECTION
  2
TABLES
  0
TABLE
  2
VPORT
 70
     1
  0
VPORT
  2
*ACTIVE
 70
     0
 10
0.0
 20
0.0
 11
1.0
 21
1.0
 12
-65.64863008044239
 22
5.885317031418396
 13
0.0
 23
0.0
 14
0.5
 24
0.5
 15
0.5
 25
0.5
 16
0.0
 26
0.0
 36
1.0
 17
0.0
 27
0.0
 37
0.0
 40
463.5709935778269
 41
1.799761653004651
 42
50.0
 43
0.0
 44
0.0
 50
0.0
 51
0.0
 71
     0
 72
   100
 73
     1
 74
     3
 75
     0
 76
     0
 77
     0
 78
     0
  0
ENDTAB
  0
TABLE
  2
LTYPE
 70
     1
  0
LTYPE
  2
CONTINUOUS
 70
     0
  3
Solid line
 72
    65
 73
     0
 40
0.0
  0
ENDTAB
  0
TABLE
  2
LAYER
 70
     5
  0
LAYER
  2
0
 70
     0
 62
     7
  6
CONTINUOUS
  0
LAYER
  2
3
 70
     0
 62
     7
  6
CONTINUOUS
  0
LAYER
  2
2
 70
     0
 62
     7
  6
CONTINUOUS
  0
LAYER
  2
1
 70
     0
 62
     7
  6
CONTINUOUS
  0
LAYER
  2
DEFAULT
 70
     0
 62
     7
  6
CONTINUOUS
  0
ENDTAB
  0
TABLE
  2
STYLE
 70
     1
  0
STYLE
  2
STANDARD
 70
     0
 40
0.0
 41
1.0
 50
0.0
 71
     0
 42
0.2
  3
txt
  4

  0
ENDTAB
  0
TABLE
  2
VIEW
 70
     0
  0
ENDTAB
  0
TABLE
  2
UCS
 70
     0
  0
ENDTAB
  0
TABLE
  2
APPID
 70
     1
  0
APPID
  2
ACAD
 70
     0
  0
ENDTAB
  0
TABLE
  2
DIMSTYLE
 70
     1
  0
DIMSTYLE
  2
STANDARD
 70
     0
  3

  4

  5

  6

  7

 40
1.0
 41
0.18
 42
0.0625
 43
0.38
 44
0.18
 45
0.0
 46
0.0
 47
0.0
 48
0.0
140
0.18
141
0.09
142
0.0
143
25.4
144
1.0
145
0.0
146
1.0
147
0.09
 71
     0
 72
     0
 73
     1
 74
     1
 75
     0
 76
     0
 77
     0
 78
     0
170
     0
171
     2
172
     0
173
     0
174
     0
175
     0
176
     0
177
     0
178
     0
  0
ENDTAB
  0
ENDSEC
  0
SECTION
  2
BLOCKS
  0
BLOCK
  8
0
  2
$MODEL_SPACE
 70
     0
 10
0.0
 20
0.0
 30
0.0
  3
$MODEL_SPACE
  1

  0
ENDBLK
  5
21
  8
0
  0
BLOCK
 67
     1
  8
0
  2
$PAPER_SPACE
 70
     0
 10
0.0
 20
0.0
 30
0.0
  3
$PAPER_SPACE
  1

  0
ENDBLK
  5
1D
 67
     1
  8
0
  0
BLOCK
  8
0
  2
SE
 70
     0
 10
0.0
 20
0.0
 30
0.0
  3
SE
  1

  0
LINE
  5
5E0
  8
1
  6
CONTINUOUS
 62
     7
 10
344.900785602
 20
401.1867700164
 30
0.0
 11
311.650785602
 21
401.1867700164
 31
0.0
  0
LINE
  5
5E1
  8
1
  6
CONTINUOUS
 62
     7
 10
33.900785602
 20
201.1867700164
 30
0.0
 11
344.900785602
 21
201.1867700164
 31
0.0
  0
ARC
  5
5E2
  8
1
  6
CONTINUOUS
 62
     7
 10
141.900785602
 20
363.1867700164
 30
0.0
 40
14.25
 50
90.0
 51
270.0
  0
LINE
  5
5E3
  8
1
  6
CONTINUOUS
 62
     7
 10
141.900785602
 20
377.4367700164
 30
0.0
 11
236.900785602
 21
377.4367700164
 31
0.0
  0
ARC
  5
5E4
  8
1
  6
CONTINUOUS
 62
     7
 10
236.900785602
 20
363.1867700164
 30
0.0
 40
14.25000000000001
 50
270.0
 51
90.0
  0
LINE
  5
5E5
  8
1
  6
CONTINUOUS
 62
     7
 10
236.900785602
 20
348.9367700164
 30
0.0
 11
141.900785602
 21
348.9367700164
 31
0.0
  0
LINE
  5
5E6
  8
1
  6
CONTINUOUS
 62
     7
 10
242.2594712442
 20
327.1730571385
 30
0.0
 11
351.0239772175
 21
364.2004828942
 31
0.0
  0
ARC
  5
5E7
  8
1
  6
CONTINUOUS
 62
     7
 10
248.3826628596
 20
309.1867700164
 30
0.0
 40
19.00000000000001
 50
108.8004568231
 51
180.0
  0
LINE
  5
5E8
  8
1
  6
CONTINUOUS
 62
     7
 10
229.3826628596
 20
287.1867700164
 30
0.0
 11
229.3826628596
 21
309.1867700164
 31
0.0
  0
ARC
  5
5E9
  8
1
  6
CONTINUOUS
 62
     7
 10
248.3826628596
 20
287.1867700164
 30
0.0
 40
19.0
 50
180.0
 51
254.1027631454999
  0
LINE
  5
5EA
  8
1
  6
CONTINUOUS
 62
     7
 10
350.1051295136
 20
238.4601059037
 30
0.0
 11
243.1783189481
 21
268.9134341291
 31
0.0
  0
LINE
  5
5EB
  8
1
  6
CONTINUOUS
 62
     7
 10
136.0835173661
 20
268.9072926863
 30
0.0
 11
28.7180538379
 21
238.4662473465
 31
0.0
  0
ARC
  5
5EC
  8
1
  6
CONTINUOUS
 62
     7
 10
130.900785602
 20
287.1867700164
 30
0.0
 40
19.00000000000001
 50
285.8294836731
 51
0.0
  0
LINE
  5
5ED
  8
1
  6
CONTINUOUS
 62
     7
 10
149.900785602
 20
309.1867700164
 30
0.0
 11
149.900785602
 21
287.1867700164
 31
0.0
  0
ARC
  5
5EE
  8
1
  6
CONTINUOUS
 62
     7
 10
130.900785602
 20
309.1867700164
 30
0.0
 40
18.99999999999999
 50
0.0
 51
71.27669731869996
  0
LINE
  5
5EF
  8
1
  6
CONTINUOUS
 62
     7
 10
27.8018197537
 20
364.1922537522
 30
0.0
 11
136.9997514503
 21
327.1812862805
 31
0.0
  0
ARC
  5
5F0
  8
1
  6
CONTINUOUS
 62
     7
 10
344.900785602
 20
382.1867700164
 30
0.0
 40
19.00000000000003
 50
288.8004568231
 51
90.0
  0
ARC
  5
5F1
  8
1
  6
CONTINUOUS
 62
     7
 10
33.900785602
 20
382.1867700164
 30
0.0
 40
19.0
 50
90.0
 51
251.2766973187
  0
ARC
  5
5F2
  8
1
  6
CONTINUOUS
 62
     7
 10
344.900785602
 20
220.1867700164
 30
0.0
 40
19.0
 50
270.0
 51
74.1027631455
  0
ARC
  5
5F3
  8
1
  6
CONTINUOUS
 62
     7
 10
33.900785602
 20
220.1867700164
 30
0.0
 40
19.00000000000001
 50
105.8294836731
 51
270.0
  0
CIRCLE
  5
5F4
  8
1
  6
CONTINUOUS
 62
     7
 10
189.400785602
 20
301.1867700164
 30
0.0
 40
5.0
  0
LINE
  5
5F5
  8
1
  6
CONTINUOUS
 62
     7
 10
67.150785602
 20
401.1867700164
 30
0.0
 11
33.900785602
 21
401.1867700164
 31
0.0
  0
LINE
  5
5F6
  8
1
  6
CONTINUOUS
 62
     7
 10
76.650785602
 20
391.6867700164
 30
0.0
 11
76.650785602
 21
401.1867700164
 31
0.0
  0
LINE
  5
5F7
  8
1
  6
CONTINUOUS
 62
     7
 10
67.150785602
 20
401.1867700164
 30
0.0
 11
67.150785602
 21
391.6867700164
 31
0.0
  0
ARC
  5
5F8
  8
1
  6
CONTINUOUS
 62
     7
 10
71.900785602
 20
385.2495734216
 30
0.0
 40
8.000000000000009
 50
126.4235736423
 51
53.57642635770004
  0
LINE
  5
5F9
  8
1
  6
CONTINUOUS
 62
     7
 10
302.150785602
 20
401.1867700164
 30
0.0
 11
76.650785602
 21
401.1867700164
 31
0.0
  0
LINE
  5
5FA
  8
1
  6
CONTINUOUS
 62
     7
 10
311.650785602
 20
391.6867700164
 30
0.0
 11
311.650785602
 21
401.1867700164
 31
0.0
  0
LINE
  5
5FB
  8
1
  6
CONTINUOUS
 62
     7
 10
302.150785602
 20
401.1867700164
 30
0.0
 11
302.150785602
 21
391.6867700164
 31
0.0
  0
ARC
  5
5FC
  8
1
  6
CONTINUOUS
 62
     7
 10
306.900785602
 20
385.2495734216
 30
0.0
 40
8.0
 50
126.4235736422999
 51
53.57642635770012
  0
ENDBLK
  5
5FE
  8
0
  0
BLOCK
  8
0
  2
SE1
 70
     0
 10
0.0
 20
0.0
 30
0.0
  3
SE1
  1

  0
LINE
  5
600
  8
2
  6
CONTINUOUS
 62
     7
 10
384.4561437009
 20
5.9988666771
 30
0.0
 11
430.4561437009
 21
5.9988666771
 31
0.0
  0
LINE
  5
601
  8
2
  6
CONTINUOUS
 62
     7
 10
600.4561437009
 20
5.9988666771
 30
0.0
 11
600.4561437009
 21
55.0133769552
 31
0.0
  0
ARC
  5
602
  8
2
  6
CONTINUOUS
 62
     7
 10
447.9561437009
 20
370.9988666771
 30
0.0
 40
14.25000000000004
 50
90.0
 51
270.0
  0
LINE
  5
603
  8
2
  6
CONTINUOUS
 62
     7
 10
447.9561437009
 20
385.2488666771
 30
0.0
 11
536.9561437009
 21
385.2488666771
 31
0.0
  0
ARC
  5
604
  8
2
  6
CONTINUOUS
 62
     7
 10
536.9561437009
 20
370.9988666771
 30
0.0
 40
14.25000000000001
 50
270.0
 51
90.0
  0
LINE
  5
605
  8
2
  6
CONTINUOUS
 62
     7
 10
536.9561437009
 20
356.7488666771
 30
0.0
 11
447.9561437009
 21
356.7488666771
 31
0.0
  0
ARC
  5
606
  8
2
  6
CONTINUOUS
 62
     7
 10
581.4561437009
 20
55.0133769552
 30
0.0
 40
19.0
 50
0.0
 51
90.0
  0
LINE
  5
607
  8
2
  6
CONTINUOUS
 62
     7
 10
384.4561437009
 20
386.9988666771
 30
0.0
 11
384.4561437009
 21
220.0133769552
 31
0.0
  0
ARC
  5
608
  8
2
  6
CONTINUOUS
 62
     7
 10
403.4561437009
 20
386.9988666771
 30
0.0
 40
18.99999999999999
 50
90.0
 51
180.0
  0
LINE
  5
609
  8
2
  6
CONTINUOUS
 62
     7
 10
581.4561437009
 20
405.9988666771
 30
0.0
 11
403.4561437009
 21
405.9988666771
 31
0.0
  0
ARC
  5
60A
  8
2
  6
CONTINUOUS
 62
     7
 10
581.4561437009
 20
386.9988666771
 30
0.0
 40
19.0
 50
0.0
 51
90.0
  0
LINE
  5
60B
  8
2
  6
CONTINUOUS
 62
     7
 10
384.4561437009
 20
55.0133769552
 30
0.0
 11
384.4561437009
 21
5.9988666771
 31
0.0
  0
ARC
  5
60C
  8
2
  6
CONTINUOUS
 62
     7
 10
403.4561437009
 20
55.0133769552
 30
0.0
 40
18.99999999999999
 50
90.0
 51
180.0
  0
LINE
  5
60D
  8
2
  6
CONTINUOUS
 62
     7
 10
403.4561437009
 20
201.0133769552
 30
0.0
 11
428.9561437009
 21
201.0133769552
 31
0.0
  0
ARC
  5
60E
  8
2
  6
CONTINUOUS
 62
     7
 10
403.4561437009
 20
220.0133769552
 30
0.0
 40
19.0
 50
180.0
 51
270.0
  0
LINE
  5
60F
  8
2
  6
CONTINUOUS
 62
     7
 10
447.9561437009
 20
182.0133769552
 30
0.0
 11
447.9561437009
 21
93.0133769552
 31
0.0
  0
ARC
  5
610
  8
2
  6
CONTINUOUS
 62
     7
 10
428.9561437009
 20
182.0133769552
 30
0.0
 40
19.0
 50
0.0
 51
90.0
  0
LINE
  5
611
  8
2
  6
CONTINUOUS
 62
     7
 10
428.9561437009
 20
74.0133769552
 30
0.0
 11
403.4561437009
 21
74.0133769552
 31
0.0
  0
ARC
  5
612
  8
2
  6
CONTINUOUS
 62
     7
 10
428.9561437009
 20
93.0133769552
 30
0.0
 40
19.0
 50
270.0
 51
0.0
  0
LINE
  5
613
  8
2
  6
CONTINUOUS
 62
     7
 10
555.9561437009
 20
74.0133769552
 30
0.0
 11
581.4561437009
 21
74.0133769552
 31
0.0
  0
ARC
  5
614
  8
2
  6
CONTINUOUS
 62
     7
 10
555.9561437009
 20
93.0133769552
 30
0.0
 40
19.0
 50
180.0
 51
270.0
  0
LINE
  5
615
  8
2
  6
CONTINUOUS
 62
     7
 10
536.9561437009
 20
182.0133769552
 30
0.0
 11
536.9561437009
 21
93.0133769552
 31
0.0
  0
ARC
  5
616
  8
2
  6
CONTINUOUS
 62
     7
 10
555.9561437009
 20
182.0133769552
 30
0.0
 40
19.0
 50
90.0
 51
180.0
  0
LINE
  5
617
  8
2
  6
CONTINUOUS
 62
     7
 10
581.4561437009
 20
201.0133769552
 30
0.0
 11
555.9561437009
 21
201.0133769552
 31
0.0
  0
LINE
  5
618
  8
2
  6
CONTINUOUS
 62
     7
 10
600.4561437009
 20
220.0133769552
 30
0.0
 11
600.4561437009
 21
386.9988666771
 31
0.0
  0
ARC
  5
619
  8
2
  6
CONTINUOUS
 62
     7
 10
581.4561437009
 20
220.0133769552
 30
0.0
 40
19.0
 50
270.0
 51
0.0
  0
LINE
  5
61A
  8
2
  6
CONTINUOUS
 62
     7
 10
500.4561437009
 20
132.9988666771
 30
0.0
 11
500.4561437009
 21
24.9988666771
 31
0.0
  0
LINE
  5
61B
  8
2
  6
CONTINUOUS
 62
     7
 10
484.4561437009
 20
132.9988666771
 30
0.0
 11
500.4561437009
 21
132.9988666771
 31
0.0
  0
LINE
  5
61C
  8
2
  6
CONTINUOUS
 62
     7
 10
484.4561437009
 20
24.9988666771
 30
0.0
 11
484.4561437009
 21
132.9988666771
 31
0.0
  0
LINE
  5
61D
  8
2
  6
CONTINUOUS
 62
     7
 10
554.4561437009
 20
5.9988666771
 30
0.0
 11
600.4561437009
 21
5.9988666771
 31
0.0
  0
LINE
  5
61E
  8
2
  6
CONTINUOUS
 62
     7
 10
500.4561437009
 20
24.9988666771
 30
0.0
 11
535.4561437009
 21
24.9988666771
 31
0.0
  0
LINE
  5
61F
  8
2
  6
CONTINUOUS
 62
     7
 10
449.4561437009
 20
24.9988666771
 30
0.0
 11
484.4561437009
 21
24.9988666771
 31
0.0
  0
ARC
  5
620
  8
2
  6
CONTINUOUS
 62
     7
 10
449.4561437009
 20
5.9988666771
 30
0.0
 40
19.0
 50
90.0
 51
180.0
  0
ARC
  5
621
  8
2
  6
CONTINUOUS
 62
     7
 10
535.4561437009
 20
5.9988666771
 30
0.0
 40
18.99999999999999
 50
0.0
 51
90.0
  0
ENDBLK
  5
623
  8
0
  0
BLOCK
  8
0
  2
SE2
 70
     0
 10
0.0
 20
0.0
 30
0.0
  3
SE2
  1

  0
LINE
  5
625
  8
3
  6
CONTINUOUS
 62
     7
 10
616.8589205889
 20
155.6650700873
 30
0.0
 11
662.8589205889
 21
155.6650700873
 31
0.0
  0
LINE
  5
626
  8
3
  6
CONTINUOUS
 62
     7
 10
832.8589205889
 20
155.6650700873
 30
0.0
 11
832.8589205889
 21
204.6795803654
 31
0.0
  0
ARC
  5
627
  8
3
  6
CONTINUOUS
 62
     7
 10
813.8589205889
 20
204.6795803654
 30
0.0
 40
19.0
 50
0.0
 51
90.0
  0
LINE
  5
628
  8
3
  6
CONTINUOUS
 62
     7
 10
616.8589205889
 20
204.6795803654
 30
0.0
 11
616.8589205889
 21
155.6650700873
 31
0.0
  0
ARC
  5
629
  8
3
  6
CONTINUOUS
 62
     7
 10
635.8589205889
 20
204.6795803654
 30
0.0
 40
18.99999999999999
 50
90.0
 51
180.0
  0
LINE
  5
62A
  8
3
  6
CONTINUOUS
 62
     7
 10
635.8589205889
 20
350.6795803654
 30
0.0
 11
661.3589205889
 21
350.6795803654
 31
0.0
  0
ARC
  5
62B
  8
3
  6
CONTINUOUS
 62
     7
 10
635.8589205889
 20
369.6795803654
 30
0.0
 40
19.0
 50
180.0
 51
270.0
  0
LINE
  5
62C
  8
3
  6
CONTINUOUS
 62
     7
 10
680.3589205889
 20
331.6795803654
 30
0.0
 11
680.3589205889
 21
242.6795803654
 31
0.0
  0
ARC
  5
62D
  8
3
  6
CONTINUOUS
 62
     7
 10
661.3589205889
 20
331.6795803654
 30
0.0
 40
19.0
 50
0.0
 51
90.0
  0
LINE
  5
62E
  8
3
  6
CONTINUOUS
 62
     7
 10
661.3589205889
 20
223.6795803654
 30
0.0
 11
635.8589205889
 21
223.6795803654
 31
0.0
  0
ARC
  5
62F
  8
3
  6
CONTINUOUS
 62
     7
 10
661.3589205889
 20
242.6795803654
 30
0.0
 40
19.0
 50
270.0
 51
0.0
  0
LINE
  5
630
  8
3
  6
CONTINUOUS
 62
     7
 10
788.3589205889
 20
223.6795803654
 30
0.0
 11
813.8589205889
 21
223.6795803654
 31
0.0
  0
ARC
  5
631
  8
3
  6
CONTINUOUS
 62
     7
 10
788.3589205889
 20
242.6795803654
 30
0.0
 40
19.0
 50
180.0
 51
270.0
  0
LINE
  5
632
  8
3
  6
CONTINUOUS
 62
     7
 10
769.3589205889
 20
331.6795803654
 30
0.0
 11
769.3589205889
 21
242.6795803654
 31
0.0
  0
ARC
  5
633
  8
3
  6
CONTINUOUS
 62
     7
 10
788.3589205889
 20
331.6795803654
 30
0.0
 40
19.0
 50
90.0
 51
180.0
  0
LINE
  5
634
  8
3
  6
CONTINUOUS
 62
     7
 10
813.8589205889
 20
350.6795803654
 30
0.0
 11
788.3589205889
 21
350.6795803654
 31
0.0
  0
LINE
  5
635
  8
3
  6
CONTINUOUS
 62
     7
 10
832.8589205889
 20
369.6795803654
 30
0.0
 11
832.8589205889
 21
390.6650700873
 31
0.0
  0
ARC
  5
636
  8
3
  6
CONTINUOUS
 62
     7
 10
813.8589205889
 20
369.6795803654
 30
0.0
 40
19.0
 50
270.0
 51
0.0
  0
LINE
  5
637
  8
3
  6
CONTINUOUS
 62
     7
 10
716.8589205889
 20
409.6650700873
 30
0.0
 11
647.1089205889
 21
409.6650700873
 31
0.0
  0
LINE
  5
638
  8
3
  6
CONTINUOUS
 62
     7
 10
716.8589205889
 20
282.6650700873
 30
0.0
 11
716.8589205889
 21
409.6650700873
 31
0.0
  0
LINE
  5
639
  8
3
  6
CONTINUOUS
 62
     7
 10
732.8589205889
 20
282.6650700873
 30
0.0
 11
716.8589205889
 21
282.6650700873
 31
0.0
  0
LINE
  5
63A
  8
3
  6
CONTINUOUS
 62
     7
 10
732.8589205889
 20
409.6650700873
 30
0.0
 11
732.8589205889
 21
282.6650700873
 31
0.0
  0
LINE
  5
63B
  8
3
  6
CONTINUOUS
 62
     7
 10
786.8589205889
 20
155.6650700873
 30
0.0
 11
832.8589205889
 21
155.6650700873
 31
0.0
  0
ARC
  5
63C
  8
3
  6
CONTINUOUS
 62
     7
 10
767.8589205889
 20
155.6650700873
 30
0.0
 40
18.99999999999999
 50
0.0
 51
90.0
  0
LINE
  5
63D
  8
3
  6
CONTINUOUS
 62
     7
 10
681.8589205889
 20
174.6650700873
 30
0.0
 11
767.8589205889
 21
174.6650700873
 31
0.0
  0
ARC
  5
63E
  8
3
  6
CONTINUOUS
 62
     7
 10
681.8589205889
 20
155.6650700873
 30
0.0
 40
19.0
 50
90.0
 51
180.0
  0
LINE
  5
63F
  8
3
  6
CONTINUOUS
 62
     7
 10
616.8589205889
 20
390.6650700873
 30
0.0
 11
616.8589205889
 21
369.6795803654
 31
0.0
  0
ARC
  5
640
  8
3
  6
CONTINUOUS
 62
     7
 10
635.8589205889
 20
390.6650700873
 30
0.0
 40
19.0
 50
90.0
 51
180.0
  0
LINE
  5
641
  8
3
  6
CONTINUOUS
 62
     7
 10
813.8589205889
 20
409.6650700873
 30
0.0
 11
812.1089205889
 21
409.6650700873
 31
0.0
  0
ARC
  5
642
  8
3
  6
CONTINUOUS
 62
     7
 10
813.8589205889
 20
390.6650700873
 30
0.0
 40
19.0
 50
0.0
 51
90.0
  0
LINE
  5
643
  8
3
  6
CONTINUOUS
 62
     7
 10
802.6089205889
 20
409.6650700873
 30
0.0
 11
732.8589205889
 21
409.6650700873
 31
0.0
  0
LINE
  5
644
  8
3
  6
CONTINUOUS
 62
     7
 10
812.1089205889
 20
400.2022666821
 30
0.0
 11
812.1089205889
 21
409.6650700873
 31
0.0
  0
ARC
  5
645
  8
3
  6
CONTINUOUS
 62
     7
 10
807.3589205889
 20
393.7650700873
 30
0.0
 40
8.0
 50
126.4235736422999
 51
53.57642635769946
  0
LINE
  5
646
  8
3
  6
CONTINUOUS
 62
     7
 10
802.6089205889
 20
409.6650700873
 30
0.0
 11
802.6089205889
 21
400.2022666821
 31
0.0
  0
LINE
  5
647
  8
3
  6
CONTINUOUS
 62
     7
 10
637.6089205889
 20
409.6650700873
 30
0.0
 11
635.8589205889
 21
409.6650700873
 31
0.0
  0
LINE
  5
648
  8
3
  6
CONTINUOUS
 62
     7
 10
647.1089205889
 20
400.2022666821
 30
0.0
 11
647.1089205889
 21
409.6650700873
 31
0.0
  0
ARC
  5
649
  8
3
  6
CONTINUOUS
 62
     7
 10
642.3589205889
 20
393.7650700873
 30
0.0
 40
7.999999999999998
 50
126.4235736422999
 51
53.57642635769946
  0
LINE
  5
64A
  8
3
  6
CONTINUOUS
 62
     7
 10
637.6089205889
 20
409.6650700873
 30
0.0
 11
637.6089205889
 21
400.2022666821
 31
0.0
  0
ENDBLK
  5
64C
  8
0
  0
ENDSEC
  0
SECTION
  2
ENTITIES
  0
LINE
  5
6F
  8
3
  6
CONTINUOUS
 62
     5
 10
127.3304374130076
 20
-71.68916268476733
 30
0.0
 11
173.3304374130076
 21
-71.68916268476733
 31
0.0
  0
LINE
  5
70
  8
3
  6
CONTINUOUS
 62
     5
 10
343.3304374130076
 20
-71.68916268476733
 30
0.0
 11
343.3304374130076
 21
-22.67465240666732
 31
0.0
  0
ARC
  5
71
  8
3
  6
CONTINUOUS
 62
     5
 10
324.3304374130076
 20
-22.67465240666732
 30
0.0
 40
19.0
 50
0.0
 51
90.0
  0
LINE
  5
72
  8
3
  6
CONTINUOUS
 62
     5
 10
127.3304374130076
 20
-22.67465240666732
 30
0.0
 11
127.3304374130076
 21
-71.68916268476733
 31
0.0
  0
ARC
  5
73
  8
3
  6
CONTINUOUS
 62
     5
 10
146.3304374130076
 20
-22.67465240666732
 30
0.0
 40
18.99999999999999
 50
90.0
 51
180.0
  0
LINE
  5
74
  8
3
  6
CONTINUOUS
 62
     5
 10
146.3304374130076
 20
123.3253475933327
 30
0.0
 11
171.8304374130076
 21
123.3253475933327
 31
0.0
  0
ARC
  5
75
  8
3
  6
CONTINUOUS
 62
     5
 10
146.3304374130076
 20
142.3253475933327
 30
0.0
 40
19.0
 50
180.0
 51
270.0
  0
LINE
  5
76
  8
3
  6
CONTINUOUS
 62
     5
 10
190.8304374130076
 20
104.3253475933327
 30
0.0
 11
190.8304374130076
 21
15.32534759333268
 31
0.0
  0
ARC
  5
77
  8
3
  6
CONTINUOUS
 62
     5
 10
171.8304374130076
 20
104.3253475933327
 30
0.0
 40
19.0
 50
0.0
 51
90.0
  0
LINE
  5
78
  8
3
  6
CONTINUOUS
 62
     5
 10
171.8304374130076
 20
-3.67465240666732
 30
0.0
 11
146.3304374130076
 21
-3.67465240666732
 31
0.0
  0
ARC
  5
79
  8
3
  6
CONTINUOUS
 62
     5
 10
171.8304374130076
 20
15.32534759333268
 30
0.0
 40
19.0
 50
270.0
 51
0.0
  0
LINE
  5
7A
  8
3
  6
CONTINUOUS
 62
     5
 10
298.8304374130076
 20
-3.67465240666732
 30
0.0
 11
324.3304374130076
 21
-3.67465240666732
 31
0.0
  0
ARC
  5
7B
  8
3
  6
CONTINUOUS
 62
     5
 10
298.8304374130076
 20
15.32534759333268
 30
0.0
 40
19.0
 50
180.0
 51
270.0
  0
LINE
  5
7C
  8
3
  6
CONTINUOUS
 62
     5
 10
279.8304374130076
 20
104.3253475933327
 30
0.0
 11
279.8304374130076
 21
15.32534759333268
 31
0.0
  0
ARC
  5
7D
  8
3
  6
CONTINUOUS
 62
     5
 10
298.8304374130076
 20
104.3253475933327
 30
0.0
 40
19.0
 50
90.0
 51
180.0
  0
LINE
  5
7E
  8
3
  6
CONTINUOUS
 62
     5
 10
324.3304374130076
 20
123.3253475933327
 30
0.0
 11
298.8304374130076
 21
123.3253475933327
 31
0.0
  0
LINE
  5
7F
  8
3
  6
CONTINUOUS
 62
     5
 10
343.3304374130076
 20
142.3253475933327
 30
0.0
 11
343.3304374130076
 21
163.3108373152327
 31
0.0
  0
ARC
  5
80
  8
3
  6
CONTINUOUS
 62
     5
 10
324.3304374130076
 20
142.3253475933327
 30
0.0
 40
19.0
 50
270.0
 51
0.0
  0
LINE
  5
81
  8
3
  6
CONTINUOUS
 62
     5
 10
227.3304374130076
 20
182.3108373152327
 30
0.0
 11
157.5804374130076
 21
182.3108373152327
 31
0.0
  0
LINE
  5
82
  8
3
  6
CONTINUOUS
 62
     5
 10
227.3304374130076
 20
55.3108373152327
 30
0.0
 11
227.3304374130076
 21
182.3108373152327
 31
0.0
  0
LINE
  5
83
  8
3
  6
CONTINUOUS
 62
     5
 10
243.3304374130076
 20
55.3108373152327
 30
0.0
 11
227.3304374130076
 21
55.3108373152327
 31
0.0
  0
LINE
  5
84
  8
3
  6
CONTINUOUS
 62
     5
 10
243.3304374130076
 20
182.3108373152327
 30
0.0
 11
243.3304374130076
 21
55.3108373152327
 31
0.0
  0
LINE
  5
85
  8
3
  6
CONTINUOUS
 62
     5
 10
297.3304374130076
 20
-71.68916268476733
 30
0.0
 11
343.3304374130076
 21
-71.68916268476733
 31
0.0
  0
ARC
  5
86
  8
3
  6
CONTINUOUS
 62
     5
 10
278.3304374130076
 20
-71.68916268476733
 30
0.0
 40
18.99999999999999
 50
0.0
 51
90.0
  0
LINE
  5
87
  8
3
  6
CONTINUOUS
 62
     5
 10
192.3304374130076
 20
-52.68916268476733
 30
0.0
 11
278.3304374130076
 21
-52.68916268476733
 31
0.0
  0
ARC
  5
88
  8
3
  6
CONTINUOUS
 62
     5
 10
192.3304374130076
 20
-71.68916268476733
 30
0.0
 40
19.0
 50
90.0
 51
180.0
  0
LINE
  5
89
  8
3
  6
CONTINUOUS
 62
     5
 10
127.3304374130076
 20
163.3108373152327
 30
0.0
 11
127.3304374130076
 21
142.3253475933327
 31
0.0
  0
ARC
  5
8A
  8
3
  6
CONTINUOUS
 62
     5
 10
146.3304374130076
 20
163.3108373152327
 30
0.0
 40
19.0
 50
90.0
 51
180.0
  0
LINE
  5
8B
  8
3
  6
CONTINUOUS
 62
     5
 10
324.3304374130076
 20
182.3108373152327
 30
0.0
 11
322.5804374130076
 21
182.3108373152327
 31
0.0
  0
ARC
  5
8C
  8
3
  6
CONTINUOUS
 62
     5
 10
324.3304374130076
 20
163.3108373152327
 30
0.0
 40
19.0
 50
0.0
 51
90.0
  0
LINE
  5
8D
  8
3
  6
CONTINUOUS
 62
     5
 10
313.0804374130076
 20
182.3108373152327
 30
0.0
 11
243.3304374130076
 21
182.3108373152327
 31
0.0
  0
LINE
  5
8E
  8
3
  6
CONTINUOUS
 62
     5
 10
322.5804374130076
 20
172.8480339100327
 30
0.0
 11
322.5804374130076
 21
182.3108373152327
 31
0.0
  0
ARC
  5
8F
  8
3
  6
CONTINUOUS
 62
     5
 10
317.8304374130076
 20
166.4108373152327
 30
0.0
 40
8.0
 50
126.4235736422998
 51
53.57642635770012
  0
LINE
  5
90
  8
3
  6
CONTINUOUS
 62
     5
 10
313.0804374130076
 20
182.3108373152327
 30
0.0
 11
313.0804374130076
 21
172.8480339100327
 31
0.0
  0
LINE
  5
91
  8
3
  6
CONTINUOUS
 62
     5
 10
148.0804374130076
 20
182.3108373152327
 30
0.0
 11
146.3304374130076
 21
182.3108373152327
 31
0.0
  0
LINE
  5
92
  8
3
  6
CONTINUOUS
 62
     5
 10
157.5804374130076
 20
172.8480339100327
 30
0.0
 11
157.5804374130076
 21
182.3108373152327
 31
0.0
  0
ARC
  5
93
  8
3
  6
CONTINUOUS
 62
     5
 10
152.8304374130076
 20
166.4108373152327
 30
0.0
 40
7.999999999999998
 50
126.4235736422998
 51
53.57642635769995
  0
LINE
  5
94
  8
3
  6
CONTINUOUS
 62
     5
 10
148.0804374130076
 20
182.3108373152327
 30
0.0
 11
148.0804374130076
 21
172.8480339100327
 31
0.0
  0
LINE
  5
96
  8
2
  6
CONTINUOUS
 62
     5
 10
-105.0723394749924
 20
-221.3553660949673
 30
0.0
 11
-59.07233947499236
 21
-221.3553660949673
 31
0.0
  0
LINE
  5
97
  8
2
  6
CONTINUOUS
 62
     5
 10
110.9276605250077
 20
-221.3553660949673
 30
0.0
 11
110.9276605250077
 21
-172.3408558168673
 31
0.0
  0
ARC
  5
98
  8
2
  6
CONTINUOUS
 62
     5
 10
-41.57233947499236
 20
143.6446339050327
 30
0.0
 40
14.25000000000004
 50
90.0
 51
270.0
  0
LINE
  5
99
  8
2
  6
CONTINUOUS
 62
     5
 10
-41.57233947499236
 20
157.8946339050327
 30
0.0
 11
47.4276605250077
 21
157.8946339050327
 31
0.0
  0
ARC
  5
9A
  8
2
  6
CONTINUOUS
 62
     5
 10
47.4276605250077
 20
143.6446339050327
 30
0.0
 40
14.25000000000001
 50
270.0
 51
90.0
  0
LINE
  5
9B
  8
2
  6
CONTINUOUS
 62
     5
 10
47.4276605250077
 20
129.3946339050327
 30
0.0
 11
-41.57233947499236
 21
129.3946339050327
 31
0.0
  0
ARC
  5
9C
  8
2
  6
CONTINUOUS
 62
     5
 10
91.9276605250077
 20
-172.3408558168673
 30
0.0
 40
19.0
 50
0.0
 51
90.0
  0
LINE
  5
9D
  8
2
  6
CONTINUOUS
 62
     5
 10
-105.0723394749924
 20
159.6446339050327
 30
0.0
 11
-105.0723394749924
 21
-7.340855816867332
 31
0.0
  0
ARC
  5
9E
  8
2
  6
CONTINUOUS
 62
     5
 10
-86.07233947499236
 20
159.6446339050327
 30
0.0
 40
18.99999999999999
 50
90.0
 51
180.0
  0
LINE
  5
9F
  8
2
  6
CONTINUOUS
 62
     5
 10
91.9276605250077
 20
178.6446339050327
 30
0.0
 11
-86.07233947499236
 21
178.6446339050327
 31
0.0
  0
ARC
  5
A0
  8
2
  6
CONTINUOUS
 62
     5
 10
91.9276605250077
 20
159.6446339050327
 30
0.0
 40
19.0
 50
0.0
 51
90.0
  0
LINE
  5
A1
  8
2
  6
CONTINUOUS
 62
     5
 10
-105.0723394749924
 20
-172.3408558168673
 30
0.0
 11
-105.0723394749924
 21
-221.3553660949673
 31
0.0
  0
ARC
  5
A2
  8
2
  6
CONTINUOUS
 62
     5
 10
-86.07233947499236
 20
-172.3408558168673
 30
0.0
 40
18.99999999999999
 50
90.0
 51
180.0
  0
LINE
  5
A3
  8
2
  6
CONTINUOUS
 62
     5
 10
-86.07233947499236
 20
-26.34085581686733
 30
0.0
 11
-60.57233947499236
 21
-26.34085581686733
 31
0.0
  0
ARC
  5
A4
  8
2
  6
CONTINUOUS
 62
     5
 10
-86.07233947499236
 20
-7.340855816867332
 30
0.0
 40
19.0
 50
180.0
 51
270.0
  0
LINE
  5
A5
  8
2
  6
CONTINUOUS
 62
     5
 10
-41.57233947499236
 20
-45.34085581686733
 30
0.0
 11
-41.57233947499236
 21
-134.3408558168673
 31
0.0
  0
ARC
  5
A6
  8
2
  6
CONTINUOUS
 62
     5
 10
-60.57233947499236
 20
-45.34085581686733
 30
0.0
 40
19.0
 50
0.0
 51
90.0
  0
LINE
  5
A7
  8
2
  6
CONTINUOUS
 62
     5
 10
-60.57233947499236
 20
-153.3408558168673
 30
0.0
 11
-86.07233947499236
 21
-153.3408558168673
 31
0.0
  0
ARC
  5
A8
  8
2
  6
CONTINUOUS
 62
     5
 10
-60.57233947499236
 20
-134.3408558168673
 30
0.0
 40
19.0
 50
270.0
 51
0.0
  0
LINE
  5
A9
  8
2
  6
CONTINUOUS
 62
     5
 10
66.4276605250077
 20
-153.3408558168673
 30
0.0
 11
91.9276605250077
 21
-153.3408558168673
 31
0.0
  0
ARC
  5
AA
  8
2
  6
CONTINUOUS
 62
     5
 10
66.4276605250077
 20
-134.3408558168673
 30
0.0
 40
19.0
 50
180.0
 51
270.0
  0
LINE
  5
AB
  8
2
  6
CONTINUOUS
 62
     5
 10
47.4276605250077
 20
-45.34085581686733
 30
0.0
 11
47.4276605250077
 21
-134.3408558168673
 31
0.0
  0
ARC
  5
AC
  8
2
  6
CONTINUOUS
 62
     5
 10
66.4276605250077
 20
-45.34085581686733
 30
0.0
 40
19.0
 50
90.0
 51
180.0
  0
LINE
  5
AD
  8
2
  6
CONTINUOUS
 62
     5
 10
91.9276605250077
 20
-26.34085581686733
 30
0.0
 11
66.4276605250077
 21
-26.34085581686733
 31
0.0
  0
LINE
  5
AE
  8
2
  6
CONTINUOUS
 62
     5
 10
110.9276605250077
 20
-7.340855816867332
 30
0.0
 11
110.9276605250077
 21
159.6446339050327
 31
0.0
  0
ARC
  5
AF
  8
2
  6
CONTINUOUS
 62
     5
 10
91.9276605250077
 20
-7.340855816867332
 30
0.0
 40
19.0
 50
270.0
 51
0.0
  0
LINE
  5
B0
  8
2
  6
CONTINUOUS
 62
     5
 10
10.92766052500764
 20
-94.35536609496731
 30
0.0
 11
10.92766052500764
 21
-202.3553660949673
 31
0.0
  0
LINE
  5
B1
  8
2
  6
CONTINUOUS
 62
     5
 10
-5.072339474992361
 20
-94.35536609496731
 30
0.0
 11
10.92766052500764
 21
-94.35536609496731
 31
0.0
  0
LINE
  5
B2
  8
2
  6
CONTINUOUS
 62
     5
 10
-5.072339474992361
 20
-202.3553660949673
 30
0.0
 11
-5.072339474992361
 21
-94.35536609496731
 31
0.0
  0
LINE
  5
B3
  8
2
  6
CONTINUOUS
 62
     5
 10
64.9276605250077
 20
-221.3553660949673
 30
0.0
 11
110.9276605250077
 21
-221.3553660949673
 31
0.0
  0
LINE
  5
B4
  8
2
  6
CONTINUOUS
 62
     5
 10
10.92766052500764
 20
-202.3553660949673
 30
0.0
 11
45.9276605250077
 21
-202.3553660949673
 31
0.0
  0
LINE
  5
B5
  8
2
  6
CONTINUOUS
 62
     5
 10
-40.07233947499236
 20
-202.3553660949673
 30
0.0
 11
-5.072339474992361
 21
-202.3553660949673
 31
0.0
  0
ARC
  5
B6
  8
2
  6
CONTINUOUS
 62
     5
 10
-40.07233947499236
 20
-221.3553660949673
 30
0.0
 40
19.0
 50
90.0
 51
180.0
  0
ARC
  5
B7
  8
2
  6
CONTINUOUS
 62
     5
 10
45.9276605250077
 20
-221.3553660949673
 30
0.0
 40
18.99999999999999
 50
0.0
 51
90.0
  0
LINE
  5
B9
  8
1
  6
CONTINUOUS
 62
     5
 10
-144.6276975738924
 20
173.8325372443327
 30
0.0
 11
-177.8776975738924
 21
173.8325372443327
 31
0.0
  0
LINE
  5
BA
  8
1
  6
CONTINUOUS
 62
     5
 10
-455.6276975738924
 20
-26.16746275566732
 30
0.0
 11
-144.6276975738924
 21
-26.16746275566732
 31
0.0
  0
ARC
  5
BB
  8
1
  6
CONTINUOUS
 62
     5
 10
-347.6276975738923
 20
135.8325372443327
 30
0.0
 40
14.25
 50
90.0
 51
270.0
  0
LINE
  5
BC
  8
1
  6
CONTINUOUS
 62
     5
 10
-347.6276975738923
 20
150.0825372443327
 30
0.0
 11
-252.6276975738923
 21
150.0825372443327
 31
0.0
  0
ARC
  5
BD
  8
1
  6
CONTINUOUS
 62
     5
 10
-252.6276975738923
 20
135.8325372443327
 30
0.0
 40
14.25000000000001
 50
270.0
 51
90.0
  0
LINE
  5
BE
  8
1
  6
CONTINUOUS
 62
     5
 10
-252.6276975738923
 20
121.5825372443327
 30
0.0
 11
-347.6276975738923
 21
121.5825372443327
 31
0.0
  0
LINE
  5
BF
  8
1
  6
CONTINUOUS
 62
     5
 10
-247.2690119316923
 20
99.81882436643266
 30
0.0
 11
-138.5045059583924
 21
136.8462501221327
 31
0.0
  0
ARC
  5
C0
  8
1
  6
CONTINUOUS
 62
     5
 10
-241.1458203162923
 20
81.83253724433266
 30
0.0
 40
19.00000000000001
 50
108.8004568231
 51
180.0
  0
LINE
  5
C1
  8
1
  6
CONTINUOUS
 62
     5
 10
-260.1458203162923
 20
59.83253724433266
 30
0.0
 11
-260.1458203162923
 21
81.83253724433266
 31
0.0
  0
ARC
  5
C2
  8
1
  6
CONTINUOUS
 62
     5
 10
-241.1458203162923
 20
59.83253724433266
 30
0.0
 40
19.0
 50
180.0
 51
254.1027631454999
  0
LINE
  5
C3
  8
1
  6
CONTINUOUS
 62
     5
 10
-139.4233536622924
 20
11.10587313163268
 30
0.0
 11
-246.3501642277923
 21
41.55920135703266
 31
0.0
  0
LINE
  5
C4
  8
1
  6
CONTINUOUS
 62
     5
 10
-353.4449658097923
 20
41.5530599142327
 30
0.0
 11
-460.8104293379923
 21
11.11201457443269
 31
0.0
  0
ARC
  5
C5
  8
1
  6
CONTINUOUS
 62
     5
 10
-358.6276975738923
 20
59.83253724433266
 30
0.0
 40
19.00000000000001
 50
285.8294836731
 51
359.9999999999999
  0
LINE
  5
C6
  8
1
  6
CONTINUOUS
 62
     5
 10
-339.6276975738923
 20
81.83253724433266
 30
0.0
 11
-339.6276975738923
 21
59.83253724433266
 31
0.0
  0
ARC
  5
C7
  8
1
  6
CONTINUOUS
 62
     5
 10
-358.6276975738923
 20
81.83253724433266
 30
0.0
 40
18.99999999999999
 50
0.0
 51
71.27669731870006
  0
LINE
  5
C8
  8
1
  6
CONTINUOUS
 62
     5
 10
-461.7266634221924
 20
136.8380209801327
 30
0.0
 11
-352.5287317255924
 21
99.82705350843267
 31
0.0
  0
ARC
  5
C9
  8
1
  6
CONTINUOUS
 62
     5
 10
-144.6276975738924
 20
154.8325372443327
 30
0.0
 40
19.00000000000003
 50
288.8004568231
 51
90.0
  0
ARC
  5
CA
  8
1
  6
CONTINUOUS
 62
     5
 10
-455.6276975738924
 20
154.8325372443327
 30
0.0
 40
19.0
 50
90.0
 51
251.2766973187001
  0
ARC
  5
CB
  8
1
  6
CONTINUOUS
 62
     5
 10
-144.6276975738924
 20
-7.167462755667316
 30
0.0
 40
19.0
 50
270.0
 51
74.1027631455
  0
ARC
  5
CC
  8
1
  6
CONTINUOUS
 62
     5
 10
-455.6276975738924
 20
-7.167462755667316
 30
0.0
 40
19.00000000000001
 50
105.8294836731
 51
270.0
  0
CIRCLE
  5
CD
  8
1
  6
CONTINUOUS
 62
     5
 10
-300.1276975738923
 20
73.83253724433266
 30
0.0
 40
5.0
  0
LINE
  5
CE
  8
1
  6
CONTINUOUS
 62
     5
 10
-422.3776975738924
 20
173.8325372443327
 30
0.0
 11
-455.6276975738924
 21
173.8325372443327
 31
0.0
  0
LINE
  5
CF
  8
1
  6
CONTINUOUS
 62
     5
 10
-412.8776975738924
 20
164.3325372443327
 30
0.0
 11
-412.8776975738924
 21
173.8325372443327
 31
0.0
  0
LINE
  5
D0
  8
1
  6
CONTINUOUS
 62
     5
 10
-422.3776975738924
 20
173.8325372443327
 30
0.0
 11
-422.3776975738924
 21
164.3325372443327
 31
0.0
  0
ARC
  5
D1
  8
1
  6
CONTINUOUS
 62
     5
 10
-417.6276975738924
 20
157.8953406495327
 30
0.0
 40
8.000000000000009
 50
126.4235736423002
 51
53.57642635770024
  0
LINE
  5
D2
  8
1
  6
CONTINUOUS
 62
     5
 10
-187.3776975738924
 20
173.8325372443327
 30
0.0
 11
-412.8776975738924
 21
173.8325372443327
 31
0.0
  0
LINE
  5
D3
  8
1
  6
CONTINUOUS
 62
     5
 10
-177.8776975738924
 20
164.3325372443327
 30
0.0
 11
-177.8776975738924
 21
173.8325372443327
 31
0.0
  0
LINE
  5
D4
  8
1
  6
CONTINUOUS
 62
     5
 10
-187.3776975738924
 20
173.8325372443327
 30
0.0
 11
-187.3776975738924
 21
164.3325372443327
 31
0.0
  0
ARC
  5
D5
  8
1
  6
CONTINUOUS
 62
     5
 10
-182.6276975738924
 20
157.8953406495327
 30
0.0
 40
8.0
 50
126.4235736422998
 51
53.57642635769995
  0
POLYLINE
  5
D7
  8
DEFAULT
 62
     5
 66
     1
 10
0.0
 20
0.0
 30
0.0
 70
     1
  0
VERTEX
  5
D8
  8
DEFAULT
 62
     5
 10
-248.0531577542878
 20
196.6936645385597
 30
0.0
  0
VERTEX
  5
D9
  8
DEFAULT
 62
     5
 10
-248.0531577542878
 20
208.6195904644856
 30
0.0
  0
VERTEX
  5
DA
  8
DEFAULT
 62
     5
 10
-244.1989910522994
 20
208.6195904644856
 30
0.0
 42
-0.0512501894894297
  0
VERTEX
  5
DB
  8
DEFAULT
 62
     5
 10
-241.3436663600936
 20
208.4413503948593
 30
0.0
 42
-0.17053775981623
  0
VERTEX
  5
DC
  8
DEFAULT
 62
     5
 10
-239.6318612460607
 20
207.2764201483695
 30
0.0
 42
-0.1683452898235543
  0
VERTEX
  5
DD
  8
DEFAULT
 62
     5
 10
-238.9420466431768
 20
204.9610263384461
 30
0.0
 42
-0.1225574679041347
  0
VERTEX
  5
DE
  8
DEFAULT
 62
     5
 10
-239.3373010873668
 20
203.1184338871407
 30
0.0
 42
-0.1200992377900686
  0
VERTEX
  5
DF
  8
DEFAULT
 62
     5
 10
-240.3407727974228
 20
201.9459798125581
 30
0.0
 42
-0.0998133031997822
  0
VERTEX
  5
E0
  8
DEFAULT
 62
     5
 10
-241.5786202580673
 20
201.3823222815242
 30
0.0
 42
-0.0458646238618713
  0
VERTEX
  5
E1
  8
DEFAULT
 62
     5
 10
-244.0531577542878
 20
201.2121830570782
 30
0.0
  0
VERTEX
  5
E2
  8
DEFAULT
 62
     5
 10
-245.6087133098434
 20
201.2121830570782
 30
0.0
  0
VERTEX
  5
E3
  8
DEFAULT
 62
     5
 10
-245.6087133098434
 20
196.6936645385597
 30
0.0
  0
SEQEND
  5
E4
  8
DEFAULT
 62
     5
  0
POLYLINE
  5
E5
  8
DEFAULT
 62
     5
 66
     1
 10
0.0
 20
0.0
 30
0.0
 70
     1
  0
VERTEX
  5
E6
  8
DEFAULT
 62
     5
 10
-245.6087133098434
 20
206.6195904644856
 30
0.0
  0
VERTEX
  5
E7
  8
DEFAULT
 62
     5
 10
-245.6087133098434
 20
203.2121830570782
 30
0.0
  0
VERTEX
  5
E8
  8
DEFAULT
 62
     5
 10
-244.2985273475784
 20
203.2121830570782
 30
0.0
 42
0.0782937827236063
  0
VERTEX
  5
E9
  8
DEFAULT
 62
     5
 10
-242.4055874709504
 20
203.4008405174683
 30
0.0
 42
0.1546982739582916
  0
VERTEX
  5
EA
  8
DEFAULT
 62
     5
 10
-241.6573240324146
 20
203.9905401125391
 30
0.0
 42
0.1527391250226463
  0
VERTEX
  5
EB
  8
DEFAULT
 62
     5
 10
-241.3864910876212
 20
204.92398873626
 30
0.0
 42
0.1899564736900072
  0
VERTEX
  5
EC
  8
DEFAULT
 62
     5
 10
-241.7666990059233
 20
206.005007925893
 30
0.0
 42
0.1715374720898585
  0
VERTEX
  5
ED
  8
DEFAULT
 62
     5
 10
-242.7290826912031
 20
206.5374155452312
 30
0.0
 42
0.0381286563022563
  0
VERTEX
  5
EE
  8
DEFAULT
 62
     5
 10
-244.4524626210681
 20
206.6195904644856
 30
0.0
  0
SEQEND
  5
EF
  8
DEFAULT
 62
     5
  0
POLYLINE
  5
F0
  8
DEFAULT
 62
     5
 66
     1
 10
0.0
 20
0.0
 30
0.0
 70
     1
  0
VERTEX
  5
F1
  8
DEFAULT
 62
     5
 10
-237.5346392357693
 20
201.1496832336872
 30
0.0
 42
-0.1222574291832675
  0
VERTEX
  5
F2
  8
DEFAULT
 62
     5
 10
-236.9750326924747
 20
203.374220871195
 30
0.0
 42
-0.1509199207835859
  0
VERTEX
  5
F3
  8
DEFAULT
 62
     5
 10
-235.389384085143
 20
205.016002898893
 30
0.0
 42
-0.1287246067144211
  0
VERTEX
  5
F4
  8
DEFAULT
 62
     5
 10
-233.0982956365052
 20
205.5825534274486
 30
0.0
 42
-0.210927407912835
  0
VERTEX
  5
F5
  8
DEFAULT
 62
     5
 10
-229.8945927805249
 20
204.2978313818354
 30
0.0
 42
-0.2026212639801714
  0
VERTEX
  5
F6
  8
DEFAULT
 62
     5
 10
-228.6457503468804
 20
201.0513043634765
 30
0.0
 42
-0.2022295973323192
  0
VERTEX
  5
F7
  8
DEFAULT
 62
     5
 10
-229.9067451785932
 20
197.772368312907
 30
0.0
 42
-0.2115506096600829
  0
VERTEX
  5
F8
  8
DEFAULT
 62
     5
 10
-233.0820928158467
 20
196.4714423163375
 30
0.0
 42
-0.1188796278362131
  0
VERTEX
  5
F9
  8
DEFAULT
 62
     5
 10
-235.3407733625718
 20
197.0131093362222
 30
0.0
 42
-0.1582355798320417
  0
VERTEX
  5
FA
  8
DEFAULT
 62
     5
 10
-236.9750326924747
 20
198.6016515062246
 30
0.0
 42
-0.1239053267140385
  0
SEQEND
  5
FB
  8
DEFAULT
 62
     5
  0
POLYLINE
  5
FC
  8
DEFAULT
 62
     5
 66
     1
 10
0.0
 20
0.0
 30
0.0
 70
     1
  0
VERTEX
  5
FD
  8
DEFAULT
 62
     5
 10
-235.238342939473
 20
201.026998437042
 30
0.0
 42
0.1807696907208021
  0
VERTEX
  5
FE
  8
DEFAULT
 62
     5
 10
-234.6388057964706
 20
199.0200538866321
 30
0.0
 42
0.2292871242715501
  0
VERTEX
  5
FF
  8
DEFAULT
 62
     5
 10
-233.160796590194
 20
198.3232941681893
 30
0.0
 42
0.2303193461660536
  0
VERTEX
  5
100
  8
DEFAULT
 62
     5
 10
-231.6856803814393
 20
199.0200538866321
 30
0.0
 42
0.1794408075869702
  0
VERTEX
  5
101
  8
DEFAULT
 62
     5
 10
-231.0901947913249
 20
201.0432023879983
 30
0.0
 42
0.1800932450793874
  0
VERTEX
  5
102
  8
DEFAULT
 62
     5
 10
-231.6856803814393
 20
203.0339424223029
 30
0.0
 42
0.2303192267205832
  0
VERTEX
  5
103
  8
DEFAULT
 62
     5
 10
-233.160796590194
 20
203.7307015755966
 30
0.0
 42
0.229287005070751
  0
VERTEX
  5
104
  8
DEFAULT
 62
     5
 10
-234.6388057964706
 20
203.0339424223029
 30
0.0
 42
0.1807697890868266
  0
SEQEND
  5
105
  8
DEFAULT
 62
     5
  0
POLYLINE
  5
106
  8
DEFAULT
 62
     5
 66
     1
 10
0.0
 20
0.0
 30
0.0
 70
     1
  0
VERTEX
  5
107
  8
DEFAULT
 62
     5
 10
-224.5716762728064
 20
196.6936645385597
 30
0.0
  0
VERTEX
  5
108
  8
DEFAULT
 62
     5
 10
-226.8679725691027
 20
196.6936645385597
 30
0.0
  0
VERTEX
  5
109
  8
DEFAULT
 62
     5
 10
-226.8679725691027
 20
205.3603312052263
 30
0.0
  0
VERTEX
  5
10A
  8
DEFAULT
 62
     5
 10
-224.7198244209545
 20
205.3603312052263
 30
0.0
  0
VERTEX
  5
10B
  8
DEFAULT
 62
     5
 10
-224.7198244209545
 20
204.1369521230847
 30
0.0
 42
-0.0977550519460772
  0
VERTEX
  5
10C
  8
DEFAULT
 62
     5
 10
-223.7788519691405
 20
205.2932016815622
 30
0.0
 42
-0.1561720185079792
  0
VERTEX
  5
10D
  8
DEFAULT
 62
     5
 10
-222.8309349669167
 20
205.5825534274486
 30
0.0
 42
-0.1438170981369991
  0
VERTEX
  5
10E
  8
DEFAULT
 62
     5
 10
-221.3864910876212
 20
205.1462109584823
 30
0.0
  0
VERTEX
  5
10F
  8
DEFAULT
 62
     5
 10
-222.0901942261759
 20
203.1357952631654
 30
0.0
 42
0.1496770151887876
  0
VERTEX
  5
110
  8
DEFAULT
 62
     5
 10
-223.1133421623932
 20
203.5084793533745
 30
0.0
 42
0.1810970994867087
  0
VERTEX
  5
111
  8
DEFAULT
 62
     5
 10
-223.8893838025685
 20
203.2428548213885
 30
0.0
 42
0.1501348396488348
  0
VERTEX
  5
112
  8
DEFAULT
 62
     5
 10
-224.389384085143
 20
202.2827854210963
 30
0.0
 42
0.0509111359642267
  0
VERTEX
  5
113
  8
DEFAULT
 62
     5
 10
-224.5716762728064
 20
199.3742203060461
 30
0.0
  0
SEQEND
  5
114
  8
DEFAULT
 62
     5
  0
POLYLINE
  5
115
  8
DEFAULT
 62
     5
 66
     1
 10
0.0
 20
0.0
 30
0.0
 70
     1
  0
VERTEX
  5
116
  8
DEFAULT
 62
     5
 10
-216.4235281246582
 20
205.3603312052263
 30
0.0
  0
VERTEX
  5
117
  8
DEFAULT
 62
     5
 10
-216.4235281246582
 20
203.5825534274486
 30
0.0
  0
VERTEX
  5
118
  8
DEFAULT
 62
     5
 10
-217.9790836802138
 20
203.5825534274486
 30
0.0
  0
VERTEX
  5
119
  8
DEFAULT
 62
     5
 10
-217.9790836802138
 20
200.0038505008247
 30
0.0
  0
VERTEX
  5
11A
  8
DEFAULT
 62
     5
 10
-217.9351020927668
 20
198.7370674134724
 30
0.0
 42
0.1777629698041134
  0
VERTEX
  5
11B
  8
DEFAULT
 62
     5
 10
-217.7366065192961
 20
198.440192404642
 30
0.0
 42
0.1671411134724656
  0
VERTEX
  5
11C
  8
DEFAULT
 62
     5
 10
-217.3587128859817
 20
198.3232941681893
 30
0.0
 42
0.0818670423875457
  0
VERTEX
  5
11D
  8
DEFAULT
 62
     5
 10
-216.4605645965463
 20
198.5420452455045
 30
0.0
  0
VERTEX
  5
11E
  8
DEFAULT
 62
     5
 10
-216.2753799765101
 20
196.8047762148198
 30
0.0
 42
-0.1009135694951088
  0
VERTEX
  5
11F
  8
DEFAULT
 62
     5
 10
-218.0624160245364
 20
196.4714423163374
 30
0.0
 42
-0.1023112505793958
  0
VERTEX
  5
120
  8
DEFAULT
 62
     5
 10
-219.1648470127842
 20
196.6820908530255
 30
0.0
 42
-0.1427327602513911
  0
VERTEX
  5
121
  8
DEFAULT
 62
     5
 10
-219.8853333799784
 20
197.226651435581
 30
0.0
 42
-0.111247426680823
  0
VERTEX
  5
122
  8
DEFAULT
 62
     5
 10
-220.2024621972064
 20
198.1300075726749
 30
0.0
 42
-0.0357944377719343
  0
VERTEX
  5
123
  8
DEFAULT
 62
     5
 10
-220.2753799765101
 20
199.7631094775095
 30
0.0
  0
VERTEX
  5
124
  8
DEFAULT
 62
     5
 10
-220.2753799765101
 20
203.5825534274486
 30
0.0
  0
VERTEX
  5
125
  8
DEFAULT
 62
     5
 10
-221.3864910876212
 20
203.5825534274486
 30
0.0
  0
VERTEX
  5
126
  8
DEFAULT
 62
     5
 10
-221.3864910876212
 20
205.3603312052263
 30
0.0
  0
VERTEX
  5
127
  8
DEFAULT
 62
     5
 10
-220.2753799765101
 20
205.3603312052263
 30
0.0
  0
VERTEX
  5
128
  8
DEFAULT
 62
     5
 10
-220.2753799765101
 20
206.989960834856
 30
0.0
  0
VERTEX
  5
129
  8
DEFAULT
 62
     5
 10
-217.9790836802138
 20
208.3232941681893
 30
0.0
  0
VERTEX
  5
12A
  8
DEFAULT
 62
     5
 10
-217.9790836802138
 20
205.3603312052263
 30
0.0
  0
SEQEND
  5
12B
  8
DEFAULT
 62
     5
  0
POLYLINE
  5
12C
  8
DEFAULT
 62
     5
 66
     1
 10
0.0
 20
0.0
 30
0.0
 70
     1
  0
VERTEX
  5
12D
  8
DEFAULT
 62
     5
 10
-213.164268865399
 20
202.6936645385597
 30
0.0
  0
VERTEX
  5
12E
  8
DEFAULT
 62
     5
 10
-215.238342939473
 20
202.989960834856
 30
0.0
 42
-0.1714833175990477
  0
VERTEX
  5
12F
  8
DEFAULT
 62
     5
 10
-214.0537359016731
 20
204.9471372376263
 30
0.0
 42
-0.1608829132837691
  0
VERTEX
  5
130
  8
DEFAULT
 62
     5
 10
-211.5566291817693
 20
205.5825534274485
 30
0.0
 42
-0.1088364278880855
  0
VERTEX
  5
131
  8
DEFAULT
 62
     5
 10
-209.3158887236031
 20
205.2185488949539
 30
0.0
 42
-0.1580303644334969
  0
VERTEX
  5
132
  8
DEFAULT
 62
     5
 10
-208.2794303991002
 20
204.2937803940963
 30
0.0
 42
-0.1088017057953607
  0
VERTEX
  5
133
  8
DEFAULT
 62
     5
 10
-207.9790836802138
 20
202.2353321235934
 30
0.0
  0
VERTEX
  5
134
  8
DEFAULT
 62
     5
 10
-207.9790836802138
 20
199.5501466558337
 30
0.0
 42
0.0514080219695043
  0
VERTEX
  5
135
  8
DEFAULT
 62
     5
 10
-207.8540834682829
 20
197.8597527752666
 30
0.0
 42
0.0692287864232378
  0
VERTEX
  5
136
  8
DEFAULT
 62
     5
 10
-207.3864910876212
 20
196.6936645385597
 30
0.0
  0
VERTEX
  5
137
  8
DEFAULT
 62
     5
 10
-209.6827873839175
 20
196.6936645385597
 30
0.0
  0
VERTEX
  5
138
  8
DEFAULT
 62
     5
 10
-209.9026947560031
 20
197.3649609054996
 30
0.0
  0
VERTEX
  5
139
  8
DEFAULT
 62
     5
 10
-209.9837122501891
 20
197.632322705386
 30
0.0
 42
-0.0933244186738137
  0
VERTEX
  5
13A
  8
DEFAULT
 62
     5
 10
-211.2371855144047
 20
196.7619520524411
 30
0.0
 42
-0.1040133466925737
  0
VERTEX
  5
13B
  8
DEFAULT
 62
     5
 10
-212.6619531675389
 20
196.4714423163374
 30
0.0
 42
-0.1965430357596601
  0
VERTEX
  5
13C
  8
DEFAULT
 62
     5
 10
-214.7655415808549
 20
197.1977158088733
 30
0.0
 42
-0.2154369487651207
  0
VERTEX
  5
13D
  8
DEFAULT
 62
     5
 10
-215.5346392357693
 20
199.0339429874518
 30
0.0
 42
-0.1373780248024069
  0
VERTEX
  5
13E
  8
DEFAULT
 62
     5
 10
-215.1920465018895
 20
200.3441278194189
 30
0.0
 42
-0.1473783213971481
  0
VERTEX
  5
13F
  8
DEFAULT
 62
     5
 10
-214.2319765364484
 20
201.2254934453638
 30
0.0
 42
-0.0634404934846883
  0
VERTEX
  5
140
  8
DEFAULT
 62
     5
 10
-212.4513051959998
 20
201.7596372023045
 30
0.0
 42
0.0472009877729066
  0
VERTEX
  5
141
  8
DEFAULT
 62
     5
 10
-210.2753799765101
 20
202.3232941681893
 30
0.0
  0
VERTEX
  5
142
  8
DEFAULT
 62
     5
 10
-210.2753799765101
 20
202.5559332160263
 30
0.0
 42
0.2070921599656589
  0
VERTEX
  5
143
  8
DEFAULT
 62
     5
 10
-210.5826712458064
 20
203.5177387539209
 30
0.0
 42
0.1777887432707837
  0
VERTEX
  5
144
  8
DEFAULT
 62
     5
 10
-211.7429723571718
 20
203.8047756496707
 30
0.0
 42
0.16510911380382
  0
VERTEX
  5
145
  8
DEFAULT
 62
     5
 10
-212.6416987939924
 20
203.558248066163
 30
0.0
 42
0.1491587679878404
  0
SEQEND
  5
146
  8
DEFAULT
 62
     5
  0
POLYLINE
  5
147
  8
DEFAULT
 62
     5
 66
     1
 10
0.0
 20
0.0
 30
0.0
 70
     1
  0
VERTEX
  5
148
  8
DEFAULT
 62
     5
 10
-210.2753799765101
 20
200.8418126867078
 30
0.0
  0
VERTEX
  5
149
  8
DEFAULT
 62
     5
 10
-211.6121850198994
 20
200.4911185424988
 30
0.0
 42
0.0811165779560993
  0
VERTEX
  5
14A
  8
DEFAULT
 62
     5
 10
-212.8077864655504
 20
200.0918136757185
 30
0.0
 42
0.2517191883486313
  0
VERTEX
  5
14B
  8
DEFAULT
 62
     5
 10
-213.238342939473
 20
199.2839434113136
 30
0.0
 42
0.2041672574556981
  0
VERTEX
  5
14C
  8
DEFAULT
 62
     5
 10
-212.8945927805248
 20
198.4517666553251
 30
0.0
 42
0.2097521333282938
  0
VERTEX
  5
14D
  8
DEFAULT
 62
     5
 10
-212.0184350022384
 20
198.101071945967
 30
0.0
 42
0.1670482644846086
  0
VERTEX
  5
14E
  8
DEFAULT
 62
     5
 10
-210.8853328148294
 20
198.5084799185234
 30
0.0
 42
0.1651612454990989
  0
VERTEX
  5
14F
  8
DEFAULT
 62
     5
 10
-210.3610271709694
 20
199.2677394603571
 30
0.0
 42
0.0593667948163757
  0
VERTEX
  5
150
  8
DEFAULT
 62
     5
 10
-210.2753799765101
 20
200.3846376968098
 30
0.0
  0
SEQEND
  5
151
  8
DEFAULT
 62
     5
  0
POLYLINE
  5
152
  8
DEFAULT
 62
     5
 66
     1
 10
0.0
 20
0.0
 30
0.0
 70
     1
  0
VERTEX
  5
153
  8
DEFAULT
 62
     5
 10
-205.6087133098434
 20
196.6936645385597
 30
0.0
  0
VERTEX
  5
154
  8
DEFAULT
 62
     5
 10
-205.6087133098434
 20
208.6195904644856
 30
0.0
  0
VERTEX
  5
155
  8
DEFAULT
 62
     5
 10
-203.3124170135471
 20
208.6195904644856
 30
0.0
  0
VERTEX
  5
156
  8
DEFAULT
 62
     5
 10
-203.3124170135471
 20
204.3834802717415
 30
0.0
 42
-0.2270822596882964
  0
VERTEX
  5
157
  8
DEFAULT
 62
     5
 10
-200.8378795173265
 20
205.5825534274486
 30
0.0
 42
-0.2252479393351545
  0
VERTEX
  5
158
  8
DEFAULT
 62
     5
 10
-198.2585973130195
 20
204.429197431642
 30
0.0
 42
-0.1849988564296123
  0
VERTEX
  5
159
  8
DEFAULT
 62
     5
 10
-197.238342939473
 20
201.1172764620724
 30
0.0
 42
-0.1811789010422688
  0
VERTEX
  5
15A
  8
DEFAULT
 62
     5
 10
-198.2765368364294
 20
197.6780398652865
 30
0.0
 42
-0.2291506328685055
  0
VERTEX
  5
15B
  8
DEFAULT
 62
     5
 10
-200.7985270650039
 20
196.4714423163375
 30
0.0
 42
-0.1258590372260993
  0
VERTEX
  5
15C
  8
DEFAULT
 62
     5
 10
-202.23776366179
 20
196.8539656499251
 30
0.0
 42
-0.1164914631293649
  0
VERTEX
  5
15D
  8
DEFAULT
 62
     5
 10
-203.4605651616952
 20
197.9575534980922
 30
0.0
  0
VERTEX
  5
15E
  8
DEFAULT
 62
     5
 10
-203.4605651616952
 20
196.6936645385597
 30
0.0
  0
SEQEND
  5
15F
  8
DEFAULT
 62
     5
  0
POLYLINE
  5
160
  8
DEFAULT
 62
     5
 66
     1
 10
0.0
 20
0.0
 30
0.0
 70
     1
  0
VERTEX
  5
161
  8
DEFAULT
 62
     5
 10
-203.3124170135471
 20
201.1878782609415
 30
0.0
 42
0.1375284068188402
  0
VERTEX
  5
162
  8
DEFAULT
 62
     5
 10
-202.894592215376
 20
199.1739891601218
 30
0.0
 42
0.2740108968145355
  0
VERTEX
  5
163
  8
DEFAULT
 62
     5
 10
-201.3355643846155
 20
198.2492200941151
 30
0.0
 42
0.2391215062966501
  0
VERTEX
  5
164
  8
DEFAULT
 62
     5
 10
-200.0612591646171
 20
198.905470500316
 30
0.0
 42
0.1664742695867842
  0
VERTEX
  5
165
  8
DEFAULT
 62
     5
 10
-199.5346392357693
 20
200.9737580141975
 30
0.0
 42
0.1640109831052252
  0
VERTEX
  5
166
  8
DEFAULT
 62
     5
 10
-200.0653101523562
 20
203.1404238331407
 30
0.0
 42
0.2405029912267882
  0
VERTEX
  5
167
  8
DEFAULT
 62
     5
 10
-201.4235275595092
 20
203.8047756496708
 30
0.0
 42
0.2344888738737477
  0
VERTEX
  5
168
  8
DEFAULT
 62
     5
 10
-202.7736435563332
 20
203.1566277840971
 30
0.0
 42
0.1733692477042237
  0
SEQEND
  5
169
  8
DEFAULT
 62
     5
  0
POLYLINE
  5
16A
  8
DEFAULT
 62
     5
 66
     1
 10
0.0
 20
0.0
 30
0.0
 70
     1
  0
VERTEX
  5
16B
  8
DEFAULT
 62
     5
 10
-195.4605651616953
 20
196.6936645385597
 30
0.0
  0
VERTEX
  5
16C
  8
DEFAULT
 62
     5
 10
-195.4605651616953
 20
208.6195904644856
 30
0.0
  0
VERTEX
  5
16D
  8
DEFAULT
 62
     5
 10
-193.164268865399
 20
208.6195904644856
 30
0.0
  0
VERTEX
  5
16E
  8
DEFAULT
 62
     5
 10
-193.164268865399
 20
196.6936645385597
 30
0.0
  0
SEQEND
  5
16F
  8
DEFAULT
 62
     5
  0
POLYLINE
  5
170
  8
DEFAULT
 62
     5
 66
     1
 10
0.0
 20
0.0
 30
0.0
 70
     1
  0
VERTEX
  5
171
  8
DEFAULT
 62
     5
 10
-185.8309355320656
 20
199.4344052793004
 30
0.0
  0
VERTEX
  5
172
  8
DEFAULT
 62
     5
 10
-183.5346392357693
 20
199.1381089830041
 30
0.0
 42
-0.1601948643917223
  0
VERTEX
  5
173
  8
DEFAULT
 62
     5
 10
-184.9304723924936
 20
197.1531555088922
 30
0.0
 42
-0.1590209405814454
  0
VERTEX
  5
174
  8
DEFAULT
 62
     5
 10
-187.3182030085907
 20
196.4714423163375
 30
0.0
 42
-0.2510606897924196
  0
VERTEX
  5
175
  8
DEFAULT
 62
     5
 10
-190.6746848432903
 20
197.9575534980922
 30
0.0
 42
-0.1603231689598167
  0
VERTEX
  5
176
  8
DEFAULT
 62
     5
 10
-191.5346392357693
 20
200.9610263384461
 30
0.0
 42
-0.1928988919450685
  0
VERTEX
  5
177
  8
DEFAULT
 62
     5
 10
-190.4009583358261
 20
204.355702070102
 30
0.0
 42
-0.2186957110499334
  0
VERTEX
  5
178
  8
DEFAULT
 62
     5
 10
-187.5346392357693
 20
205.5825534274485
 30
0.0
 42
-0.2248762650829989
  0
VERTEX
  5
179
  8
DEFAULT
 62
     5
 10
-184.4628794466829
 20
204.3065120698477
 30
0.0
 42
-0.1866850592647361
  0
VERTEX
  5
17A
  8
DEFAULT
 62
     5
 10
-183.3864910876212
 20
200.3973682422634
 30
0.0
  0
VERTEX
  5
17B
  8
DEFAULT
 62
     5
 10
-189.238342939473
 20
200.3973682422634
 30
0.0
 42
0.1907233177561279
  0
VERTEX
  5
17C
  8
DEFAULT
 62
     5
 10
-188.6717912806196
 20
198.8146137627514
 30
0.0
 42
0.2135192120775362
  0
VERTEX
  5
17D
  8
DEFAULT
 62
     5
 10
-187.3216752837957
 20
198.2492200941152
 30
0.0
 42
0.1657236937101317
  0
VERTEX
  5
17E
  8
DEFAULT
 62
     5
 10
-186.3974860606212
 20
198.5298917171383
 30
0.0
 42
0.1589948514629795
  0
SEQEND
  5
17F
  8
DEFAULT
 62
     5
  0
POLYLINE
  5
180
  8
DEFAULT
 62
     5
 66
     1
 10
0.0
 20
0.0
 30
0.0
 70
     1
  0
VERTEX
  5
181
  8
DEFAULT
 62
     5
 10
-185.6827873839175
 20
201.8047756496707
 30
0.0
 42
0.1931771868552328
  0
VERTEX
  5
182
  8
DEFAULT
 62
     5
 10
-186.2099860252993
 20
203.2949378191646
 30
0.0
 42
0.2094545272841073
  0
VERTEX
  5
183
  8
DEFAULT
 62
     5
 10
-187.4316295349875
 20
203.8047756496707
 30
0.0
 42
0.2175151257022528
  0
VERTEX
  5
184
  8
DEFAULT
 62
     5
 10
-188.7036204699982
 20
203.2665820352888
 30
0.0
 42
0.1974850402976561
  0
VERTEX
  5
185
  8
DEFAULT
 62
     5
 10
-189.1978330620821
 20
201.8047756496707
 30
0.0
  0
SEQEND
  5
186
  8
DEFAULT
 62
     5
  0
POLYLINE
  5
187
  8
DEFAULT
 62
     5
 66
     1
 10
0.0
 20
0.0
 30
0.0
 70
     1
  0
VERTEX
  5
188
  8
DEFAULT
 62
     5
 10
-171.9790836802138
 20
199.4344052793004
 30
0.0
  0
VERTEX
  5
189
  8
DEFAULT
 62
     5
 10
-169.6827873839175
 20
199.1381089830041
 30
0.0
 42
-0.160194864391726
  0
VERTEX
  5
18A
  8
DEFAULT
 62
     5
 10
-171.0786205406417
 20
197.1531555088922
 30
0.0
 42
-0.1590209405814434
  0
VERTEX
  5
18B
  8
DEFAULT
 62
     5
 10
-173.4663511567389
 20
196.4714423163374
 30
0.0
 42
-0.2510606897924156
  0
VERTEX
  5
18C
  8
DEFAULT
 62
     5
 10
-176.8228329914384
 20
197.9575534980922
 30
0.0
 42
-0.1603231689598203
  0
VERTEX
  5
18D
  8
DEFAULT
 62
     5
 10
-177.6827873839175
 20
200.9610263384461
 30
0.0
 42
-0.1928988919450707
  0
VERTEX
  5
18E
  8
DEFAULT
 62
     5
 10
-176.5491064839742
 20
204.355702070102
 30
0.0
 42
-0.2186957110499411
  0
VERTEX
  5
18F
  8
DEFAULT
 62
     5
 10
-173.6827873839174
 20
205.5825534274485
 30
0.0
 42
-0.2248762650829932
  0
VERTEX
  5
190
  8
DEFAULT
 62
     5
 10
-170.611027594831
 20
204.3065120698477
 30
0.0
 42
-0.1866850592647397
  0
VERTEX
  5
191
  8
DEFAULT
 62
     5
 10
-169.5346392357693
 20
200.3973682422634
 30
0.0
  0
VERTEX
  5
192
  8
DEFAULT
 62
     5
 10
-175.3864910876212
 20
200.3973682422634
 30
0.0
 42
0.1907233177561254
  0
VERTEX
  5
193
  8
DEFAULT
 62
     5
 10
-174.8199394287678
 20
198.8146137627514
 30
0.0
 42
0.2135192120775286
  0
VERTEX
  5
194
  8
DEFAULT
 62
     5
 10
-173.4698234319438
 20
198.2492200941152
 30
0.0
 42
0.1657236937101344
  0
VERTEX
  5
195
  8
DEFAULT
 62
     5
 10
-172.5456342087693
 20
198.5298917171382
 30
0.0
 42
0.1589948514629786
  0
SEQEND
  5
196
  8
DEFAULT
 62
     5
  0
POLYLINE
  5
197
  8
DEFAULT
 62
     5
 66
     1
 10
0.0
 20
0.0
 30
0.0
 70
     1
  0
VERTEX
  5
198
  8
DEFAULT
 62
     5
 10
-171.8309355320656
 20
201.8047756496707
 30
0.0
 42
0.1931771868552432
  0
VERTEX
  5
199
  8
DEFAULT
 62
     5
 10
-172.3581341734475
 20
203.2949378191645
 30
0.0
 42
0.2094545272841255
  0
VERTEX
  5
19A
  8
DEFAULT
 62
     5
 10
-173.5797776831356
 20
203.8047756496707
 30
0.0
 42
0.2175151257022456
  0
VERTEX
  5
19B
  8
DEFAULT
 62
     5
 10
-174.8517686181463
 20
203.2665820352888
 30
0.0
 42
0.1974850402976635
  0
VERTEX
  5
19C
  8
DEFAULT
 62
     5
 10
-175.3459812102303
 20
201.8047756496708
 30
0.0
  0
SEQEND
  5
19D
  8
DEFAULT
 62
     5
  0
POLYLINE
  5
19E
  8
DEFAULT
 62
     5
 66
     1
 10
0.0
 20
0.0
 30
0.0
 70
     1
  0
VERTEX
  5
19F
  8
DEFAULT
 62
     5
 10
-168.7568608928426
 20
196.6936645385597
 30
0.0
  0
VERTEX
  5
1A0
  8
DEFAULT
 62
     5
 10
-165.6839436786879
 20
201.1577852091654
 30
0.0
  0
VERTEX
  5
1A1
  8
DEFAULT
 62
     5
 10
-168.6087127446945
 20
205.3603312052263
 30
0.0
  0
VERTEX
  5
1A2
  8
DEFAULT
 62
     5
 10
-165.8448235025875
 20
205.3603312052263
 30
0.0
  0
VERTEX
  5
1A3
  8
DEFAULT
 62
     5
 10
-164.3691291464476
 20
202.9772302894025
 30
0.0
  0
VERTEX
  5
1A4
  8
DEFAULT
 62
     5
 10
-162.8066290404821
 20
205.3603312052263
 30
0.0
  0
VERTEX
  5
1A5
  8
DEFAULT
 62
     5
 10
-160.16426830025
 20
205.3603312052263
 30
0.0
  0
VERTEX
  5
1A6
  8
DEFAULT
 62
     5
 10
-163.0207492872261
 20
201.2550077846057
 30
0.0
  0
VERTEX
  5
1A7
  8
DEFAULT
 62
     5
 10
-159.8679720039537
 20
196.6936645385597
 30
0.0
  0
VERTEX
  5
1A8
  8
DEFAULT
 62
     5
 10
-162.6318612460607
 20
196.6936645385597
 30
0.0
  0
VERTEX
  5
1A9
  8
DEFAULT
 62
     5
 10
-164.3691291464476
 20
199.3788500063193
 30
0.0
  0
VERTEX
  5
1AA
  8
DEFAULT
 62
     5
 10
-166.1145001526105
 20
196.6936645385597
 30
0.0
  0
SEQEND
  5
1AB
  8
DEFAULT
 62
     5
  0
POLYLINE
  5
1AC
  8
DEFAULT
 62
     5
 66
     1
 10
0.0
 20
0.0
 30
0.0
 70
     1
  0
VERTEX
  5
1AD
  8
DEFAULT
 62
     5
 10
-154.4976021987323
 20
205.3603312052263
 30
0.0
  0
VERTEX
  5
1AE
  8
DEFAULT
 62
     5
 10
-154.4976021987323
 20
203.5825534274486
 30
0.0
  0
VERTEX
  5
1AF
  8
DEFAULT
 62
     5
 10
-156.0531577542878
 20
203.5825534274486
 30
0.0
  0
VERTEX
  5
1B0
  8
DEFAULT
 62
     5
 10
-156.0531577542878
 20
200.0038505008247
 30
0.0
  0
VERTEX
  5
1B1
  8
DEFAULT
 62
     5
 10
-156.0091761668409
 20
198.7370674134724
 30
0.0
 42
0.1777629698042272
  0
VERTEX
  5
1B2
  8
DEFAULT
 62
     5
 10
-155.8106805933702
 20
198.440192404642
 30
0.0
 42
0.1671411134724761
  0
VERTEX
  5
1B3
  8
DEFAULT
 62
     5
 10
-155.4327869600558
 20
198.3232941681893
 30
0.0
 42
0.0818670423875074
  0
VERTEX
  5
1B4
  8
DEFAULT
 62
     5
 10
-154.5346386706204
 20
198.5420452455045
 30
0.0
  0
VERTEX
  5
1B5
  8
DEFAULT
 62
     5
 10
-154.3494540505841
 20
196.8047762148197
 30
0.0
 42
-0.100913569495111
  0
VERTEX
  5
1B6
  8
DEFAULT
 62
     5
 10
-156.1364900986105
 20
196.4714423163374
 30
0.0
 42
-0.1023112505793998
  0
VERTEX
  5
1B7
  8
DEFAULT
 62
     5
 10
-157.2389210868582
 20
196.6820908530255
 30
0.0
 42
-0.142732760251381
  0
VERTEX
  5
1B8
  8
DEFAULT
 62
     5
 10
-157.9594074540524
 20
197.226651435581
 30
0.0
 42
-0.1112474266808217
  0
VERTEX
  5
1B9
  8
DEFAULT
 62
     5
 10
-158.2765362712805
 20
198.1300075726749
 30
0.0
 42
-0.035794437771934
  0
VERTEX
  5
1BA
  8
DEFAULT
 62
     5
 10
-158.3494540505841
 20
199.7631094775095
 30
0.0
  0
VERTEX
  5
1BB
  8
DEFAULT
 62
     5
 10
-158.3494540505841
 20
203.5825534274486
 30
0.0
  0
VERTEX
  5
1BC
  8
DEFAULT
 62
     5
 10
-159.4605651616953
 20
203.5825534274486
 30
0.0
  0
VERTEX
  5
1BD
  8
DEFAULT
 62
     5
 10
-159.4605651616953
 20
205.3603312052263
 30
0.0
  0
VERTEX
  5
1BE
  8
DEFAULT
 62
     5
 10
-158.3494540505841
 20
205.3603312052263
 30
0.0
  0
VERTEX
  5
1BF
  8
DEFAULT
 62
     5
 10
-158.3494540505841
 20
206.989960834856
 30
0.0
  0
VERTEX
  5
1C0
  8
DEFAULT
 62
     5
 10
-156.0531577542878
 20
208.3232941681893
 30
0.0
  0
VERTEX
  5
1C1
  8
DEFAULT
 62
     5
 10
-156.0531577542878
 20
205.3603312052263
 30
0.0
  0
SEQEND
  5
1C2
  8
DEFAULT
 62
     5
  0
POLYLINE
  5
1C3
  8
DEFAULT
 62
     5
 66
     1
 10
0.0
 20
0.0
 30
0.0
 70
     1
  0
VERTEX
  5
1C4
  8
DEFAULT
 62
     5
 10
-147.9050096061397
 20
199.4344052793004
 30
0.0
  0
VERTEX
  5
1C5
  8
DEFAULT
 62
     5
 10
-145.6087133098434
 20
199.1381089830041
 30
0.0
 42
-0.1601948643917424
  0
VERTEX
  5
1C6
  8
DEFAULT
 62
     5
 10
-147.0045464665677
 20
197.1531555088922
 30
0.0
 42
-0.159020940581457
  0
VERTEX
  5
1C7
  8
DEFAULT
 62
     5
 10
-149.3922770826648
 20
196.4714423163375
 30
0.0
 42
-0.2510606897924137
  0
VERTEX
  5
1C8
  8
DEFAULT
 62
     5
 10
-152.7487589173644
 20
197.9575534980922
 30
0.0
 42
-0.1603231689598304
  0
VERTEX
  5
1C9
  8
DEFAULT
 62
     5
 10
-153.6087133098434
 20
200.9610263384461
 30
0.0
 42
-0.1928988919450725
  0
VERTEX
  5
1CA
  8
DEFAULT
 62
     5
 10
-152.4750324099002
 20
204.355702070102
 30
0.0
 42
-0.2186957110499378
  0
VERTEX
  5
1CB
  8
DEFAULT
 62
     5
 10
-149.6087133098434
 20
205.5825534274486
 30
0.0
 42
-0.2248762650829939
  0
VERTEX
  5
1CC
  8
DEFAULT
 62
     5
 10
-146.536953520757
 20
204.3065120698478
 30
0.0
 42
-0.186685059264751
  0
VERTEX
  5
1CD
  8
DEFAULT
 62
     5
 10
-145.4605651616953
 20
200.3973682422634
 30
0.0
  0
VERTEX
  5
1CE
  8
DEFAULT
 62
     5
 10
-151.3124170135471
 20
200.3973682422634
 30
0.0
 42
0.1907233177561179
  0
VERTEX
  5
1CF
  8
DEFAULT
 62
     5
 10
-150.7458653546935
 20
198.8146137627514
 30
0.0
 42
0.213519212077539
  0
VERTEX
  5
1D0
  8
DEFAULT
 62
     5
 10
-149.3957493578698
 20
198.2492200941152
 30
0.0
 42
0.1657236937101119
  0
VERTEX
  5
1D1
  8
DEFAULT
 62
     5
 10
-148.4715601346953
 20
198.5298917171383
 30
0.0
 42
0.1589948514629795
  0
SEQEND
  5
1D2
  8
DEFAULT
 62
     5
  0
POLYLINE
  5
1D3
  8
DEFAULT
 62
     5
 66
     1
 10
0.0
 20
0.0
 30
0.0
 70
     1
  0
VERTEX
  5
1D4
  8
DEFAULT
 62
     5
 10
-147.7568614579915
 20
201.8047756496707
 30
0.0
 42
0.1931771868552351
  0
VERTEX
  5
1D5
  8
DEFAULT
 62
     5
 10
-148.2840600993735
 20
203.2949378191646
 30
0.0
 42
0.2094545272841063
  0
VERTEX
  5
1D6
  8
DEFAULT
 62
     5
 10
-149.5057036090615
 20
203.8047756496707
 30
0.0
 42
0.217515125702261
  0
VERTEX
  5
1D7
  8
DEFAULT
 62
     5
 10
-150.7776945440722
 20
203.2665820352888
 30
0.0
 42
0.1974850402976648
  0
VERTEX
  5
1D8
  8
DEFAULT
 62
     5
 10
-151.2719071361562
 20
201.8047756496707
 30
0.0
  0
SEQEND
  5
1D9
  8
DEFAULT
 62
     5
  0
POLYLINE
  5
1DA
  8
DEFAULT
 62
     5
 66
     1
 10
0.0
 20
0.0
 30
0.0
 70
     1
  0
VERTEX
  5
1DB
  8
DEFAULT
 62
     5
 10
-135.8309355320656
 20
196.6936645385597
 30
0.0
  0
VERTEX
  5
1DC
  8
DEFAULT
 62
     5
 10
-138.1272318283619
 20
196.6936645385597
 30
0.0
  0
VERTEX
  5
1DD
  8
DEFAULT
 62
     5
 10
-138.1272318283619
 20
201.1184338871407
 30
0.0
 42
0.0659043403442131
  0
VERTEX
  5
1DE
  8
DEFAULT
 62
     5
 10
-138.2719077013052
 20
202.9355635520921
 30
0.0
 42
0.1600130695765699
  0
VERTEX
  5
1DF
  8
DEFAULT
 62
     5
 10
-138.7418149321035
 20
203.5761881547218
 30
0.0
 42
0.1575149176297776
  0
VERTEX
  5
1E0
  8
DEFAULT
 62
     5
 10
-139.5242224101545
 20
203.8047756496707
 30
0.0
 42
0.1576987046344927
  0
VERTEX
  5
1E1
  8
DEFAULT
 62
     5
 10
-140.5757266953965
 20
203.4783868667473
 30
0.0
 42
0.1684371822617149
  0
VERTEX
  5
1E2
  8
DEFAULT
 62
     5
 10
-141.2140370130384
 20
202.6132251917588
 30
0.0
 42
0.0659809918576548
  0
VERTEX
  5
1E3
  8
DEFAULT
 62
     5
 10
-141.3864910876212
 20
200.6207478895539
 30
0.0
  0
VERTEX
  5
1E4
  8
DEFAULT
 62
     5
 10
-141.3864910876212
 20
196.6936645385597
 30
0.0
  0
VERTEX
  5
1E5
  8
DEFAULT
 62
     5
 10
-143.6827873839175
 20
196.6936645385597
 30
0.0
  0
VERTEX
  5
1E6
  8
DEFAULT
 62
     5
 10
-143.6827873839175
 20
205.3603312052263
 30
0.0
  0
VERTEX
  5
1E7
  8
DEFAULT
 62
     5
 10
-141.5346392357693
 20
205.3603312052263
 30
0.0
  0
VERTEX
  5
1E8
  8
DEFAULT
 62
     5
 10
-141.5346392357693
 20
204.0964433759918
 30
0.0
 42
-0.2486296121988587
  0
VERTEX
  5
1E9
  8
DEFAULT
 62
     5
 10
-138.710565020408
 20
205.5825534274486
 30
0.0
 42
-0.1053164015607993
  0
VERTEX
  5
1EA
  8
DEFAULT
 62
     5
 10
-137.3396159375035
 20
205.3082482074502
 30
0.0
 42
-0.1292191717088239
  0
VERTEX
  5
1EB
  8
DEFAULT
 62
     5
 10
-136.3998009107578
 20
204.6085954914856
 30
0.0
 42
-0.1054932374261888
  0
VERTEX
  5
1EC
  8
DEFAULT
 62
     5
 10
-135.9559351788476
 20
203.6427389658518
 30
0.0
 42
-0.053364138517731
  0
VERTEX
  5
1ED
  8
DEFAULT
 62
     5
 10
-135.8309355320656
 20
202.0952859509234
 30
0.0
  0
SEQEND
  5
1EE
  8
DEFAULT
 62
     5
  0
POLYLINE
  5
1EF
  8
DEFAULT
 62
     5
 66
     1
 10
0.0
 20
0.0
 30
0.0
 70
     1
  0
VERTEX
  5
1F0
  8
DEFAULT
 62
     5
 10
-134.3494540505841
 20
199.1381089830041
 30
0.0
  0
VERTEX
  5
1F1
  8
DEFAULT
 62
     5
 10
-132.0531577542878
 20
199.4344052793004
 30
0.0
 42
0.1817134537413431
  0
VERTEX
  5
1F2
  8
DEFAULT
 62
     5
 10
-131.4588284589438
 20
198.440192404642
 30
0.0
 42
0.163749031883296
  0
VERTEX
  5
1F3
  8
DEFAULT
 62
     5
 10
-130.2070918974796
 20
198.101071945967
 30
0.0
 42
0.1581548590316167
  0
VERTEX
  5
1F4
  8
DEFAULT
 62
     5
 10
-128.872601139078
 20
198.433248419381
 30
0.0
 42
0.2454173628753093
  0
VERTEX
  5
1F5
  8
DEFAULT
 62
     5
 10
-128.5716762728064
 20
199.0559340637498
 30
0.0
 42
0.1967133408659834
  0
VERTEX
  5
1F6
  8
DEFAULT
 62
     5
 10
-128.7348698165447
 20
199.4957488079209
 30
0.0
 42
0.1152480441763009
  0
VERTEX
  5
1F7
  8
DEFAULT
 62
     5
 10
-129.5033887589249
 20
199.802461929832
 30
0.0
 42
-0.0750101977649399
  0
VERTEX
  5
1F8
  8
DEFAULT
 62
     5
 10
-133.0242215624311
 20
200.9355629869432
 30
0.0
 42
-0.2630575377237481
  0
VERTEX
  5
1F9
  8
DEFAULT
 62
     5
 10
-134.0531577542878
 20
202.9008413651917
 30
0.0
 42
-0.2278055359034146
  0
VERTEX
  5
1FA
  8
DEFAULT
 62
     5
 10
-133.1636901528648
 20
204.8094053499441
 30
0.0
 42
-0.1789409577799244
  0
VERTEX
  5
1FB
  8
DEFAULT
 62
     5
 10
-130.4061667486336
 20
205.5825534274486
 30
0.0
 42
-0.1478680227512898
  0
VERTEX
  5
1FC
  8
DEFAULT
 62
     5
 10
-127.7626480181842
 20
204.9835955621292
 30
0.0
 42
-0.1798681362132385
  0
VERTEX
  5
1FD
  8
DEFAULT
 62
     5
 10
-126.5716762728064
 20
203.2121830570782
 30
0.0
  0
VERTEX
  5
1FE
  8
DEFAULT
 62
     5
 10
-128.7198244209546
 20
202.8418126867078
 30
0.0
 42
0.1762609448244189
  0
VERTEX
  5
1FF
  8
DEFAULT
 62
     5
 10
-129.2452869247339
 20
203.6664656146033
 30
0.0
 42
0.1598214678236605
  0
VERTEX
  5
200
  8
DEFAULT
 62
     5
 10
-130.3494540505841
 20
203.9529237978189
 30
0.0
 42
0.1371855487857461
  0
VERTEX
  5
201
  8
DEFAULT
 62
     5
 10
-131.6445923566632
 20
203.6959799538452
 30
0.0
 42
0.2593740206709848
  0
VERTEX
  5
202
  8
DEFAULT
 62
     5
 10
-131.9050096061397
 20
203.222599882693
 30
0.0
 42
0.2456185528239763
  0
VERTEX
  5
203
  8
DEFAULT
 62
     5
 10
-131.6770002585759
 20
202.7989890894782
 30
0.0
 42
0.0664798749578823
  0
VERTEX
  5
204
  8
DEFAULT
 62
     5
 10
-129.5415832210302
 20
202.1433179609604
 30
0.0
 42
-0.109521419337762
  0
VERTEX
  5
205
  8
DEFAULT
 62
     5
 10
-126.9918147908162
 20
201.1126467617992
 30
0.0
 42
-0.2284114958797645
  0
VERTEX
  5
206
  8
DEFAULT
 62
     5
 10
-126.2753799765101
 20
199.396211382344
 30
0.0
 42
-0.227622981065082
  0
VERTEX
  5
207
  8
DEFAULT
 62
     5
 10
-127.2684354261002
 20
197.3337109938041
 30
0.0
 42
-0.1809722242825291
  0
VERTEX
  5
208
  8
DEFAULT
 62
     5
 10
-130.2070918974796
 20
196.4714423163374
 30
0.0
 42
-0.1534212868271971
  0
VERTEX
  5
209
  8
DEFAULT
 62
     5
 10
-133.0028103289652
 20
197.1890351208609
 30
0.0
 42
-0.185354262016603
  0
SEQEND
  5
20A
  8
DEFAULT
 62
     5
  0
POLYLINE
  5
20B
  8
DEFAULT
 62
     5
 66
     1
 10
0.0
 20
0.0
 30
0.0
 70
     1
  0
VERTEX
  5
20C
  8
DEFAULT
 62
     5
 10
-124.2753799765101
 20
206.6195904644856
 30
0.0
  0
VERTEX
  5
20D
  8
DEFAULT
 62
     5
 10
-124.2753799765101
 20
208.6195904644856
 30
0.0
  0
VERTEX
  5
20E
  8
DEFAULT
 62
     5
 10
-121.9790836802138
 20
208.6195904644856
 30
0.0
  0
VERTEX
  5
20F
  8
DEFAULT
 62
     5
 10
-121.9790836802138
 20
206.6195904644856
 30
0.0
  0
SEQEND
  5
210
  8
DEFAULT
 62
     5
  0
POLYLINE
  5
211
  8
DEFAULT
 62
     5
 66
     1
 10
0.0
 20
0.0
 30
0.0
 70
     1
  0
VERTEX
  5
212
  8
DEFAULT
 62
     5
 10
-124.2753799765101
 20
196.6936645385597
 30
0.0
  0
VERTEX
  5
213
  8
DEFAULT
 62
     5
 10
-124.2753799765101
 20
205.3603312052263
 30
0.0
  0
VERTEX
  5
214
  8
DEFAULT
 62
     5
 10
-121.9790836802138
 20
205.3603312052263
 30
0.0
  0
VERTEX
  5
215
  8
DEFAULT
 62
     5
 10
-121.9790836802138
 20
196.6936645385597
 30
0.0
  0
SEQEND
  5
216
  8
DEFAULT
 62
     5
  0
POLYLINE
  5
217
  8
DEFAULT
 62
     5
 66
     1
 10
0.0
 20
0.0
 30
0.0
 70
     1
  0
VERTEX
  5
218
  8
DEFAULT
 62
     5
 10
-120.201305902436
 20
201.1496832336872
 30
0.0
 42
-0.1222574291832666
  0
VERTEX
  5
219
  8
DEFAULT
 62
     5
 10
-119.6416993591413
 20
203.374220871195
 30
0.0
 42
-0.150919920783589
  0
VERTEX
  5
21A
  8
DEFAULT
 62
     5
 10
-118.0560507518097
 20
205.016002898893
 30
0.0
 42
-0.128724606714412
  0
VERTEX
  5
21B
  8
DEFAULT
 62
     5
 10
-115.7649623031718
 20
205.5825534274486
 30
0.0
 42
-0.2109274079128417
  0
VERTEX
  5
21C
  8
DEFAULT
 62
     5
 10
-112.5612594471916
 20
204.2978313818354
 30
0.0
 42
-0.2026212639801703
  0
VERTEX
  5
21D
  8
DEFAULT
 62
     5
 10
-111.3124170135471
 20
201.0513043634765
 30
0.0
 42
-0.2022295973323141
  0
VERTEX
  5
21E
  8
DEFAULT
 62
     5
 10
-112.5734118452599
 20
197.772368312907
 30
0.0
 42
-0.2115506096600897
  0
VERTEX
  5
21F
  8
DEFAULT
 62
     5
 10
-115.7487594825134
 20
196.4714423163374
 30
0.0
 42
-0.1188796278362085
  0
VERTEX
  5
220
  8
DEFAULT
 62
     5
 10
-118.0074400292385
 20
197.0131093362222
 30
0.0
 42
-0.1582355798320308
  0
VERTEX
  5
221
  8
DEFAULT
 62
     5
 10
-119.6416993591413
 20
198.6016515062247
 30
0.0
 42
-0.1239053267140387
  0
SEQEND
  5
222
  8
DEFAULT
 62
     5
  0
POLYLINE
  5
223
  8
DEFAULT
 62
     5
 66
     1
 10
0.0
 20
0.0
 30
0.0
 70
     1
  0
VERTEX
  5
224
  8
DEFAULT
 62
     5
 10
-117.9050096061397
 20
201.026998437042
 30
0.0
 42
0.1807696907208325
  0
VERTEX
  5
225
  8
DEFAULT
 62
     5
 10
-117.3054724631372
 20
199.0200538866321
 30
0.0
 42
0.2292871242715349
  0
VERTEX
  5
226
  8
DEFAULT
 62
     5
 10
-115.8274632568607
 20
198.3232941681893
 30
0.0
 42
0.230319346166072
  0
VERTEX
  5
227
  8
DEFAULT
 62
     5
 10
-114.352347048106
 20
199.0200538866321
 30
0.0
 42
0.1794408075869728
  0
VERTEX
  5
228
  8
DEFAULT
 62
     5
 10
-113.7568614579916
 20
201.0432023879983
 30
0.0
 42
0.1800932450793787
  0
VERTEX
  5
229
  8
DEFAULT
 62
     5
 10
-114.352347048106
 20
203.0339424223029
 30
0.0
 42
0.2303192267206049
  0
VERTEX
  5
22A
  8
DEFAULT
 62
     5
 10
-115.8274632568607
 20
203.7307015755967
 30
0.0
 42
0.2292870050707475
  0
VERTEX
  5
22B
  8
DEFAULT
 62
     5
 10
-117.3054724631372
 20
203.0339424223029
 30
0.0
 42
0.1807697890868581
  0
SEQEND
  5
22C
  8
DEFAULT
 62
     5
  0
POLYLINE
  5
22D
  8
DEFAULT
 62
     5
 66
     1
 10
0.0
 20
0.0
 30
0.0
 70
     1
  0
VERTEX
  5
22E
  8
DEFAULT
 62
     5
 10
-101.6827873839175
 20
196.6936645385597
 30
0.0
  0
VERTEX
  5
22F
  8
DEFAULT
 62
     5
 10
-103.9790836802138
 20
196.6936645385597
 30
0.0
  0
VERTEX
  5
230
  8
DEFAULT
 62
     5
 10
-103.9790836802138
 20
201.1184338871407
 30
0.0
 42
0.0659043403442195
  0
VERTEX
  5
231
  8
DEFAULT
 62
     5
 10
-104.123759553157
 20
202.9355635520921
 30
0.0
 42
0.1600130695765672
  0
VERTEX
  5
232
  8
DEFAULT
 62
     5
 10
-104.5936667839553
 20
203.5761881547218
 30
0.0
 42
0.1575149176297582
  0
VERTEX
  5
233
  8
DEFAULT
 62
     5
 10
-105.3760742620063
 20
203.8047756496708
 30
0.0
 42
0.1576987046344909
  0
VERTEX
  5
234
  8
DEFAULT
 62
     5
 10
-106.4275785472483
 20
203.4783868667473
 30
0.0
 42
0.1684371822617672
  0
VERTEX
  5
235
  8
DEFAULT
 62
     5
 10
-107.0658888648903
 20
202.6132251917588
 30
0.0
 42
0.0659809918576468
  0
VERTEX
  5
236
  8
DEFAULT
 62
     5
 10
-107.238342939473
 20
200.6207478895539
 30
0.0
  0
VERTEX
  5
237
  8
DEFAULT
 62
     5
 10
-107.238342939473
 20
196.6936645385597
 30
0.0
  0
VERTEX
  5
238
  8
DEFAULT
 62
     5
 10
-109.5346392357693
 20
196.6936645385597
 30
0.0
  0
VERTEX
  5
239
  8
DEFAULT
 62
     5
 10
-109.5346392357693
 20
205.3603312052263
 30
0.0
  0
VERTEX
  5
23A
  8
DEFAULT
 62
     5
 10
-107.3864910876212
 20
205.3603312052263
 30
0.0
  0
VERTEX
  5
23B
  8
DEFAULT
 62
     5
 10
-107.3864910876212
 20
204.0964433759918
 30
0.0
 42
-0.2486296121988564
  0
VERTEX
  5
23C
  8
DEFAULT
 62
     5
 10
-104.5624168722599
 20
205.5825534274486
 30
0.0
 42
-0.1053164015607938
  0
VERTEX
  5
23D
  8
DEFAULT
 62
     5
 10
-103.1914677893553
 20
205.3082482074502
 30
0.0
 42
-0.1292191717088242
  0
VERTEX
  5
23E
  8
DEFAULT
 62
     5
 10
-102.2516527626096
 20
204.6085954914856
 30
0.0
 42
-0.1054932374261431
  0
VERTEX
  5
23F
  8
DEFAULT
 62
     5
 10
-101.8077870306994
 20
203.6427389658518
 30
0.0
 42
-0.0533641385177209
  0
VERTEX
  5
240
  8
DEFAULT
 62
     5
 10
-101.6827873839175
 20
202.0952859509234
 30
0.0
  0
SEQEND
  5
241
  8
DEFAULT
 62
     5
  0
POLYLINE
  5
242
  8
DEFAULT
 62
     5
 66
     1
 10
0.0
 20
0.0
 30
0.0
 70
     1
  0
VERTEX
  5
243
  8
DEFAULT
 62
     5
 10
-87.31241701354713
 20
202.8418126867078
 30
0.0
  0
VERTEX
  5
244
  8
DEFAULT
 62
     5
 10
-89.60871330984342
 20
202.4714423163374
 30
0.0
 42
0.18099680981759
  0
VERTEX
  5
245
  8
DEFAULT
 62
     5
 10
-90.12144413787144
 20
203.4697067438839
 30
0.0
 42
0.180476016766991
  0
VERTEX
  5
246
  8
DEFAULT
 62
     5
 10
-91.15848174005737
 20
203.8047756496707
 30
0.0
 42
0.2329674834671309
  0
VERTEX
  5
247
  8
DEFAULT
 62
     5
 10
-92.51149073440307
 20
203.2029242216807
 30
0.0
 42
0.1695179555120368
  0
VERTEX
  5
248
  8
DEFAULT
 62
     5
 10
-93.01612071725081
 20
201.1890356860098
 30
0.0
 42
0.1610966817175209
  0
VERTEX
  5
249
  8
DEFAULT
 62
     5
 10
-92.49933777118576
 20
198.9708638863778
 30
0.0
 42
0.2405540491094409
  0
VERTEX
  5
24A
  8
DEFAULT
 62
     5
 10
-91.11218473732491
 20
198.3232941681892
 30
0.0
 42
0.1883458441869765
  0
VERTEX
  5
24B
  8
DEFAULT
 62
     5
 10
-90.04679135126321
 20
198.6901928285037
 30
0.0
 42
0.1622604489948477
  0
VERTEX
  5
24C
  8
DEFAULT
 62
     5
 10
-89.46056516169529
 20
199.9529237978189
 30
0.0
  0
VERTEX
  5
24D
  8
DEFAULT
 62
     5
 10
-87.16426886539895
 20
199.6566275015226
 30
0.0
 42
-0.1724509721436114
  0
VERTEX
  5
24E
  8
DEFAULT
 62
     5
 10
-88.50570360906153
 20
197.2758408706864
 30
0.0
 42
-0.1746967243539238
  0
VERTEX
  5
24F
  8
DEFAULT
 62
     5
 10
-91.16542516016932
 20
196.4714423163374
 30
0.0
 42
-0.2163976905724432
  0
VERTEX
  5
250
  8
DEFAULT
 62
     5
 10
-94.18625937654794
 20
197.6780398652864
 30
0.0
 42
-0.194387056632109
  0
VERTEX
  5
251
  8
DEFAULT
 62
     5
 10
-95.31241701354713
 20
201.0188964615637
 30
0.0
 42
-0.1945054615972573
  0
VERTEX
  5
252
  8
DEFAULT
 62
     5
 10
-94.18683808908213
 20
204.3800074313876
 30
0.0
 42
-0.2157801631579853
  0
VERTEX
  5
253
  8
DEFAULT
 62
     5
 10
-91.14227778910106
 20
205.5825534274486
 30
0.0
 42
-0.1599423076957896
  0
VERTEX
  5
254
  8
DEFAULT
 62
     5
 10
-88.64459235666315
 20
204.9054705003161
 30
0.0
 42
-0.1682635697126169
  0
SEQEND
  5
255
  8
DEFAULT
 62
     5
  0
POLYLINE
  5
256
  8
DEFAULT
 62
     5
 66
     1
 10
0.0
 20
0.0
 30
0.0
 70
     1
  0
VERTEX
  5
257
  8
DEFAULT
 62
     5
 10
-86.0531577542879
 20
201.1496832336872
 30
0.0
 42
-0.1222574291832619
  0
VERTEX
  5
258
  8
DEFAULT
 62
     5
 10
-85.49355121099323
 20
203.374220871195
 30
0.0
 42
-0.1509199207835896
  0
VERTEX
  5
259
  8
DEFAULT
 62
     5
 10
-83.90790260366157
 20
205.016002898893
 30
0.0
 42
-0.1287246067144081
  0
VERTEX
  5
25A
  8
DEFAULT
 62
     5
 10
-81.61681415502369
 20
205.5825534274485
 30
0.0
 42
-0.21092740791284
  0
VERTEX
  5
25B
  8
DEFAULT
 62
     5
 10
-78.41311129904342
 20
204.2978313818354
 30
0.0
 42
-0.2026212639801703
  0
VERTEX
  5
25C
  8
DEFAULT
 62
     5
 10
-77.16426886539895
 20
201.0513043634765
 30
0.0
 42
-0.2022295973323154
  0
VERTEX
  5
25D
  8
DEFAULT
 62
     5
 10
-78.42526369711175
 20
197.772368312907
 30
0.0
 42
-0.2115506096600897
  0
VERTEX
  5
25E
  8
DEFAULT
 62
     5
 10
-81.60061133436523
 20
196.4714423163374
 30
0.0
 42
-0.1188796278362085
  0
VERTEX
  5
25F
  8
DEFAULT
 62
     5
 10
-83.85929188109031
 20
197.0131093362222
 30
0.0
 42
-0.1582355798320415
  0
VERTEX
  5
260
  8
DEFAULT
 62
     5
 10
-85.49355121099326
 20
198.6016515062247
 30
0.0
 42
-0.1239053267140336
  0
SEQEND
  5
261
  8
DEFAULT
 62
     5
  0
POLYLINE
  5
262
  8
DEFAULT
 62
     5
 66
     1
 10
0.0
 20
0.0
 30
0.0
 70
     1
  0
VERTEX
  5
263
  8
DEFAULT
 62
     5
 10
-83.75686145799159
 20
201.026998437042
 30
0.0
 42
0.1807696907208334
  0
VERTEX
  5
264
  8
DEFAULT
 62
     5
 10
-83.15732431498907
 20
199.0200538866321
 30
0.0
 42
0.229287124271539
  0
VERTEX
  5
265
  8
DEFAULT
 62
     5
 10
-81.67931510871256
 20
198.3232941681893
 30
0.0
 42
0.230319346166072
  0
VERTEX
  5
266
  8
DEFAULT
 62
     5
 10
-80.2041988999578
 20
199.0200538866321
 30
0.0
 42
0.1794408075869693
  0
VERTEX
  5
267
  8
DEFAULT
 62
     5
 10
-79.60871330984345
 20
201.0432023879983
 30
0.0
 42
0.1800932450793716
  0
VERTEX
  5
268
  8
DEFAULT
 62
     5
 10
-80.20419889995783
 20
203.0339424223029
 30
0.0
 42
0.2303192267206066
  0
VERTEX
  5
269
  8
DEFAULT
 62
     5
 10
-81.67931510871256
 20
203.7307015755967
 30
0.0
 42
0.2292870050707548
  0
VERTEX
  5
26A
  8
DEFAULT
 62
     5
 10
-83.15732431498905
 20
203.0339424223029
 30
0.0
 42
0.1807697890868578
  0
SEQEND
  5
26B
  8
DEFAULT
 62
     5
  0
POLYLINE
  5
26C
  8
DEFAULT
 62
     5
 66
     1
 10
0.0
 20
0.0
 30
0.0
 70
     1
  0
VERTEX
  5
26D
  8
DEFAULT
 62
     5
 10
-73.09019479132485
 20
196.6936645385597
 30
0.0
  0
VERTEX
  5
26E
  8
DEFAULT
 62
     5
 10
-75.38649108762115
 20
196.6936645385597
 30
0.0
  0
VERTEX
  5
26F
  8
DEFAULT
 62
     5
 10
-75.38649108762115
 20
205.3603312052263
 30
0.0
  0
VERTEX
  5
270
  8
DEFAULT
 62
     5
 10
-73.238342939473
 20
205.3603312052263
 30
0.0
  0
VERTEX
  5
271
  8
DEFAULT
 62
     5
 10
-73.238342939473
 20
204.1369521230847
 30
0.0
 42
-0.0977550519461033
  0
VERTEX
  5
272
  8
DEFAULT
 62
     5
 10
-72.29737048765901
 20
205.2932016815621
 30
0.0
 42
-0.1561720185079861
  0
VERTEX
  5
273
  8
DEFAULT
 62
     5
 10
-71.34945348543522
 20
205.5825534274486
 30
0.0
 42
-0.1438170981370175
  0
VERTEX
  5
274
  8
DEFAULT
 62
     5
 10
-69.90500960613974
 20
205.1462109584823
 30
0.0
  0
VERTEX
  5
275
  8
DEFAULT
 62
     5
 10
-70.60871274469446
 20
203.1357952631654
 30
0.0
 42
0.1496770151887604
  0
VERTEX
  5
276
  8
DEFAULT
 62
     5
 10
-71.6318606809117
 20
203.5084793533745
 30
0.0
 42
0.1810970994867389
  0
VERTEX
  5
277
  8
DEFAULT
 62
     5
 10
-72.40790232108702
 20
203.2428548213885
 30
0.0
 42
0.1501348396488174
  0
VERTEX
  5
278
  8
DEFAULT
 62
     5
 10
-72.90790260366158
 20
202.2827854210963
 30
0.0
 42
0.0509111359641935
  0
VERTEX
  5
279
  8
DEFAULT
 62
     5
 10
-73.09019479132483
 20
199.3742203060461
 30
0.0
  0
SEQEND
  5
27A
  8
DEFAULT
 62
     5
  0
POLYLINE
  5
27B
  8
DEFAULT
 62
     5
 66
     1
 10
0.0
 20
0.0
 30
0.0
 70
     1
  0
VERTEX
  5
27C
  8
DEFAULT
 62
     5
 10
-61.0901947913249
 20
196.6936645385597
 30
0.0
  0
VERTEX
  5
27D
  8
DEFAULT
 62
     5
 10
-63.238342939473
 20
196.6936645385597
 30
0.0
  0
VERTEX
  5
27E
  8
DEFAULT
 62
     5
 10
-63.23834293947301
 20
197.9575534980922
 30
0.0
 42
-0.1195257890911834
  0
VERTEX
  5
27F
  8
DEFAULT
 62
     5
 10
-64.46924471940969
 20
196.8458636744469
 30
0.0
 42
-0.1234715217774016
  0
VERTEX
  5
280
  8
DEFAULT
 62
     5
 10
-65.90037990586643
 20
196.4714423163375
 30
0.0
 42
-0.2283648896821361
  0
VERTEX
  5
281
  8
DEFAULT
 62
     5
 10
-68.41426872411168
 20
197.6820908530255
 30
0.0
 42
-0.1826315182993599
  0
VERTEX
  5
282
  8
DEFAULT
 62
     5
 10
-69.46056516169526
 20
201.0594063389547
 30
0.0
 42
-0.1842914998158403
  0
VERTEX
  5
283
  8
DEFAULT
 62
     5
 10
-68.44031022299976
 20
204.4291974316419
 30
0.0
 42
-0.2252478569575164
  0
VERTEX
  5
284
  8
DEFAULT
 62
     5
 10
-65.86102745354384
 20
205.5825534274485
 30
0.0
 42
-0.2270824258515634
  0
VERTEX
  5
285
  8
DEFAULT
 62
     5
 10
-63.38649108762115
 20
204.3834802717415
 30
0.0
  0
VERTEX
  5
286
  8
DEFAULT
 62
     5
 10
-63.38649108762115
 20
208.6195904644856
 30
0.0
  0
VERTEX
  5
287
  8
DEFAULT
 62
     5
 10
-61.0901947913249
 20
208.6195904644856
 30
0.0
  0
SEQEND
  5
288
  8
DEFAULT
 62
     5
  0
POLYLINE
  5
289
  8
DEFAULT
 62
     5
 66
     1
 10
0.0
 20
0.0
 30
0.0
 70
     1
  0
VERTEX
  5
28A
  8
DEFAULT
 62
     5
 10
-67.16426886539898
 20
201.1878782609415
 30
0.0
 42
0.1276841436789439
  0
VERTEX
  5
28B
  8
DEFAULT
 62
     5
 10
-66.78695394461873
 20
199.1577852091654
 30
0.0
 42
0.2820756800878932
  0
VERTEX
  5
28C
  8
DEFAULT
 62
     5
 10
-65.25917546040478
 20
198.2492200941152
 30
0.0
 42
0.2392668132723303
  0
VERTEX
  5
28D
  8
DEFAULT
 62
     5
 10
-63.93278724263024
 20
198.9303545741358
 30
0.0
 42
0.1689742320291576
  0
VERTEX
  5
28E
  8
DEFAULT
 62
     5
 10
-63.38649108762115
 20
200.9656560387193
 30
0.0
 42
0.1638068512632672
  0
VERTEX
  5
28F
  8
DEFAULT
 62
     5
 10
-63.917162004208
 20
203.1404238331407
 30
0.0
 42
0.2405029912267417
  0
VERTEX
  5
290
  8
DEFAULT
 62
     5
 10
-65.27537941136109
 20
203.8047756496707
 30
0.0
 42
0.2351273436094171
  0
VERTEX
  5
291
  8
DEFAULT
 62
     5
 10
-66.62144442044585
 20
203.1485258086189
 30
0.0
 42
0.1734205701458924
  0
SEQEND
  5
292
  8
DEFAULT
 62
     5
  0
POLYLINE
  5
293
  8
DEFAULT
 62
     5
 66
     1
 10
0.0
 20
0.0
 30
0.0
 70
     1
  0
VERTEX
  5
294
  8
DEFAULT
 62
     5
 10
-54.71982442095452
 20
201.1496832336872
 30
0.0
 42
-0.1222574291832663
  0
VERTEX
  5
295
  8
DEFAULT
 62
     5
 10
-54.16021787765987
 20
203.374220871195
 30
0.0
 42
-0.1509199207835884
  0
VERTEX
  5
296
  8
DEFAULT
 62
     5
 10
-52.57456927032819
 20
205.016002898893
 30
0.0
 42
-0.1287246067144087
  0
VERTEX
  5
297
  8
DEFAULT
 62
     5
 10
-50.28348082169032
 20
205.5825534274486
 30
0.0
 42
-0.2109274079128416
  0
VERTEX
  5
298
  8
DEFAULT
 62
     5
 10
-47.07977796571009
 20
204.2978313818354
 30
0.0
 42
-0.2026212639801836
  0
VERTEX
  5
299
  8
DEFAULT
 62
     5
 10
-45.83093553206561
 20
201.0513043634765
 30
0.0
 42
-0.2022295973323212
  0
VERTEX
  5
29A
  8
DEFAULT
 62
     5
 10
-47.09193036377837
 20
197.772368312907
 30
0.0
 42
-0.2115506096600883
  0
VERTEX
  5
29B
  8
DEFAULT
 62
     5
 10
-50.26727800103185
 20
196.4714423163374
 30
0.0
 42
-0.1188796278362127
  0
VERTEX
  5
29C
  8
DEFAULT
 62
     5
 10
-52.525958547757
 20
197.0131093362222
 30
0.0
 42
-0.1582355798320364
  0
VERTEX
  5
29D
  8
DEFAULT
 62
     5
 10
-54.16021787765988
 20
198.6016515062247
 30
0.0
 42
-0.1239053267140385
  0
SEQEND
  5
29E
  8
DEFAULT
 62
     5
  0
POLYLINE
  5
29F
  8
DEFAULT
 62
     5
 66
     1
 10
0.0
 20
0.0
 30
0.0
 70
     1
  0
VERTEX
  5
2A0
  8
DEFAULT
 62
     5
 10
-52.42352812465822
 20
201.026998437042
 30
0.0
 42
0.1807696907208164
  0
VERTEX
  5
2A1
  8
DEFAULT
 62
     5
 10
-51.82399098165576
 20
199.0200538866321
 30
0.0
 42
0.2292871242715316
  0
VERTEX
  5
2A2
  8
DEFAULT
 62
     5
 10
-50.34598177537919
 20
198.3232941681893
 30
0.0
 42
0.2303193461660539
  0
VERTEX
  5
2A3
  8
DEFAULT
 62
     5
 10
-48.8708655666245
 20
199.0200538866321
 30
0.0
 42
0.1794408075869857
  0
VERTEX
  5
2A4
  8
DEFAULT
 62
     5
 10
-48.27537997651007
 20
201.0432023879983
 30
0.0
 42
0.1800932450793982
  0
VERTEX
  5
2A5
  8
DEFAULT
 62
     5
 10
-48.87086556662451
 20
203.0339424223029
 30
0.0
 42
0.2303192267205904
  0
VERTEX
  5
2A6
  8
DEFAULT
 62
     5
 10
-50.34598177537919
 20
203.7307015755967
 30
0.0
 42
0.2292870050707481
  0
VERTEX
  5
2A7
  8
DEFAULT
 62
     5
 10
-51.82399098165573
 20
203.0339424223029
 30
0.0
 42
0.18076978908685
  0
SEQEND
  5
2A8
  8
DEFAULT
 62
     5
  0
POLYLINE
  5
2A9
  8
DEFAULT
 62
     5
 66
     1
 10
0.0
 20
0.0
 30
0.0
 70
     1
  0
VERTEX
  5
2AA
  8
DEFAULT
 62
     5
 10
-41.75686145799159
 20
196.6936645385597
 30
0.0
  0
VERTEX
  5
2AB
  8
DEFAULT
 62
     5
 10
-44.05315775428789
 20
196.6936645385597
 30
0.0
  0
VERTEX
  5
2AC
  8
DEFAULT
 62
     5
 10
-44.05315775428789
 20
205.3603312052263
 30
0.0
  0
VERTEX
  5
2AD
  8
DEFAULT
 62
     5
 10
-41.90500960613974
 20
205.3603312052263
 30
0.0
  0
VERTEX
  5
2AE
  8
DEFAULT
 62
     5
 10
-41.90500960613973
 20
204.1369521230847
 30
0.0
 42
-0.0977550519460828
  0
VERTEX
  5
2AF
  8
DEFAULT
 62
     5
 10
-40.96403715432575
 20
205.2932016815622
 30
0.0
 42
-0.1561720185079467
  0
VERTEX
  5
2B0
  8
DEFAULT
 62
     5
 10
-40.01612015210185
 20
205.5825534274486
 30
0.0
 42
-0.1438170981370112
  0
VERTEX
  5
2B1
  8
DEFAULT
 62
     5
 10
-38.57167627280638
 20
205.1462109584823
 30
0.0
  0
VERTEX
  5
2B2
  8
DEFAULT
 62
     5
 10
-39.27537941136109
 20
203.1357952631654
 30
0.0
 42
0.149677015188744
  0
VERTEX
  5
2B3
  8
DEFAULT
 62
     5
 10
-40.29852734757844
 20
203.5084793533745
 30
0.0
 42
0.1810970994867352
  0
VERTEX
  5
2B4
  8
DEFAULT
 62
     5
 10
-41.07456898775369
 20
203.2428548213885
 30
0.0
 42
0.1501348396488029
  0
VERTEX
  5
2B5
  8
DEFAULT
 62
     5
 10
-41.57456927032819
 20
202.2827854210963
 30
0.0
 42
0.0509111359642235
  0
VERTEX
  5
2B6
  8
DEFAULT
 62
     5
 10
-41.75686145799159
 20
199.3742203060461
 30
0.0
  0
SEQEND
  5
2B7
  8
DEFAULT
 62
     5
  0
POLYLINE
  5
2B8
  8
DEFAULT
 62
     5
 66
     1
 10
0.0
 20
0.0
 30
0.0
 70
     1
  0
VERTEX
  5
2B9
  8
DEFAULT
 62
     5
 10
-37.83093553206561
 20
196.101071945967
 30
0.0
  0
VERTEX
  5
2BA
  8
DEFAULT
 62
     5
 10
-35.16426886539899
 20
195.8047756496707
 30
0.0
 42
0.1963004846498382
  0
VERTEX
  5
2BB
  8
DEFAULT
 62
     5
 10
-34.87375856414633
 20
195.1647297595753
 30
0.0
 42
0.165254478665846
  0
VERTEX
  5
2BC
  8
DEFAULT
 62
     5
 10
-33.88649080504673
 20
194.9158867607819
 30
0.0
 42
0.1335897911306742
  0
VERTEX
  5
2BD
  8
DEFAULT
 62
     5
 10
-32.59366621880639
 20
195.1809337105317
 30
0.0
 42
0.169594254885419
  0
VERTEX
  5
2BE
  8
DEFAULT
 62
     5
 10
-32.15500889970351
 20
195.7526926518946
 30
0.0
 42
0.0745029496056468
  0
VERTEX
  5
2BF
  8
DEFAULT
 62
     5
 10
-32.0531577542879
 20
196.790887114
 30
0.0
  0
VERTEX
  5
2C0
  8
DEFAULT
 62
     5
 10
-32.05315775428789
 20
198.0374146975078
 30
0.0
 42
-0.2481650325452838
  0
VERTEX
  5
2C1
  8
DEFAULT
 62
     5
 10
-34.61449987003601
 20
196.6936645385597
 30
0.0
 42
-0.2649646906886724
  0
VERTEX
  5
2C2
  8
DEFAULT
 62
     5
 10
-37.3390366598204
 20
198.1751460200412
 30
0.0
 42
-0.1513235680991053
  0
VERTEX
  5
2C3
  8
DEFAULT
 62
     5
 10
-38.12723182836193
 20
201.0894982604329
 30
0.0
 42
-0.1864728947506874
  0
VERTEX
  5
2C4
  8
DEFAULT
 62
     5
 10
-37.09424521391503
 20
204.4286187191078
 30
0.0
 42
-0.2234769942370197
  0
VERTEX
  5
2C5
  8
DEFAULT
 62
     5
 10
-34.52537927007387
 20
205.5825534274486
 30
0.0
 42
-0.2545979461410363
  0
VERTEX
  5
2C6
  8
DEFAULT
 62
     5
 10
-31.90500960613975
 20
204.1519986489728
 30
0.0
  0
VERTEX
  5
2C7
  8
DEFAULT
 62
     5
 10
-31.90500960613974
 20
205.3603312052263
 30
0.0
  0
VERTEX
  5
2C8
  8
DEFAULT
 62
     5
 10
-29.75686145799159
 20
205.3603312052263
 30
0.0
  0
VERTEX
  5
2C9
  8
DEFAULT
 62
     5
 10
-29.75686145799158
 20
197.5582486313119
 30
0.0
 42
-0.0739274830705585
  0
VERTEX
  5
2CA
  8
DEFAULT
 62
     5
 10
-30.00744002923846
 20
195.2584800598107
 30
0.0
 42
-0.1231238869311809
  0
VERTEX
  5
2CB
  8
DEFAULT
 62
     5
 10
-30.71056502040801
 20
194.0628780490107
 30
0.0
 42
-0.1133489208680011
  0
VERTEX
  5
2CC
  8
DEFAULT
 62
     5
 10
-31.91889814181047
 20
193.3834797065926
 30
0.0
 42
-0.0770474087797084
  0
VERTEX
  5
2CD
  8
DEFAULT
 62
     5
 10
-33.8297781069973
 20
193.1381089830041
 30
0.0
 42
-0.1675355138834402
  0
VERTEX
  5
2CE
  8
DEFAULT
 62
     5
 10
-36.92584212707139
 20
193.8973685248379
 30
0.0
 42
-0.2345118942080053
  0
VERTEX
  5
2CF
  8
DEFAULT
 62
     5
 10
-37.83903637724585
 20
195.8221370256955
 30
0.0
  0
SEQEND
  5
2D0
  8
DEFAULT
 62
     5
  0
POLYLINE
  5
2D1
  8
DEFAULT
 62
     5
 66
     1
 10
0.0
 20
0.0
 30
0.0
 70
     1
  0
VERTEX
  5
2D2
  8
DEFAULT
 62
     5
 10
-35.83093553206561
 20
201.1716743099851
 30
0.0
 42
0.1671831675161618
  0
VERTEX
  5
2D3
  8
DEFAULT
 62
     5
 10
-35.30662988820551
 20
199.1213268846625
 30
0.0
 42
0.2386895617245806
  0
VERTEX
  5
2D4
  8
DEFAULT
 62
     5
 10
-34.01380530196525
 20
198.4714423163374
 30
0.0
 42
0.230606702489768
  0
VERTEX
  5
2D5
  8
DEFAULT
 62
     5
 10
-32.62144442044587
 20
199.1381089830041
 30
0.0
 42
0.1781814747799648
  0
VERTEX
  5
2D6
  8
DEFAULT
 62
     5
 10
-32.05315775428789
 20
201.1138041868674
 30
0.0
 42
0.1711933697273357
  0
VERTEX
  5
2D7
  8
DEFAULT
 62
     5
 10
-32.59713905916033
 20
203.1421599707433
 30
0.0
 42
0.2363895789849187
  0
VERTEX
  5
2D8
  8
DEFAULT
 62
     5
 10
-33.97445397994056
 20
203.8047756496707
 30
0.0
 42
0.2389909455159934
  0
VERTEX
  5
2D9
  8
DEFAULT
 62
     5
 10
-35.30662988820551
 20
203.1548916464946
 30
0.0
 42
0.1688350197989271
  0
SEQEND
  5
2DA
  8
DEFAULT
 62
     5
  0
POLYLINE
  5
2DB
  8
DEFAULT
 62
     5
 66
     1
 10
0.0
 20
0.0
 30
0.0
 70
     1
  0
VERTEX
  5
2DC
  8
DEFAULT
 62
     5
 10
-25.75686145799159
 20
202.6936645385597
 30
0.0
  0
VERTEX
  5
2DD
  8
DEFAULT
 62
     5
 10
-27.8309355320656
 20
202.989960834856
 30
0.0
 42
-0.1714833175990499
  0
VERTEX
  5
2DE
  8
DEFAULT
 62
     5
 10
-26.64632849426561
 20
204.9471372376263
 30
0.0
 42
-0.1608829132837749
  0
VERTEX
  5
2DF
  8
DEFAULT
 62
     5
 10
-24.14922177436193
 20
205.5825534274486
 30
0.0
 42
-0.1088364278880785
  0
VERTEX
  5
2E0
  8
DEFAULT
 62
     5
 10
-21.90848131619567
 20
205.2185488949539
 30
0.0
 42
-0.1580303644335102
  0
VERTEX
  5
2E1
  8
DEFAULT
 62
     5
 10
-20.87202299169279
 20
204.2937803940963
 30
0.0
 42
-0.1088017057953585
  0
VERTEX
  5
2E2
  8
DEFAULT
 62
     5
 10
-20.57167627280637
 20
202.2353321235934
 30
0.0
  0
VERTEX
  5
2E3
  8
DEFAULT
 62
     5
 10
-20.57167627280638
 20
199.5501466558337
 30
0.0
 42
0.0514080219695223
  0
VERTEX
  5
2E4
  8
DEFAULT
 62
     5
 10
-20.44667606087553
 20
197.8597527752666
 30
0.0
 42
0.0692287864232541
  0
VERTEX
  5
2E5
  8
DEFAULT
 62
     5
 10
-19.97908368021377
 20
196.6936645385597
 30
0.0
  0
VERTEX
  5
2E6
  8
DEFAULT
 62
     5
 10
-22.27537997651007
 20
196.6936645385597
 30
0.0
  0
VERTEX
  5
2E7
  8
DEFAULT
 62
     5
 10
-22.49528734859564
 20
197.3649609054996
 30
0.0
  0
VERTEX
  5
2E8
  8
DEFAULT
 62
     5
 10
-22.57630484278172
 20
197.632322705386
 30
0.0
 42
-0.0933244186737958
  0
VERTEX
  5
2E9
  8
DEFAULT
 62
     5
 10
-23.82977810699731
 20
196.7619520524411
 30
0.0
 42
-0.1040133466925613
  0
VERTEX
  5
2EA
  8
DEFAULT
 62
     5
 10
-25.25454576013146
 20
196.4714423163374
 30
0.0
 42
-0.1965430357596643
  0
VERTEX
  5
2EB
  8
DEFAULT
 62
     5
 10
-27.35813417344752
 20
197.1977158088733
 30
0.0
 42
-0.2154369487651182
  0
VERTEX
  5
2EC
  8
DEFAULT
 62
     5
 10
-28.12723182836195
 20
199.0339429874518
 30
0.0
 42
-0.1373780248024078
  0
VERTEX
  5
2ED
  8
DEFAULT
 62
     5
 10
-27.78463909448209
 20
200.3441278194189
 30
0.0
 42
-0.1473783213971532
  0
VERTEX
  5
2EE
  8
DEFAULT
 62
     5
 10
-26.82456912904092
 20
201.2254934453638
 30
0.0
 42
-0.0634404934847104
  0
VERTEX
  5
2EF
  8
DEFAULT
 62
     5
 10
-25.0438977885924
 20
201.7596372023045
 30
0.0
 42
0.0472009877729065
  0
VERTEX
  5
2F0
  8
DEFAULT
 62
     5
 10
-22.86797256910268
 20
202.3232941681893
 30
0.0
  0
VERTEX
  5
2F1
  8
DEFAULT
 62
     5
 10
-22.86797256910269
 20
202.5559332160263
 30
0.0
 42
0.2070921599656374
  0
VERTEX
  5
2F2
  8
DEFAULT
 62
     5
 10
-23.17526383839895
 20
203.517738753921
 30
0.0
 42
0.1777887432707942
  0
VERTEX
  5
2F3
  8
DEFAULT
 62
     5
 10
-24.33556494976438
 20
203.8047756496707
 30
0.0
 42
0.1651091138038047
  0
VERTEX
  5
2F4
  8
DEFAULT
 62
     5
 10
-25.23429138658504
 20
203.558248066163
 30
0.0
 42
0.1491587679877817
  0
SEQEND
  5
2F5
  8
DEFAULT
 62
     5
  0
POLYLINE
  5
2F6
  8
DEFAULT
 62
     5
 66
     1
 10
0.0
 20
0.0
 30
0.0
 70
     1
  0
VERTEX
  5
2F7
  8
DEFAULT
 62
     5
 10
-22.86797256910268
 20
200.8418126867078
 30
0.0
  0
VERTEX
  5
2F8
  8
DEFAULT
 62
     5
 10
-24.20477761249197
 20
200.4911185424988
 30
0.0
 42
0.0811165779561181
  0
VERTEX
  5
2F9
  8
DEFAULT
 62
     5
 10
-25.40037905814301
 20
200.0918136757185
 30
0.0
 42
0.2517191883486155
  0
VERTEX
  5
2FA
  8
DEFAULT
 62
     5
 10
-25.83093553206562
 20
199.2839434113136
 30
0.0
 42
0.2041672574556497
  0
VERTEX
  5
2FB
  8
DEFAULT
 62
     5
 10
-25.48718537311748
 20
198.4517666553251
 30
0.0
 42
0.2097521333283267
  0
VERTEX
  5
2FC
  8
DEFAULT
 62
     5
 10
-24.61102759483106
 20
198.101071945967
 30
0.0
 42
0.1670482644845795
  0
VERTEX
  5
2FD
  8
DEFAULT
 62
     5
 10
-23.47792540742204
 20
198.5084799185234
 30
0.0
 42
0.1651612454991614
  0
VERTEX
  5
2FE
  8
DEFAULT
 62
     5
 10
-22.95361976356195
 20
199.2677394603571
 30
0.0
 42
0.0593667948163778
  0
VERTEX
  5
2FF
  8
DEFAULT
 62
     5
 10
-22.86797256910268
 20
200.3846376968098
 30
0.0
  0
SEQEND
  5
300
  8
DEFAULT
 62
     5
  0
POLYLINE
  5
301
  8
DEFAULT
 62
     5
 66
     1
 10
0.0
 20
0.0
 30
0.0
 70
     1
  0
VERTEX
  5
302
  8
DEFAULT
 62
     5
 10
-10.34945405058414
 20
196.6936645385597
 30
0.0
  0
VERTEX
  5
303
  8
DEFAULT
 62
     5
 10
-12.64575034688045
 20
196.6936645385597
 30
0.0
  0
VERTEX
  5
304
  8
DEFAULT
 62
     5
 10
-12.64575034688047
 20
201.1184338871407
 30
0.0
 42
0.0659043403441967
  0
VERTEX
  5
305
  8
DEFAULT
 62
     5
 10
-12.79042621982363
 20
202.9355635520922
 30
0.0
 42
0.1600130695765328
  0
VERTEX
  5
306
  8
DEFAULT
 62
     5
 10
-13.26033345062205
 20
203.5761881547218
 30
0.0
 42
0.1575149176297844
  0
VERTEX
  5
307
  8
DEFAULT
 62
     5
 10
-14.04274092867308
 20
203.8047756496707
 30
0.0
 42
0.1576987046344971
  0
VERTEX
  5
308
  8
DEFAULT
 62
     5
 10
-15.09424521391504
 20
203.4783868667473
 30
0.0
 42
0.1684371822617155
  0
VERTEX
  5
309
  8
DEFAULT
 62
     5
 10
-15.73255553155703
 20
202.6132251917588
 30
0.0
 42
0.0659809918576762
  0
VERTEX
  5
30A
  8
DEFAULT
 62
     5
 10
-15.90500960613974
 20
200.6207478895539
 30
0.0
  0
VERTEX
  5
30B
  8
DEFAULT
 62
     5
 10
-15.90500960613974
 20
196.6936645385597
 30
0.0
  0
VERTEX
  5
30C
  8
DEFAULT
 62
     5
 10
-18.20130590243599
 20
196.6936645385597
 30
0.0
  0
VERTEX
  5
30D
  8
DEFAULT
 62
     5
 10
-18.20130590243599
 20
205.3603312052263
 30
0.0
  0
VERTEX
  5
30E
  8
DEFAULT
 62
     5
 10
-16.05315775428789
 20
205.3603312052263
 30
0.0
  0
VERTEX
  5
30F
  8
DEFAULT
 62
     5
 10
-16.05315775428789
 20
204.0964433759918
 30
0.0
 42
-0.2486296121988454
  0
VERTEX
  5
310
  8
DEFAULT
 62
     5
 10
-13.22908353892655
 20
205.5825534274486
 30
0.0
 42
-0.1053164015608048
  0
VERTEX
  5
311
  8
DEFAULT
 62
     5
 10
-11.85813445602202
 20
205.3082482074502
 30
0.0
 42
-0.1292191717088741
  0
VERTEX
  5
312
  8
DEFAULT
 62
     5
 10
-10.91831942927639
 20
204.6085954914856
 30
0.0
 42
-0.1054932374261974
  0
VERTEX
  5
313
  8
DEFAULT
 62
     5
 10
-10.47445369736603
 20
203.6427389658518
 30
0.0
 42
-0.0533641385177043
  0
VERTEX
  5
314
  8
DEFAULT
 62
     5
 10
-10.34945405058415
 20
202.0952859509234
 30
0.0
  0
SEQEND
  5
315
  8
DEFAULT
 62
     5
  0
POLYLINE
  5
316
  8
DEFAULT
 62
     5
 66
     1
 10
0.0
 20
0.0
 30
0.0
 70
     1
  0
VERTEX
  5
317
  8
DEFAULT
 62
     5
 10
-8.053157754287895
 20
206.6195904644856
 30
0.0
  0
VERTEX
  5
318
  8
DEFAULT
 62
     5
 10
-8.053157754287895
 20
208.6195904644856
 30
0.0
  0
VERTEX
  5
319
  8
DEFAULT
 62
     5
 10
-5.75686145799159
 20
208.6195904644856
 30
0.0
  0
VERTEX
  5
31A
  8
DEFAULT
 62
     5
 10
-5.75686145799159
 20
206.6195904644856
 30
0.0
  0
SEQEND
  5
31B
  8
DEFAULT
 62
     5
  0
POLYLINE
  5
31C
  8
DEFAULT
 62
     5
 66
     1
 10
0.0
 20
0.0
 30
0.0
 70
     1
  0
VERTEX
  5
31D
  8
DEFAULT
 62
     5
 10
-8.053157754287895
 20
196.6936645385597
 30
0.0
  0
VERTEX
  5
31E
  8
DEFAULT
 62
     5
 10
-8.053157754287895
 20
205.3603312052263
 30
0.0
  0
VERTEX
  5
31F
  8
DEFAULT
 62
     5
 10
-5.75686145799159
 20
205.3603312052263
 30
0.0
  0
VERTEX
  5
320
  8
DEFAULT
 62
     5
 10
-5.75686145799159
 20
196.6936645385597
 30
0.0
  0
SEQEND
  5
321
  8
DEFAULT
 62
     5
  0
POLYLINE
  5
322
  8
DEFAULT
 62
     5
 66
     1
 10
0.0
 20
0.0
 30
0.0
 70
     1
  0
VERTEX
  5
323
  8
DEFAULT
 62
     5
 10
-4.423528124658219
 20
196.6936645385597
 30
0.0
  0
VERTEX
  5
324
  8
DEFAULT
 62
     5
 10
-4.423528124658219
 20
198.4714423163374
 30
0.0
  0
VERTEX
  5
325
  8
DEFAULT
 62
     5
 10
-1.219824138380034
 20
202.263109194935
 30
0.0
  0
VERTEX
  5
326
  8
DEFAULT
 62
     5
 10
-0.0531577542878949
 20
203.5825534274486
 30
0.0
  0
VERTEX
  5
327
  8
DEFAULT
 62
     5
 10
-1.0959807863685
 20
203.532785279809
 30
0.0
  0
VERTEX
  5
328
  8
DEFAULT
 62
     5
 10
-4.127231828361914
 20
203.5084793533745
 30
0.0
  0
VERTEX
  5
329
  8
DEFAULT
 62
     5
 10
-4.127231828361914
 20
205.3603312052263
 30
0.0
  0
VERTEX
  5
32A
  8
DEFAULT
 62
     5
 10
2.983879282749172
 20
205.3603312052263
 30
0.0
  0
VERTEX
  5
32B
  8
DEFAULT
 62
     5
 10
2.983879282749172
 20
203.7307015755967
 30
0.0
  0
VERTEX
  5
32C
  8
DEFAULT
 62
     5
 10
-0.3575548957644514
 20
199.8915813994963
 30
0.0
  0
VERTEX
  5
32D
  8
DEFAULT
 62
     5
 10
-1.534639235769305
 20
198.6195904644856
 30
0.0
  0
VERTEX
  5
32E
  8
DEFAULT
 62
     5
 10
-0.3309352494911764
 20
198.6936645385597
 30
0.0
  0
VERTEX
  5
32F
  8
DEFAULT
 62
     5
 10
3.280175579045476
 20
198.6936645385597
 30
0.0
  0
VERTEX
  5
330
  8
DEFAULT
 62
     5
 10
3.280175579045476
 20
196.6936645385597
 30
0.0
  0
SEQEND
  5
331
  8
DEFAULT
 62
     5
  0
POLYLINE
  5
332
  8
DEFAULT
 62
     5
 66
     1
 10
0.0
 20
0.0
 30
0.0
 70
     1
  0
VERTEX
  5
333
  8
DEFAULT
 62
     5
 10
9.872768171638086
 20
199.4344052793004
 30
0.0
  0
VERTEX
  5
334
  8
DEFAULT
 62
     5
 10
12.16906446793437
 20
199.1381089830041
 30
0.0
 42
-0.1601948643917273
  0
VERTEX
  5
335
  8
DEFAULT
 62
     5
 10
10.77323131121011
 20
197.1531555088922
 30
0.0
 42
-0.1590209405814373
  0
VERTEX
  5
336
  8
DEFAULT
 62
     5
 10
8.38550069511291
 20
196.4714423163374
 30
0.0
 42
-0.2510606897924164
  0
VERTEX
  5
337
  8
DEFAULT
 62
     5
 10
5.029018860413402
 20
197.9575534980922
 30
0.0
 42
-0.1603231689598283
  0
VERTEX
  5
338
  8
DEFAULT
 62
     5
 10
4.169064467934396
 20
200.9610263384461
 30
0.0
 42
-0.1928988919450717
  0
VERTEX
  5
339
  8
DEFAULT
 62
     5
 10
5.30274536787762
 20
204.355702070102
 30
0.0
 42
-0.2186957110499535
  0
VERTEX
  5
33A
  8
DEFAULT
 62
     5
 10
8.16906446793439
 20
205.5825534274486
 30
0.0
 42
-0.2248762650829856
  0
VERTEX
  5
33B
  8
DEFAULT
 62
     5
 10
11.2408242570208
 20
204.3065120698477
 30
0.0
 42
-0.1866850592647196
  0
VERTEX
  5
33C
  8
DEFAULT
 62
     5
 10
12.31721261608255
 20
200.3973682422633
 30
0.0
  0
VERTEX
  5
33D
  8
DEFAULT
 62
     5
 10
6.465360764230699
 20
200.3973682422634
 30
0.0
 42
0.1907233177561386
  0
VERTEX
  5
33E
  8
DEFAULT
 62
     5
 10
7.031912423084133
 20
198.8146137627514
 30
0.0
 42
0.2135192120775386
  0
VERTEX
  5
33F
  8
DEFAULT
 62
     5
 10
8.38202841990801
 20
198.2492200941152
 30
0.0
 42
0.165723693710151
  0
VERTEX
  5
340
  8
DEFAULT
 62
     5
 10
9.306217643082515
 20
198.5298917171383
 30
0.0
 42
0.1589948514629109
  0
SEQEND
  5
341
  8
DEFAULT
 62
     5
  0
POLYLINE
  5
342
  8
DEFAULT
 62
     5
 66
     1
 10
0.0
 20
0.0
 30
0.0
 70
     1
  0
VERTEX
  5
343
  8
DEFAULT
 62
     5
 10
10.02091631978624
 20
201.8047756496707
 30
0.0
 42
0.1931771868552447
  0
VERTEX
  5
344
  8
DEFAULT
 62
     5
 10
9.493717678404332
 20
203.2949378191645
 30
0.0
 42
0.2094545272841145
  0
VERTEX
  5
345
  8
DEFAULT
 62
     5
 10
8.272074168716244
 20
203.8047756496708
 30
0.0
 42
0.2175151257022781
  0
VERTEX
  5
346
  8
DEFAULT
 62
     5
 10
7.000083233705603
 20
203.2665820352888
 30
0.0
 42
0.1974850402976712
  0
VERTEX
  5
347
  8
DEFAULT
 62
     5
 10
6.50587064162159
 20
201.8047756496707
 30
0.0
  0
SEQEND
  5
348
  8
DEFAULT
 62
     5
  0
POLYLINE
  5
349
  8
DEFAULT
 62
     5
 66
     1
 10
0.0
 20
0.0
 30
0.0
 70
     1
  0
VERTEX
  5
34A
  8
DEFAULT
 62
     5
 10
16.39128669015656
 20
196.6936645385597
 30
0.0
  0
VERTEX
  5
34B
  8
DEFAULT
 62
     5
 10
14.09499039386026
 20
196.6936645385597
 30
0.0
  0
VERTEX
  5
34C
  8
DEFAULT
 62
     5
 10
14.09499039386026
 20
205.3603312052263
 30
0.0
  0
VERTEX
  5
34D
  8
DEFAULT
 62
     5
 10
16.24313854200841
 20
205.3603312052263
 30
0.0
  0
VERTEX
  5
34E
  8
DEFAULT
 62
     5
 10
16.2431385420084
 20
204.1369521230847
 30
0.0
 42
-0.0977550519460766
  0
VERTEX
  5
34F
  8
DEFAULT
 62
     5
 10
17.1841109938224
 20
205.2932016815621
 30
0.0
 42
-0.1561720185079823
  0
VERTEX
  5
350
  8
DEFAULT
 62
     5
 10
18.1320279960463
 20
205.5825534274486
 30
0.0
 42
-0.1438170981370182
  0
VERTEX
  5
351
  8
DEFAULT
 62
     5
 10
19.57647187534178
 20
205.1462109584823
 30
0.0
  0
VERTEX
  5
352
  8
DEFAULT
 62
     5
 10
18.87276873678706
 20
203.1357952631654
 30
0.0
 42
0.1496770151887443
  0
VERTEX
  5
353
  8
DEFAULT
 62
     5
 10
17.84962080056971
 20
203.5084793533745
 30
0.0
 42
0.1810970994867125
  0
VERTEX
  5
354
  8
DEFAULT
 62
     5
 10
17.0735791603944
 20
203.2428548213884
 30
0.0
 42
0.150134839648774
  0
VERTEX
  5
355
  8
DEFAULT
 62
     5
 10
16.57357887781995
 20
202.2827854210963
 30
0.0
 42
0.0509111359642279
  0
VERTEX
  5
356
  8
DEFAULT
 62
     5
 10
16.39128669015657
 20
199.3742203060461
 30
0.0
  0
SEQEND
  5
357
  8
DEFAULT
 62
     5
  0
POLYLINE
  5
358
  8
DEFAULT
 62
     5
 66
     1
 10
0.0
 20
0.0
 30
0.0
 70
     1
  0
VERTEX
  5
359
  8
DEFAULT
 62
     5
 10
19.72462002348993
 20
199.1381089830041
 30
0.0
  0
VERTEX
  5
35A
  8
DEFAULT
 62
     5
 10
22.02091631978623
 20
199.4344052793004
 30
0.0
 42
0.1817134537413425
  0
VERTEX
  5
35B
  8
DEFAULT
 62
     5
 10
22.61524561513022
 20
198.440192404642
 30
0.0
 42
0.1637490318832638
  0
VERTEX
  5
35C
  8
DEFAULT
 62
     5
 10
23.86698217659443
 20
198.101071945967
 30
0.0
 42
0.158154859031598
  0
VERTEX
  5
35D
  8
DEFAULT
 62
     5
 10
25.20147293499612
 20
198.433248419381
 30
0.0
 42
0.2454173628752182
  0
VERTEX
  5
35E
  8
DEFAULT
 62
     5
 10
25.50239780126767
 20
199.0559340637498
 30
0.0
 42
0.1967133408658465
  0
VERTEX
  5
35F
  8
DEFAULT
 62
     5
 10
25.33920425752944
 20
199.4957488079209
 30
0.0
 42
0.1152480441762156
  0
VERTEX
  5
360
  8
DEFAULT
 62
     5
 10
24.57068531514915
 20
199.802461929832
 30
0.0
 42
-0.0750101977649302
  0
VERTEX
  5
361
  8
DEFAULT
 62
     5
 10
21.04985251164294
 20
200.9355629869432
 30
0.0
 42
-0.2630575377237266
  0
VERTEX
  5
362
  8
DEFAULT
 62
     5
 10
20.02091631978624
 20
202.9008413651917
 30
0.0
 42
-0.2278055359033999
  0
VERTEX
  5
363
  8
DEFAULT
 62
     5
 10
20.91038392120925
 20
204.809405349944
 30
0.0
 42
-0.1789409577799327
  0
VERTEX
  5
364
  8
DEFAULT
 62
     5
 10
23.66790732544052
 20
205.5825534274486
 30
0.0
 42
-0.1478680227512917
  0
VERTEX
  5
365
  8
DEFAULT
 62
     5
 10
26.3114260558899
 20
204.9835955621292
 30
0.0
 42
-0.1798681362132137
  0
VERTEX
  5
366
  8
DEFAULT
 62
     5
 10
27.50239780126764
 20
203.2121830570782
 30
0.0
  0
VERTEX
  5
367
  8
DEFAULT
 62
     5
 10
25.35424965311947
 20
202.8418126867078
 30
0.0
 42
0.176260944824397
  0
VERTEX
  5
368
  8
DEFAULT
 62
     5
 10
24.82878714934008
 20
203.6664656146032
 30
0.0
 42
0.1598214678236775
  0
VERTEX
  5
369
  8
DEFAULT
 62
     5
 10
23.72462002348993
 20
203.9529237978189
 30
0.0
 42
0.1371855487857508
  0
VERTEX
  5
36A
  8
DEFAULT
 62
     5
 10
22.4294817174109
 20
203.6959799538452
 30
0.0
 42
0.2593740206709881
  0
VERTEX
  5
36B
  8
DEFAULT
 62
     5
 10
22.1690644679344
 20
203.222599882693
 30
0.0
 42
0.2456185528239872
  0
VERTEX
  5
36C
  8
DEFAULT
 62
     5
 10
22.39707381549817
 20
202.7989890894782
 30
0.0
 42
0.0664798749578859
  0
VERTEX
  5
36D
  8
DEFAULT
 62
     5
 10
24.53249085304379
 20
202.1433179609604
 30
0.0
 42
-0.1095214193377635
  0
VERTEX
  5
36E
  8
DEFAULT
 62
     5
 10
27.08225928325784
 20
201.1126467617992
 30
0.0
 42
-0.2284114958797597
  0
VERTEX
  5
36F
  8
DEFAULT
 62
     5
 10
27.79869409756395
 20
199.396211382344
 30
0.0
 42
-0.2276229810650807
  0
VERTEX
  5
370
  8
DEFAULT
 62
     5
 10
26.80563864797386
 20
197.3337109938041
 30
0.0
 42
-0.1809722242825351
  0
VERTEX
  5
371
  8
DEFAULT
 62
     5
 10
23.86698217659443
 20
196.4714423163374
 30
0.0
 42
-0.1534212868271979
  0
VERTEX
  5
372
  8
DEFAULT
 62
     5
 10
21.07126374510881
 20
197.1890351208609
 30
0.0
 42
-0.1853542620165868
  0
SEQEND
  5
373
  8
DEFAULT
 62
     5
  0
POLYLINE
  5
374
  8
DEFAULT
 62
     5
 66
     1
 10
0.0
 20
0.0
 30
0.0
 70
     1
  0
VERTEX
  5
375
  8
DEFAULT
 62
     5
 10
34.39128669015656
 20
205.3603312052263
 30
0.0
  0
VERTEX
  5
376
  8
DEFAULT
 62
     5
 10
36.53943483830471
 20
205.3603312052263
 30
0.0
  0
VERTEX
  5
377
  8
DEFAULT
 62
     5
 10
36.53943483830471
 20
204.0964433759918
 30
0.0
 42
-0.1189653659007644
  0
VERTEX
  5
378
  8
DEFAULT
 62
     5
 10
37.64881037696239
 20
205.163572334507
 30
0.0
 42
-0.1382105598910332
  0
VERTEX
  5
379
  8
DEFAULT
 62
     5
 10
39.2003155099278
 20
205.5825534274486
 30
0.0
 42
-0.2273648758850278
  0
VERTEX
  5
37A
  8
DEFAULT
 62
     5
 10
41.72462002348993
 20
204.3921603946049
 30
0.0
 42
-0.1838682188936206
  0
VERTEX
  5
37B
  8
DEFAULT
 62
     5
 10
42.76165706052696
 20
201.0767665846815
 30
0.0
 42
-0.1823656645300272
  0
VERTEX
  5
37C
  8
DEFAULT
 62
     5
 10
41.7159399006265
 20
197.6820908530255
 30
0.0
 42
-0.2285594541574903
  0
VERTEX
  5
37D
  8
DEFAULT
 62
     5
 10
39.18179670883478
 20
196.4714423163374
 30
0.0
 42
-0.1163198006807572
  0
VERTEX
  5
37E
  8
DEFAULT
 62
     5
 10
37.8982315231409
 20
196.7550075020312
 30
0.0
 42
-0.090415238077762
  0
VERTEX
  5
37F
  8
DEFAULT
 62
     5
 10
36.68758298645287
 20
197.7272304306897
 30
0.0
  0
VERTEX
  5
380
  8
DEFAULT
 62
     5
 10
36.68758298645287
 20
193.3603312052263
 30
0.0
  0
VERTEX
  5
381
  8
DEFAULT
 62
     5
 10
34.39128669015656
 20
193.3603312052263
 30
0.0
  0
SEQEND
  5
382
  8
DEFAULT
 62
     5
  0
POLYLINE
  5
383
  8
DEFAULT
 62
     5
 66
     1
 10
0.0
 20
0.0
 30
0.0
 70
     1
  0
VERTEX
  5
384
  8
DEFAULT
 62
     5
 10
36.68758298645287
 20
201.1728317350534
 30
0.0
 42
0.1662127852120494
  0
VERTEX
  5
385
  8
DEFAULT
 62
     5
 10
37.25587021775981
 20
198.9633406234337
 30
0.0
 42
0.2404461653497387
  0
VERTEX
  5
386
  8
DEFAULT
 62
     5
 10
38.64012968894997
 20
198.2492200941152
 30
0.0
 42
0.241323963442696
  0
VERTEX
  5
387
  8
DEFAULT
 62
     5
 10
39.94510667325857
 20
198.9048917877818
 30
0.0
 42
0.1627449374921804
  0
VERTEX
  5
388
  8
DEFAULT
 62
     5
 10
40.4653607642307
 20
201.0559340637498
 30
0.0
 42
0.166197673138215
  0
VERTEX
  5
389
  8
DEFAULT
 62
     5
 10
39.92890272230227
 20
203.1282714350724
 30
0.0
 42
0.2412377667960058
  0
VERTEX
  5
38A
  8
DEFAULT
 62
     5
 10
38.60077836692528
 20
203.8047756496707
 30
0.0
 42
0.2367422129321761
  0
VERTEX
  5
38B
  8
DEFAULT
 62
     5
 10
37.23156485647427
 20
203.1404238331407
 30
0.0
 42
0.172344780998902
  0
SEQEND
  5
38C
  8
DEFAULT
 62
     5
  0
POLYLINE
  5
38D
  8
DEFAULT
 62
     5
 66
     1
 10
0.0
 20
0.0
 30
0.0
 70
     1
  0
VERTEX
  5
38E
  8
DEFAULT
 62
     5
 10
44.53943483830471
 20
196.6936645385597
 30
0.0
  0
VERTEX
  5
38F
  8
DEFAULT
 62
     5
 10
44.53943483830471
 20
208.6195904644856
 30
0.0
  0
VERTEX
  5
390
  8
DEFAULT
 62
     5
 10
46.83573113460102
 20
208.6195904644856
 30
0.0
  0
VERTEX
  5
391
  8
DEFAULT
 62
     5
 10
46.83573113460102
 20
196.6936645385597
 30
0.0
  0
SEQEND
  5
392
  8
DEFAULT
 62
     5
  0
POLYLINE
  5
393
  8
DEFAULT
 62
     5
 66
     1
 10
0.0
 20
0.0
 30
0.0
 70
     1
  0
VERTEX
  5
394
  8
DEFAULT
 62
     5
 10
50.83573113460102
 20
202.6936645385597
 30
0.0
  0
VERTEX
  5
395
  8
DEFAULT
 62
     5
 10
48.76165706052699
 20
202.989960834856
 30
0.0
 42
-0.1714833175990493
  0
VERTEX
  5
396
  8
DEFAULT
 62
     5
 10
49.94626409832699
 20
204.9471372376263
 30
0.0
 42
-0.1608829132837738
  0
VERTEX
  5
397
  8
DEFAULT
 62
     5
 10
52.44337081823062
 20
205.5825534274486
 30
0.0
 42
-0.1088364278880705
  0
VERTEX
  5
398
  8
DEFAULT
 62
     5
 10
54.68411127639695
 20
205.2185488949539
 30
0.0
 42
-0.1580303644335214
  0
VERTEX
  5
399
  8
DEFAULT
 62
     5
 10
55.7205696008998
 20
204.2937803940963
 30
0.0
 42
-0.1088017057953534
  0
VERTEX
  5
39A
  8
DEFAULT
 62
     5
 10
56.02091631978622
 20
202.2353321235934
 30
0.0
  0
VERTEX
  5
39B
  8
DEFAULT
 62
     5
 10
56.02091631978624
 20
199.5501466558337
 30
0.0
 42
0.0514080219694971
  0
VERTEX
  5
39C
  8
DEFAULT
 62
     5
 10
56.14591653171703
 20
197.8597527752666
 30
0.0
 42
0.0692287864232276
  0
VERTEX
  5
39D
  8
DEFAULT
 62
     5
 10
56.61350891237884
 20
196.6936645385597
 30
0.0
  0
VERTEX
  5
39E
  8
DEFAULT
 62
     5
 10
54.31721261608254
 20
196.6936645385597
 30
0.0
  0
VERTEX
  5
39F
  8
DEFAULT
 62
     5
 10
54.09730524399686
 20
197.3649609054996
 30
0.0
  0
VERTEX
  5
3A0
  8
DEFAULT
 62
     5
 10
54.01628774981089
 20
197.632322705386
 30
0.0
 42
-0.0933244186737968
  0
VERTEX
  5
3A1
  8
DEFAULT
 62
     5
 10
52.76281448559531
 20
196.7619520524411
 30
0.0
 42
-0.1040133466925645
  0
VERTEX
  5
3A2
  8
DEFAULT
 62
     5
 10
51.33804683246115
 20
196.4714423163374
 30
0.0
 42
-0.1965430357596527
  0
VERTEX
  5
3A3
  8
DEFAULT
 62
     5
 10
49.23445841914508
 20
197.1977158088733
 30
0.0
 42
-0.2154369487651174
  0
VERTEX
  5
3A4
  8
DEFAULT
 62
     5
 10
48.4653607642307
 20
199.0339429874518
 30
0.0
 42
-0.1373780248024078
  0
VERTEX
  5
3A5
  8
DEFAULT
 62
     5
 10
48.80795349811047
 20
200.3441278194189
 30
0.0
 42
-0.1473783213971485
  0
VERTEX
  5
3A6
  8
DEFAULT
 62
     5
 10
49.76802346355169
 20
201.2254934453638
 30
0.0
 42
-0.0634404934847214
  0
VERTEX
  5
3A7
  8
DEFAULT
 62
     5
 10
51.54869480400021
 20
201.7596372023045
 30
0.0
 42
0.0472009877729006
  0
VERTEX
  5
3A8
  8
DEFAULT
 62
     5
 10
53.72462002348993
 20
202.3232941681893
 30
0.0
  0
VERTEX
  5
3A9
  8
DEFAULT
 62
     5
 10
53.72462002348993
 20
202.5559332160263
 30
0.0
 42
0.2070921599656877
  0
VERTEX
  5
3AA
  8
DEFAULT
 62
     5
 10
53.41732875419359
 20
203.517738753921
 30
0.0
 42
0.1777887432708186
  0
VERTEX
  5
3AB
  8
DEFAULT
 62
     5
 10
52.25702764282823
 20
203.8047756496707
 30
0.0
 42
0.165109113803814
  0
VERTEX
  5
3AC
  8
DEFAULT
 62
     5
 10
51.35830120600758
 20
203.5582480661629
 30
0.0
 42
0.1491587679877894
  0
SEQEND
  5
3AD
  8
DEFAULT
 62
     5
  0
POLYLINE
  5
3AE
  8
DEFAULT
 62
     5
 66
     1
 10
0.0
 20
0.0
 30
0.0
 70
     1
  0
VERTEX
  5
3AF
  8
DEFAULT
 62
     5
 10
53.72462002348993
 20
200.8418126867078
 30
0.0
  0
VERTEX
  5
3B0
  8
DEFAULT
 62
     5
 10
52.38781498010065
 20
200.4911185424988
 30
0.0
 42
0.0811165779561233
  0
VERTEX
  5
3B1
  8
DEFAULT
 62
     5
 10
51.19221353444959
 20
200.0918136757185
 30
0.0
 42
0.2517191883486333
  0
VERTEX
  5
3B2
  8
DEFAULT
 62
     5
 10
50.76165706052699
 20
199.2839434113136
 30
0.0
 42
0.2041672574556204
  0
VERTEX
  5
3B3
  8
DEFAULT
 62
     5
 10
51.10540721947507
 20
198.4517666553251
 30
0.0
 42
0.2097521333282917
  0
VERTEX
  5
3B4
  8
DEFAULT
 62
     5
 10
51.98156499776155
 20
198.101071945967
 30
0.0
 42
0.1670482644845868
  0
VERTEX
  5
3B5
  8
DEFAULT
 62
     5
 10
53.11466718517055
 20
198.5084799185234
 30
0.0
 42
0.16516124549916
  0
VERTEX
  5
3B6
  8
DEFAULT
 62
     5
 10
53.63897282903066
 20
199.2677394603571
 30
0.0
 42
0.0593667948163777
  0
VERTEX
  5
3B7
  8
DEFAULT
 62
     5
 10
53.72462002348993
 20
200.3846376968098
 30
0.0
  0
SEQEND
  5
3B8
  8
DEFAULT
 62
     5
  0
POLYLINE
  5
3B9
  8
DEFAULT
 62
     5
 66
     1
 10
0.0
 20
0.0
 30
0.0
 70
     1
  0
VERTEX
  5
3BA
  8
DEFAULT
 62
     5
 10
66.24313854200841
 20
196.6936645385597
 30
0.0
  0
VERTEX
  5
3BB
  8
DEFAULT
 62
     5
 10
63.94684224571211
 20
196.6936645385597
 30
0.0
  0
VERTEX
  5
3BC
  8
DEFAULT
 62
     5
 10
63.94684224571209
 20
201.1184338871407
 30
0.0
 42
0.0659043403441654
  0
VERTEX
  5
3BD
  8
DEFAULT
 62
     5
 10
63.80216637276896
 20
202.9355635520921
 30
0.0
 42
0.16001306957654
  0
VERTEX
  5
3BE
  8
DEFAULT
 62
     5
 10
63.33225914197055
 20
203.5761881547218
 30
0.0
 42
0.157514917629771
  0
VERTEX
  5
3BF
  8
DEFAULT
 62
     5
 10
62.54985166391953
 20
203.8047756496707
 30
0.0
 42
0.1576987046344791
  0
VERTEX
  5
3C0
  8
DEFAULT
 62
     5
 10
61.49834737867752
 20
203.4783868667473
 30
0.0
 42
0.1684371822616705
  0
VERTEX
  5
3C1
  8
DEFAULT
 62
     5
 10
60.86003706103553
 20
202.6132251917588
 30
0.0
 42
0.0659809918576469
  0
VERTEX
  5
3C2
  8
DEFAULT
 62
     5
 10
60.68758298645287
 20
200.6207478895539
 30
0.0
  0
VERTEX
  5
3C3
  8
DEFAULT
 62
     5
 10
60.68758298645287
 20
196.6936645385597
 30
0.0
  0
VERTEX
  5
3C4
  8
DEFAULT
 62
     5
 10
58.39128669015656
 20
196.6936645385597
 30
0.0
  0
VERTEX
  5
3C5
  8
DEFAULT
 62
     5
 10
58.39128669015656
 20
205.3603312052263
 30
0.0
  0
VERTEX
  5
3C6
  8
DEFAULT
 62
     5
 10
60.53943483830471
 20
205.3603312052263
 30
0.0
  0
VERTEX
  5
3C7
  8
DEFAULT
 62
     5
 10
60.53943483830471
 20
204.0964433759918
 30
0.0
 42
-0.2486296121988558
  0
VERTEX
  5
3C8
  8
DEFAULT
 62
     5
 10
63.36350905366601
 20
205.5825534274486
 30
0.0
 42
-0.1053164015608156
  0
VERTEX
  5
3C9
  8
DEFAULT
 62
     5
 10
64.73445813657055
 20
205.3082482074502
 30
0.0
 42
-0.1292191717088811
  0
VERTEX
  5
3CA
  8
DEFAULT
 62
     5
 10
65.67427316331622
 20
204.6085954914856
 30
0.0
 42
-0.1054932374262509
  0
VERTEX
  5
3CB
  8
DEFAULT
 62
     5
 10
66.11813889522651
 20
203.6427389658518
 30
0.0
 42
-0.0533641385177314
  0
VERTEX
  5
3CC
  8
DEFAULT
 62
     5
 10
66.24313854200842
 20
202.0952859509234
 30
0.0
  0
SEQEND
  5
3CD
  8
DEFAULT
 62
     5
  0
POLYLINE
  5
3CE
  8
DEFAULT
 62
     5
 66
     1
 10
0.0
 20
0.0
 30
0.0
 70
     1
  0
VERTEX
  5
3CF
  8
DEFAULT
 62
     5
 10
67.72462002348993
 20
199.1381089830041
 30
0.0
  0
VERTEX
  5
3D0
  8
DEFAULT
 62
     5
 10
70.02091631978625
 20
199.4344052793004
 30
0.0
 42
0.181713453741344
  0
VERTEX
  5
3D1
  8
DEFAULT
 62
     5
 10
70.61524561513022
 20
198.440192404642
 30
0.0
 42
0.1637490318832629
  0
VERTEX
  5
3D2
  8
DEFAULT
 62
     5
 10
71.86698217659443
 20
198.101071945967
 30
0.0
 42
0.1581548590315952
  0
VERTEX
  5
3D3
  8
DEFAULT
 62
     5
 10
73.2014729349961
 20
198.433248419381
 30
0.0
 42
0.2454173628752152
  0
VERTEX
  5
3D4
  8
DEFAULT
 62
     5
 10
73.50239780126766
 20
199.0559340637498
 30
0.0
 42
0.1967133408658816
  0
VERTEX
  5
3D5
  8
DEFAULT
 62
     5
 10
73.33920425752943
 20
199.4957488079209
 30
0.0
 42
0.1152480441762334
  0
VERTEX
  5
3D6
  8
DEFAULT
 62
     5
 10
72.57068531514915
 20
199.802461929832
 30
0.0
 42
-0.075010197764929
  0
VERTEX
  5
3D7
  8
DEFAULT
 62
     5
 10
69.04985251164295
 20
200.9355629869432
 30
0.0
 42
-0.2630575377237179
  0
VERTEX
  5
3D8
  8
DEFAULT
 62
     5
 10
68.02091631978625
 20
202.9008413651917
 30
0.0
 42
-0.2278055359034068
  0
VERTEX
  5
3D9
  8
DEFAULT
 62
     5
 10
68.91038392120925
 20
204.809405349944
 30
0.0
 42
-0.1789409577799316
  0
VERTEX
  5
3DA
  8
DEFAULT
 62
     5
 10
71.66790732544052
 20
205.5825534274486
 30
0.0
 42
-0.1478680227512912
  0
VERTEX
  5
3DB
  8
DEFAULT
 62
     5
 10
74.31142605588991
 20
204.9835955621292
 30
0.0
 42
-0.1798681362132166
  0
VERTEX
  5
3DC
  8
DEFAULT
 62
     5
 10
75.50239780126762
 20
203.2121830570782
 30
0.0
  0
VERTEX
  5
3DD
  8
DEFAULT
 62
     5
 10
73.35424965311948
 20
202.8418126867078
 30
0.0
 42
0.1762609448243974
  0
VERTEX
  5
3DE
  8
DEFAULT
 62
     5
 10
72.82878714934009
 20
203.6664656146032
 30
0.0
 42
0.1598214678236718
  0
VERTEX
  5
3DF
  8
DEFAULT
 62
     5
 10
71.72462002348993
 20
203.9529237978189
 30
0.0
 42
0.1371855487857573
  0
VERTEX
  5
3E0
  8
DEFAULT
 62
     5
 10
70.4294817174109
 20
203.6959799538452
 30
0.0
 42
0.2593740206710232
  0
VERTEX
  5
3E1
  8
DEFAULT
 62
     5
 10
70.16906446793438
 20
203.222599882693
 30
0.0
 42
0.2456185528239395
  0
VERTEX
  5
3E2
  8
DEFAULT
 62
     5
 10
70.39707381549817
 20
202.7989890894782
 30
0.0
 42
0.0664798749578854
  0
VERTEX
  5
3E3
  8
DEFAULT
 62
     5
 10
72.53249085304378
 20
202.1433179609604
 30
0.0
 42
-0.1095214193377649
  0
VERTEX
  5
3E4
  8
DEFAULT
 62
     5
 10
75.08225928325783
 20
201.1126467617991
 30
0.0
 42
-0.2284114958797605
  0
VERTEX
  5
3E5
  8
DEFAULT
 62
     5
 10
75.79869409756395
 20
199.396211382344
 30
0.0
 42
-0.2276229810650783
  0
VERTEX
  5
3E6
  8
DEFAULT
 62
     5
 10
74.80563864797388
 20
197.3337109938041
 30
0.0
 42
-0.1809722242825363
  0
VERTEX
  5
3E7
  8
DEFAULT
 62
     5
 10
71.86698217659443
 20
196.4714423163374
 30
0.0
 42
-0.1534212868271949
  0
VERTEX
  5
3E8
  8
DEFAULT
 62
     5
 10
69.07126374510882
 20
197.1890351208609
 30
0.0
 42
-0.1853542620165935
  0
SEQEND
  5
3E9
  8
DEFAULT
 62
     5
  0
POLYLINE
  5
3EA
  8
DEFAULT
 62
     5
 66
     1
 10
0.0
 20
0.0
 30
0.0
 70
     1
  0
VERTEX
  5
3EB
  8
DEFAULT
 62
     5
 10
-246.3957499230187
 20
220.9756434027514
 30
0.0
  0
VERTEX
  5
3EC
  8
DEFAULT
 62
     5
 10
-249.164268865399
 20
229.6423100694181
 30
0.0
  0
VERTEX
  5
3ED
  8
DEFAULT
 62
     5
 10
-246.9154258666055
 20
229.6423100694181
 30
0.0
  0
VERTEX
  5
3EE
  8
DEFAULT
 62
     5
 10
-245.2753794113611
 20
223.9629122921489
 30
0.0
  0
VERTEX
  5
3EF
  8
DEFAULT
 62
     5
 10
-243.7360278067619
 20
229.6423100694181
 30
0.0
  0
VERTEX
  5
3F0
  8
DEFAULT
 62
     5
 10
-241.5103333093348
 20
229.6423100694181
 30
0.0
  0
VERTEX
  5
3F1
  8
DEFAULT
 62
     5
 10
-240.0901942261759
 20
223.9629122921489
 30
0.0
  0
VERTEX
  5
3F2
  8
DEFAULT
 62
     5
 10
-238.4455180706582
 20
229.6423100694181
 30
0.0
  0
VERTEX
  5
3F3
  8
DEFAULT
 62
     5
 10
-236.201305902436
 20
229.6423100694181
 30
0.0
  0
VERTEX
  5
3F4
  8
DEFAULT
 62
     5
 10
-238.9640365891767
 20
220.9756434027514
 30
0.0
  0
VERTEX
  5
3F5
  8
DEFAULT
 62
     5
 10
-241.1411203640327
 20
220.9756434027514
 30
0.0
  0
VERTEX
  5
3F6
  8
DEFAULT
 62
     5
 10
-242.6087127446944
 20
226.5497177594
 30
0.0
  0
VERTEX
  5
3F7
  8
DEFAULT
 62
     5
 10
-244.1226021280887
 20
220.9756434027514
 30
0.0
  0
SEQEND
  5
3F8
  8
DEFAULT
 62
     5
  0
POLYLINE
  5
3F9
  8
DEFAULT
 62
     5
 66
     1
 10
0.0
 20
0.0
 30
0.0
 70
     1
  0
VERTEX
  5
3FA
  8
DEFAULT
 62
     5
 10
-233.5068610341298
 20
220.9756434027514
 30
0.0
  0
VERTEX
  5
3FB
  8
DEFAULT
 62
     5
 10
-236.2753799765101
 20
229.6423100694181
 30
0.0
  0
VERTEX
  5
3FC
  8
DEFAULT
 62
     5
 10
-234.0265369777167
 20
229.6423100694181
 30
0.0
  0
VERTEX
  5
3FD
  8
DEFAULT
 62
     5
 10
-232.3864905224722
 20
223.9629122921489
 30
0.0
  0
VERTEX
  5
3FE
  8
DEFAULT
 62
     5
 10
-230.8471389178731
 20
229.6423100694181
 30
0.0
  0
VERTEX
  5
3FF
  8
DEFAULT
 62
     5
 10
-228.6214444204459
 20
229.6423100694181
 30
0.0
  0
VERTEX
  5
400
  8
DEFAULT
 62
     5
 10
-227.201305337287
 20
223.9629122921489
 30
0.0
  0
VERTEX
  5
401
  8
DEFAULT
 62
     5
 10
-225.5566291817693
 20
229.6423100694181
 30
0.0
  0
VERTEX
  5
402
  8
DEFAULT
 62
     5
 10
-223.3124170135471
 20
229.6423100694181
 30
0.0
  0
VERTEX
  5
403
  8
DEFAULT
 62
     5
 10
-226.0751477002879
 20
220.9756434027514
 30
0.0
  0
VERTEX
  5
404
  8
DEFAULT
 62
     5
 10
-228.2522314751438
 20
220.9756434027514
 30
0.0
  0
VERTEX
  5
405
  8
DEFAULT
 62
     5
 10
-229.7198238558055
 20
226.5497177594
 30
0.0
  0
VERTEX
  5
406
  8
DEFAULT
 62
     5
 10
-231.2337132391998
 20
220.9756434027514
 30
0.0
  0
SEQEND
  5
407
  8
DEFAULT
 62
     5
  0
POLYLINE
  5
408
  8
DEFAULT
 62
     5
 66
     1
 10
0.0
 20
0.0
 30
0.0
 70
     1
  0
VERTEX
  5
409
  8
DEFAULT
 62
     5
 10
-220.617972145241
 20
220.9756434027514
 30
0.0
  0
VERTEX
  5
40A
  8
DEFAULT
 62
     5
 10
-223.3864910876212
 20
229.6423100694181
 30
0.0
  0
VERTEX
  5
40B
  8
DEFAULT
 62
     5
 10
-221.1376480888277
 20
229.6423100694181
 30
0.0
  0
VERTEX
  5
40C
  8
DEFAULT
 62
     5
 10
-219.4976016335833
 20
223.9629122921489
 30
0.0
  0
VERTEX
  5
40D
  8
DEFAULT
 62
     5
 10
-217.9582500289841
 20
229.6423100694181
 30
0.0
  0
VERTEX
  5
40E
  8
DEFAULT
 62
     5
 10
-215.732555531557
 20
229.6423100694181
 30
0.0
  0
VERTEX
  5
40F
  8
DEFAULT
 62
     5
 10
-214.3124164483982
 20
223.9629122921489
 30
0.0
  0
VERTEX
  5
410
  8
DEFAULT
 62
     5
 10
-212.6677402928805
 20
229.6423100694181
 30
0.0
  0
VERTEX
  5
411
  8
DEFAULT
 62
     5
 10
-210.4235281246582
 20
229.6423100694181
 30
0.0
  0
VERTEX
  5
412
  8
DEFAULT
 62
     5
 10
-213.1862588113989
 20
220.9756434027514
 30
0.0
  0
VERTEX
  5
413
  8
DEFAULT
 62
     5
 10
-215.3633425862549
 20
220.9756434027514
 30
0.0
  0
VERTEX
  5
414
  8
DEFAULT
 62
     5
 10
-216.8309349669167
 20
226.5497177594
 30
0.0
  0
VERTEX
  5
415
  8
DEFAULT
 62
     5
 10
-218.3448243503109
 20
220.9756434027514
 30
0.0
  0
SEQEND
  5
416
  8
DEFAULT
 62
     5
  0
POLYLINE
  5
417
  8
DEFAULT
 62
     5
 66
     1
 10
0.0
 20
0.0
 30
0.0
 70
     1
  0
VERTEX
  5
418
  8
DEFAULT
 62
     5
 10
-209.4605651616952
 20
220.9756434027514
 30
0.0
  0
VERTEX
  5
419
  8
DEFAULT
 62
     5
 10
-209.4605651616952
 20
223.2719396990477
 30
0.0
  0
VERTEX
  5
41A
  8
DEFAULT
 62
     5
 10
-207.164268865399
 20
223.2719396990477
 30
0.0
  0
VERTEX
  5
41B
  8
DEFAULT
 62
     5
 10
-207.164268865399
 20
220.9756434027514
 30
0.0
  0
SEQEND
  5
41C
  8
DEFAULT
 62
     5
  0
POLYLINE
  5
41D
  8
DEFAULT
 62
     5
 66
     1
 10
0.0
 20
0.0
 30
0.0
 70
     1
  0
VERTEX
  5
41E
  8
DEFAULT
 62
     5
 10
-197.3124170135471
 20
227.1237915508995
 30
0.0
  0
VERTEX
  5
41F
  8
DEFAULT
 62
     5
 10
-199.6087133098433
 20
226.7534211805292
 30
0.0
 42
0.1809968098174968
  0
VERTEX
  5
420
  8
DEFAULT
 62
     5
 10
-200.1214441378714
 20
227.7516856080756
 30
0.0
 42
0.1804760167669703
  0
VERTEX
  5
421
  8
DEFAULT
 62
     5
 10
-201.1584817400574
 20
228.0867545138624
 30
0.0
 42
0.2329674834671324
  0
VERTEX
  5
422
  8
DEFAULT
 62
     5
 10
-202.5114907344031
 20
227.4849030858724
 30
0.0
 42
0.169517955512037
  0
VERTEX
  5
423
  8
DEFAULT
 62
     5
 10
-203.0161207172508
 20
225.4710145502016
 30
0.0
 42
0.1610966817175074
  0
VERTEX
  5
424
  8
DEFAULT
 62
     5
 10
-202.4993377711858
 20
223.2528427505695
 30
0.0
 42
0.2405540491094222
  0
VERTEX
  5
425
  8
DEFAULT
 62
     5
 10
-201.1121847373249
 20
222.605273032381
 30
0.0
 42
0.188345844186946
  0
VERTEX
  5
426
  8
DEFAULT
 62
     5
 10
-200.0467913512632
 20
222.9721716926954
 30
0.0
 42
0.1622604489948024
  0
VERTEX
  5
427
  8
DEFAULT
 62
     5
 10
-199.4605651616953
 20
224.2349026620106
 30
0.0
  0
VERTEX
  5
428
  8
DEFAULT
 62
     5
 10
-197.164268865399
 20
223.9386063657144
 30
0.0
 42
-0.1724509721436
  0
VERTEX
  5
429
  8
DEFAULT
 62
     5
 10
-198.5057036090615
 20
221.5578197348781
 30
0.0
 42
-0.1746967243539283
  0
VERTEX
  5
42A
  8
DEFAULT
 62
     5
 10
-201.1654251601693
 20
220.7534211805292
 30
0.0
 42
-0.2163976905724449
  0
VERTEX
  5
42B
  8
DEFAULT
 62
     5
 10
-204.1862593765479
 20
221.9600187294782
 30
0.0
 42
-0.1943870566321016
  0
VERTEX
  5
42C
  8
DEFAULT
 62
     5
 10
-205.3124170135471
 20
225.3008753257555
 30
0.0
 42
-0.1945054615972626
  0
VERTEX
  5
42D
  8
DEFAULT
 62
     5
 10
-204.1868380890821
 20
228.6619862955793
 30
0.0
 42
-0.2157801631579966
  0
VERTEX
  5
42E
  8
DEFAULT
 62
     5
 10
-201.142277789101
 20
229.8645322916402
 30
0.0
 42
-0.1599423076957945
  0
VERTEX
  5
42F
  8
DEFAULT
 62
     5
 10
-198.6445923566632
 20
229.1874493645078
 30
0.0
 42
-0.1682635697126378
  0
SEQEND
  5
430
  8
DEFAULT
 62
     5
  0
POLYLINE
  5
431
  8
DEFAULT
 62
     5
 66
     1
 10
0.0
 20
0.0
 30
0.0
 70
     1
  0
VERTEX
  5
432
  8
DEFAULT
 62
     5
 10
-193.238342939473
 20
220.9756434027514
 30
0.0
  0
VERTEX
  5
433
  8
DEFAULT
 62
     5
 10
-195.5346392357693
 20
220.9756434027514
 30
0.0
  0
VERTEX
  5
434
  8
DEFAULT
 62
     5
 10
-195.5346392357693
 20
229.6423100694181
 30
0.0
  0
VERTEX
  5
435
  8
DEFAULT
 62
     5
 10
-193.3864910876212
 20
229.6423100694181
 30
0.0
  0
VERTEX
  5
436
  8
DEFAULT
 62
     5
 10
-193.3864910876212
 20
228.4189309872765
 30
0.0
 42
-0.0977550519461029
  0
VERTEX
  5
437
  8
DEFAULT
 62
     5
 10
-192.4455186358072
 20
229.5751805457539
 30
0.0
 42
-0.1561720185079816
  0
VERTEX
  5
438
  8
DEFAULT
 62
     5
 10
-191.4976016335833
 20
229.8645322916403
 30
0.0
 42
-0.143817098137016
  0
VERTEX
  5
439
  8
DEFAULT
 62
     5
 10
-190.0531577542878
 20
229.428189822674
 30
0.0
  0
VERTEX
  5
43A
  8
DEFAULT
 62
     5
 10
-190.7568608928426
 20
227.4177741273571
 30
0.0
 42
0.1496770151887605
  0
VERTEX
  5
43B
  8
DEFAULT
 62
     5
 10
-191.7800088290599
 20
227.7904582175662
 30
0.0
 42
0.181097099486741
  0
VERTEX
  5
43C
  8
DEFAULT
 62
     5
 10
-192.5560504692351
 20
227.5248336855802
 30
0.0
 42
0.1501348396488844
  0
VERTEX
  5
43D
  8
DEFAULT
 62
     5
 10
-193.0560507518097
 20
226.564764285288
 30
0.0
 42
0.0509111359642212
  0
VERTEX
  5
43E
  8
DEFAULT
 62
     5
 10
-193.238342939473
 20
223.6561991702378
 30
0.0
  0
SEQEND
  5
43F
  8
DEFAULT
 62
     5
  0
POLYLINE
  5
440
  8
DEFAULT
 62
     5
 66
     1
 10
0.0
 20
0.0
 30
0.0
 70
     1
  0
VERTEX
  5
441
  8
DEFAULT
 62
     5
 10
-187.3864910876212
 20
226.9756434027514
 30
0.0
  0
VERTEX
  5
442
  8
DEFAULT
 62
     5
 10
-189.4605651616953
 20
227.2719396990477
 30
0.0
 42
-0.1714833175990155
  0
VERTEX
  5
443
  8
DEFAULT
 62
     5
 10
-188.2759581238954
 20
229.2291161018181
 30
0.0
 42
-0.1608829132837489
  0
VERTEX
  5
444
  8
DEFAULT
 62
     5
 10
-185.7788514039916
 20
229.8645322916403
 30
0.0
 42
-0.1088364278880841
  0
VERTEX
  5
445
  8
DEFAULT
 62
     5
 10
-183.5381109458253
 20
229.5005277591457
 30
0.0
 42
-0.1580303644335072
  0
VERTEX
  5
446
  8
DEFAULT
 62
     5
 10
-182.5016526213224
 20
228.575759258288
 30
0.0
 42
-0.1088017057953461
  0
VERTEX
  5
447
  8
DEFAULT
 62
     5
 10
-182.201305902436
 20
226.5173109877851
 30
0.0
  0
VERTEX
  5
448
  8
DEFAULT
 62
     5
 10
-182.201305902436
 20
223.8321255200255
 30
0.0
 42
0.0514080219695046
  0
VERTEX
  5
449
  8
DEFAULT
 62
     5
 10
-182.0763056905051
 20
222.1417316394584
 30
0.0
 42
0.0692287864232383
  0
VERTEX
  5
44A
  8
DEFAULT
 62
     5
 10
-181.6087133098434
 20
220.9756434027514
 30
0.0
  0
VERTEX
  5
44B
  8
DEFAULT
 62
     5
 10
-183.9050096061397
 20
220.9756434027514
 30
0.0
  0
VERTEX
  5
44C
  8
DEFAULT
 62
     5
 10
-184.1249169782253
 20
221.6469397696913
 30
0.0
  0
VERTEX
  5
44D
  8
DEFAULT
 62
     5
 10
-184.2059344724113
 20
221.9143015695777
 30
0.0
 42
-0.0933244186737993
  0
VERTEX
  5
44E
  8
DEFAULT
 62
     5
 10
-185.4594077366269
 20
221.0439309166329
 30
0.0
 42
-0.104013346692579
  0
VERTEX
  5
44F
  8
DEFAULT
 62
     5
 10
-186.8841753897611
 20
220.7534211805292
 30
0.0
 42
-0.1965430357596602
  0
VERTEX
  5
450
  8
DEFAULT
 62
     5
 10
-188.9877638030771
 20
221.479694673065
 30
0.0
 42
-0.2154369487651134
  0
VERTEX
  5
451
  8
DEFAULT
 62
     5
 10
-189.7568614579916
 20
223.3159218516435
 30
0.0
 42
-0.1373780248023962
  0
VERTEX
  5
452
  8
DEFAULT
 62
     5
 10
-189.4142687241117
 20
224.6261066836106
 30
0.0
 42
-0.1473783213971475
  0
VERTEX
  5
453
  8
DEFAULT
 62
     5
 10
-188.4541987586706
 20
225.5074723095555
 30
0.0
 42
-0.0634404934846934
  0
VERTEX
  5
454
  8
DEFAULT
 62
     5
 10
-186.673527418222
 20
226.0416160664963
 30
0.0
 42
0.0472009877729128
  0
VERTEX
  5
455
  8
DEFAULT
 62
     5
 10
-184.4976021987323
 20
226.605273032381
 30
0.0
  0
VERTEX
  5
456
  8
DEFAULT
 62
     5
 10
-184.4976021987323
 20
226.837912080218
 30
0.0
 42
0.2070921599656715
  0
VERTEX
  5
457
  8
DEFAULT
 62
     5
 10
-184.8048934680286
 20
227.7997176181127
 30
0.0
 42
0.1777887432707947
  0
VERTEX
  5
458
  8
DEFAULT
 62
     5
 10
-185.9651945793941
 20
228.0867545138625
 30
0.0
 42
0.1651091138038227
  0
VERTEX
  5
459
  8
DEFAULT
 62
     5
 10
-186.8639210162146
 20
227.8402269303547
 30
0.0
 42
0.1491587679877782
  0
SEQEND
  5
45A
  8
DEFAULT
 62
     5
  0
POLYLINE
  5
45B
  8
DEFAULT
 62
     5
 66
     1
 10
0.0
 20
0.0
 30
0.0
 70
     1
  0
VERTEX
  5
45C
  8
DEFAULT
 62
     5
 10
-184.4976021987323
 20
225.1237915508995
 30
0.0
  0
VERTEX
  5
45D
  8
DEFAULT
 62
     5
 10
-185.8344072421216
 20
224.7730974066905
 30
0.0
 42
0.0811165779561105
  0
VERTEX
  5
45E
  8
DEFAULT
 62
     5
 10
-187.0300086877726
 20
224.3737925399102
 30
0.0
 42
0.2517191883486103
  0
VERTEX
  5
45F
  8
DEFAULT
 62
     5
 10
-187.4605651616953
 20
223.5659222755053
 30
0.0
 42
0.2041672574556359
  0
VERTEX
  5
460
  8
DEFAULT
 62
     5
 10
-187.1168150027471
 20
222.7337455195169
 30
0.0
 42
0.2097521333283294
  0
VERTEX
  5
461
  8
DEFAULT
 62
     5
 10
-186.2406572244607
 20
222.3830508101588
 30
0.0
 42
0.1670482644846014
  0
VERTEX
  5
462
  8
DEFAULT
 62
     5
 10
-185.1075550370517
 20
222.7904587827152
 30
0.0
 42
0.1651612454990826
  0
VERTEX
  5
463
  8
DEFAULT
 62
     5
 10
-184.5832493931916
 20
223.5497183245489
 30
0.0
 42
0.0593667948163781
  0
VERTEX
  5
464
  8
DEFAULT
 62
     5
 10
-184.4976021987323
 20
224.6666165610016
 30
0.0
  0
SEQEND
  5
465
  8
DEFAULT
 62
     5
  0
POLYLINE
  5
466
  8
DEFAULT
 62
     5
 66
     1
 10
0.0
 20
0.0
 30
0.0
 70
     1
  0
VERTEX
  5
467
  8
DEFAULT
 62
     5
 10
-180.7198244209545
 20
229.6423100694181
 30
0.0
  0
VERTEX
  5
468
  8
DEFAULT
 62
     5
 10
-179.5346392357693
 20
229.6423100694181
 30
0.0
  0
VERTEX
  5
469
  8
DEFAULT
 62
     5
 10
-179.5346392357693
 20
230.2916164903579
 30
0.0
 42
-0.0950504639922747
  0
VERTEX
  5
46A
  8
DEFAULT
 62
     5
 10
-179.3054724631372
 20
231.9143015695777
 30
0.0
 42
-0.1716707163023934
  0
VERTEX
  5
46B
  8
DEFAULT
 62
     5
 10
-178.4611433090805
 20
232.7869865075102
 30
0.0
 42
-0.1257658996646659
  0
VERTEX
  5
46C
  8
DEFAULT
 62
     5
 10
-176.9050090409908
 20
233.1237915508995
 30
0.0
 42
-0.0781428993827083
  0
VERTEX
  5
46D
  8
DEFAULT
 62
     5
 10
-175.0161207172508
 20
232.8274952546032
 30
0.0
  0
VERTEX
  5
46E
  8
DEFAULT
 62
     5
 10
-175.2753794113611
 20
231.2163844260666
 30
0.0
 42
0.0588660059482821
  0
VERTEX
  5
46F
  8
DEFAULT
 62
     5
 10
-176.3170461486714
 20
231.3460137731218
 30
0.0
 42
0.2070684672812908
  0
VERTEX
  5
470
  8
DEFAULT
 62
     5
 10
-177.0242221275801
 20
231.1180049907069
 30
0.0
 42
0.1773524100531548
  0
VERTEX
  5
471
  8
DEFAULT
 62
     5
 10
-177.238342939473
 20
230.2418472124205
 30
0.0
  0
VERTEX
  5
472
  8
DEFAULT
 62
     5
 10
-177.238342939473
 20
229.6423100694181
 30
0.0
  0
VERTEX
  5
473
  8
DEFAULT
 62
     5
 10
-175.6087133098434
 20
229.6423100694181
 30
0.0
  0
VERTEX
  5
474
  8
DEFAULT
 62
     5
 10
-175.6087133098434
 20
227.8645322916403
 30
0.0
  0
VERTEX
  5
475
  8
DEFAULT
 62
     5
 10
-177.238342939473
 20
227.8645322916403
 30
0.0
  0
VERTEX
  5
476
  8
DEFAULT
 62
     5
 10
-177.238342939473
 20
220.9756434027514
 30
0.0
  0
VERTEX
  5
477
  8
DEFAULT
 62
     5
 10
-179.5346392357693
 20
220.9756434027514
 30
0.0
  0
VERTEX
  5
478
  8
DEFAULT
 62
     5
 10
-179.5346392357693
 20
227.8645322916403
 30
0.0
  0
VERTEX
  5
479
  8
DEFAULT
 62
     5
 10
-180.7198244209545
 20
227.8645322916403
 30
0.0
  0
SEQEND
  5
47A
  8
DEFAULT
 62
     5
  0
POLYLINE
  5
47B
  8
DEFAULT
 62
     5
 66
     1
 10
0.0
 20
0.0
 30
0.0
 70
     1
  0
VERTEX
  5
47C
  8
DEFAULT
 62
     5
 10
-170.2753799765101
 20
229.6423100694181
 30
0.0
  0
VERTEX
  5
47D
  8
DEFAULT
 62
     5
 10
-170.2753799765101
 20
227.8645322916403
 30
0.0
  0
VERTEX
  5
47E
  8
DEFAULT
 62
     5
 10
-171.8309355320656
 20
227.8645322916403
 30
0.0
  0
VERTEX
  5
47F
  8
DEFAULT
 62
     5
 10
-171.8309355320656
 20
224.2858293650164
 30
0.0
  0
VERTEX
  5
480
  8
DEFAULT
 62
     5
 10
-171.7869539446187
 20
223.0190462776642
 30
0.0
 42
0.1777629698041815
  0
VERTEX
  5
481
  8
DEFAULT
 62
     5
 10
-171.5884583711479
 20
222.7221712688337
 30
0.0
 42
0.1671411134725223
  0
VERTEX
  5
482
  8
DEFAULT
 62
     5
 10
-171.2105647378335
 20
222.605273032381
 30
0.0
 42
0.0818670423875106
  0
VERTEX
  5
483
  8
DEFAULT
 62
     5
 10
-170.3124164483982
 20
222.8240241096962
 30
0.0
  0
VERTEX
  5
484
  8
DEFAULT
 62
     5
 10
-170.1272318283619
 20
221.0867550790115
 30
0.0
 42
-0.1009135694951036
  0
VERTEX
  5
485
  8
DEFAULT
 62
     5
 10
-171.9142678763883
 20
220.7534211805292
 30
0.0
 42
-0.1023112505794062
  0
VERTEX
  5
486
  8
DEFAULT
 62
     5
 10
-173.016698864636
 20
220.9640697172172
 30
0.0
 42
-0.1427327602513753
  0
VERTEX
  5
487
  8
DEFAULT
 62
     5
 10
-173.7371852318303
 20
221.5086302997728
 30
0.0
 42
-0.1112474266807522
  0
VERTEX
  5
488
  8
DEFAULT
 62
     5
 10
-174.0543140490582
 20
222.4119864368666
 30
0.0
 42
-0.0357944377719239
  0
VERTEX
  5
489
  8
DEFAULT
 62
     5
 10
-174.1272318283619
 20
224.0450883417012
 30
0.0
  0
VERTEX
  5
48A
  8
DEFAULT
 62
     5
 10
-174.1272318283619
 20
227.8645322916403
 30
0.0
  0
VERTEX
  5
48B
  8
DEFAULT
 62
     5
 10
-175.238342939473
 20
227.8645322916403
 30
0.0
  0
VERTEX
  5
48C
  8
DEFAULT
 62
     5
 10
-175.238342939473
 20
229.6423100694181
 30
0.0
  0
VERTEX
  5
48D
  8
DEFAULT
 62
     5
 10
-174.1272318283619
 20
229.6423100694181
 30
0.0
  0
VERTEX
  5
48E
  8
DEFAULT
 62
     5
 10
-174.1272318283619
 20
231.2719396990477
 30
0.0
  0
VERTEX
  5
48F
  8
DEFAULT
 62
     5
 10
-171.8309355320656
 20
232.605273032381
 30
0.0
  0
VERTEX
  5
490
  8
DEFAULT
 62
     5
 10
-171.8309355320656
 20
229.6423100694181
 30
0.0
  0
SEQEND
  5
491
  8
DEFAULT
 62
     5
  0
POLYLINE
  5
492
  8
DEFAULT
 62
     5
 66
     1
 10
0.0
 20
0.0
 30
0.0
 70
     1
  0
VERTEX
  5
493
  8
DEFAULT
 62
     5
 10
-169.5346392357693
 20
223.4200878471958
 30
0.0
  0
VERTEX
  5
494
  8
DEFAULT
 62
     5
 10
-167.238342939473
 20
223.7163841434921
 30
0.0
 42
0.1817134537413392
  0
VERTEX
  5
495
  8
DEFAULT
 62
     5
 10
-166.644013644129
 20
222.7221712688337
 30
0.0
 42
0.1637490318832849
  0
VERTEX
  5
496
  8
DEFAULT
 62
     5
 10
-165.3922770826648
 20
222.3830508101587
 30
0.0
 42
0.158154859031623
  0
VERTEX
  5
497
  8
DEFAULT
 62
     5
 10
-164.0577863242632
 20
222.7152272835727
 30
0.0
 42
0.2454173628753153
  0
VERTEX
  5
498
  8
DEFAULT
 62
     5
 10
-163.7568614579916
 20
223.3379129279415
 30
0.0
 42
0.1967133408659576
  0
VERTEX
  5
499
  8
DEFAULT
 62
     5
 10
-163.9200550017298
 20
223.7777276721127
 30
0.0
 42
0.1152480441762602
  0
VERTEX
  5
49A
  8
DEFAULT
 62
     5
 10
-164.6885739441101
 20
224.0844407940238
 30
0.0
 42
-0.0750101977649404
  0
VERTEX
  5
49B
  8
DEFAULT
 62
     5
 10
-168.2094067476163
 20
225.217541851135
 30
0.0
 42
-0.2630575377237387
  0
VERTEX
  5
49C
  8
DEFAULT
 62
     5
 10
-169.238342939473
 20
227.1828202293835
 30
0.0
 42
-0.2278055359034024
  0
VERTEX
  5
49D
  8
DEFAULT
 62
     5
 10
-168.34887533805
 20
229.0913842141357
 30
0.0
 42
-0.1789409577799283
  0
VERTEX
  5
49E
  8
DEFAULT
 62
     5
 10
-165.5913519338187
 20
229.8645322916403
 30
0.0
 42
-0.1478680227512789
  0
VERTEX
  5
49F
  8
DEFAULT
 62
     5
 10
-162.9478332033693
 20
229.2655744263209
 30
0.0
 42
-0.1798681362132009
  0
VERTEX
  5
4A0
  8
DEFAULT
 62
     5
 10
-161.7568614579916
 20
227.4941619212699
 30
0.0
  0
VERTEX
  5
4A1
  8
DEFAULT
 62
     5
 10
-163.9050096061397
 20
227.1237915508995
 30
0.0
 42
0.1762609448243376
  0
VERTEX
  5
4A2
  8
DEFAULT
 62
     5
 10
-164.4304721099192
 20
227.948444478795
 30
0.0
 42
0.1598214678236756
  0
VERTEX
  5
4A3
  8
DEFAULT
 62
     5
 10
-165.5346392357693
 20
228.2349026620106
 30
0.0
 42
0.1371855487857522
  0
VERTEX
  5
4A4
  8
DEFAULT
 62
     5
 10
-166.8297775418483
 20
227.977958818037
 30
0.0
 42
0.2593740206710328
  0
VERTEX
  5
4A5
  8
DEFAULT
 62
     5
 10
-167.0901947913249
 20
227.5045787468847
 30
0.0
 42
0.2456185528240601
  0
VERTEX
  5
4A6
  8
DEFAULT
 62
     5
 10
-166.8621854437611
 20
227.0809679536699
 30
0.0
 42
0.0664798749578814
  0
VERTEX
  5
4A7
  8
DEFAULT
 62
     5
 10
-164.7267684062155
 20
226.4252968251522
 30
0.0
 42
-0.109521419337756
  0
VERTEX
  5
4A8
  8
DEFAULT
 62
     5
 10
-162.1769999760014
 20
225.3946256259908
 30
0.0
 42
-0.2284114958797517
  0
VERTEX
  5
4A9
  8
DEFAULT
 62
     5
 10
-161.4605651616953
 20
223.6781902465358
 30
0.0
 42
-0.2276229810650899
  0
VERTEX
  5
4AA
  8
DEFAULT
 62
     5
 10
-162.4536206112854
 20
221.6156898579958
 30
0.0
 42
-0.1809722242825372
  0
VERTEX
  5
4AB
  8
DEFAULT
 62
     5
 10
-165.3922770826648
 20
220.7534211805292
 30
0.0
 42
-0.1534212868272037
  0
VERTEX
  5
4AC
  8
DEFAULT
 62
     5
 10
-168.1879955141504
 20
221.4710139850526
 30
0.0
 42
-0.1853542620165839
  0
SEQEND
  5
4AD
  8
DEFAULT
 62
     5
  0
POLYLINE
  5
4AE
  8
DEFAULT
 62
     5
 66
     1
 10
0.0
 20
0.0
 30
0.0
 70
     1
  0
VERTEX
  5
4AF
  8
DEFAULT
 62
     5
 10
-159.6827873839175
 20
229.6423100694181
 30
0.0
  0
VERTEX
  5
4B0
  8
DEFAULT
 62
     5
 10
-157.6087133098434
 20
229.6423100694181
 30
0.0
  0
VERTEX
  5
4B1
  8
DEFAULT
 62
     5
 10
-157.6087133098434
 20
228.4675417098477
 30
0.0
 42
-0.2373869490350085
  0
VERTEX
  5
4B2
  8
DEFAULT
 62
     5
 10
-154.9131110164689
 20
229.8645322916403
 30
0.0
 42
-0.1315120310734907
  0
VERTEX
  5
4B3
  8
DEFAULT
 62
     5
 10
-153.4727175597636
 20
229.5173104226361
 30
0.0
 42
-0.1393853272244955
  0
VERTEX
  5
4B4
  8
DEFAULT
 62
     5
 10
-152.4709814221611
 20
228.4675417098477
 30
0.0
 42
-0.1018343532165887
  0
VERTEX
  5
4B5
  8
DEFAULT
 62
     5
 10
-151.2452869247339
 20
229.5173104226362
 30
0.0
 42
-0.123929667957148
  0
VERTEX
  5
4B6
  8
DEFAULT
 62
     5
 10
-149.8413512273825
 20
229.8645322916403
 30
0.0
 42
-0.1355305589141881
  0
VERTEX
  5
4B7
  8
DEFAULT
 62
     5
 10
-148.2337126740508
 20
229.4756436853259
 30
0.0
 42
-0.1623661969580677
  0
VERTEX
  5
4B8
  8
DEFAULT
 62
     5
 10
-147.2510734849266
 20
228.3344400875876
 30
0.0
 42
-0.091544281031453
  0
VERTEX
  5
4B9
  8
DEFAULT
 62
     5
 10
-147.0161207172508
 20
226.5335138084436
 30
0.0
  0
VERTEX
  5
4BA
  8
DEFAULT
 62
     5
 10
-147.0161207172508
 20
220.9756434027514
 30
0.0
  0
VERTEX
  5
4BB
  8
DEFAULT
 62
     5
 10
-149.3124170135471
 20
220.9756434027514
 30
0.0
  0
VERTEX
  5
4BC
  8
DEFAULT
 62
     5
 10
-149.3124170135471
 20
225.9316629456024
 30
0.0
 42
0.1141470137910729
  0
VERTEX
  5
4BD
  8
DEFAULT
 62
     5
 10
-149.5462123561546
 20
227.5971716220518
 30
0.0
 42
0.2721000606533431
  0
VERTEX
  5
4BE
  8
DEFAULT
 62
     5
 10
-150.5149624444591
 20
228.0867545138625
 30
0.0
 42
0.157563907146679
  0
VERTEX
  5
4BF
  8
DEFAULT
 62
     5
 10
-151.4102177363726
 20
227.7927730677028
 30
0.0
 42
0.1657627374474452
  0
VERTEX
  5
4C0
  8
DEFAULT
 62
     5
 10
-152.0155420047166
 20
226.9316623804534
 30
0.0
 42
0.072343748725489
  0
VERTEX
  5
4C1
  8
DEFAULT
 62
     5
 10
-152.201305902436
 20
225.1399955018559
 30
0.0
  0
VERTEX
  5
4C2
  8
DEFAULT
 62
     5
 10
-152.201305902436
 20
220.9756434027514
 30
0.0
  0
VERTEX
  5
4C3
  8
DEFAULT
 62
     5
 10
-154.4976021987323
 20
220.9756434027514
 30
0.0
  0
VERTEX
  5
4C4
  8
DEFAULT
 62
     5
 10
-154.4976021987323
 20
225.726800969107
 30
0.0
 42
0.0609892367975097
  0
VERTEX
  5
4C5
  8
DEFAULT
 62
     5
 10
-154.6173934327068
 20
227.3604815864757
 30
0.0
 42
0.1633931196985306
  0
VERTEX
  5
4C6
  8
DEFAULT
 62
     5
 10
-154.9894993755306
 20
227.9073564540189
 30
0.0
 42
0.1561218014296856
  0
VERTEX
  5
4C7
  8
DEFAULT
 62
     5
 10
-155.6735279833709
 20
228.0867545138625
 30
0.0
 42
0.1551837175468397
  0
VERTEX
  5
4C8
  8
DEFAULT
 62
     5
 10
-156.6104488822969
 20
227.800875043181
 30
0.0
 42
0.1670025847935013
  0
VERTEX
  5
4C9
  8
DEFAULT
 62
     5
 10
-157.2065137500945
 20
226.9762226804345
 30
0.0
 42
0.0722698594962287
  0
VERTEX
  5
4CA
  8
DEFAULT
 62
     5
 10
-157.3864910876212
 20
225.188607354725
 30
0.0
  0
VERTEX
  5
4CB
  8
DEFAULT
 62
     5
 10
-157.3864910876212
 20
220.9756434027514
 30
0.0
  0
VERTEX
  5
4CC
  8
DEFAULT
 62
     5
 10
-159.6827873839175
 20
220.9756434027514
 30
0.0
  0
SEQEND
  5
4CD
  8
DEFAULT
 62
     5
  0
POLYLINE
  5
4CE
  8
DEFAULT
 62
     5
 66
     1
 10
0.0
 20
0.0
 30
0.0
 70
     1
  0
VERTEX
  5
4CF
  8
DEFAULT
 62
     5
 10
-143.0161207172508
 20
226.9756434027514
 30
0.0
  0
VERTEX
  5
4D0
  8
DEFAULT
 62
     5
 10
-145.0901947913249
 20
227.2719396990477
 30
0.0
 42
-0.1714833175990317
  0
VERTEX
  5
4D1
  8
DEFAULT
 62
     5
 10
-143.9055877535249
 20
229.2291161018181
 30
0.0
 42
-0.1608829132837566
  0
VERTEX
  5
4D2
  8
DEFAULT
 62
     5
 10
-141.4084810336212
 20
229.8645322916403
 30
0.0
 42
-0.1088364278880808
  0
VERTEX
  5
4D3
  8
DEFAULT
 62
     5
 10
-139.167740575455
 20
229.5005277591456
 30
0.0
 42
-0.1580303644335048
  0
VERTEX
  5
4D4
  8
DEFAULT
 62
     5
 10
-138.131282250952
 20
228.575759258288
 30
0.0
 42
-0.1088017057953467
  0
VERTEX
  5
4D5
  8
DEFAULT
 62
     5
 10
-137.8309355320656
 20
226.5173109877851
 30
0.0
  0
VERTEX
  5
4D6
  8
DEFAULT
 62
     5
 10
-137.8309355320656
 20
223.8321255200255
 30
0.0
 42
0.0514080219695043
  0
VERTEX
  5
4D7
  8
DEFAULT
 62
     5
 10
-137.7059353201347
 20
222.1417316394584
 30
0.0
 42
0.0692287864232413
  0
VERTEX
  5
4D8
  8
DEFAULT
 62
     5
 10
-137.238342939473
 20
220.9756434027514
 30
0.0
  0
VERTEX
  5
4D9
  8
DEFAULT
 62
     5
 10
-139.5346392357693
 20
220.9756434027514
 30
0.0
  0
VERTEX
  5
4DA
  8
DEFAULT
 62
     5
 10
-139.7545466078549
 20
221.6469397696913
 30
0.0
  0
VERTEX
  5
4DB
  8
DEFAULT
 62
     5
 10
-139.835564102041
 20
221.9143015695777
 30
0.0
 42
-0.0933244186737859
  0
VERTEX
  5
4DC
  8
DEFAULT
 62
     5
 10
-141.0890373662565
 20
221.0439309166328
 30
0.0
 42
-0.1040133466925733
  0
VERTEX
  5
4DD
  8
DEFAULT
 62
     5
 10
-142.5138050193908
 20
220.7534211805292
 30
0.0
 42
-0.1965430357596639
  0
VERTEX
  5
4DE
  8
DEFAULT
 62
     5
 10
-144.6173934327068
 20
221.479694673065
 30
0.0
 42
-0.2154369487651249
  0
VERTEX
  5
4DF
  8
DEFAULT
 62
     5
 10
-145.3864910876212
 20
223.3159218516435
 30
0.0
 42
-0.1373780248023944
  0
VERTEX
  5
4E0
  8
DEFAULT
 62
     5
 10
-145.0438983537414
 20
224.6261066836106
 30
0.0
 42
-0.1473783213971386
  0
VERTEX
  5
4E1
  8
DEFAULT
 62
     5
 10
-144.0838283883002
 20
225.5074723095555
 30
0.0
 42
-0.0634404934847034
  0
VERTEX
  5
4E2
  8
DEFAULT
 62
     5
 10
-142.3031570478516
 20
226.0416160664962
 30
0.0
 42
0.0472009877729068
  0
VERTEX
  5
4E3
  8
DEFAULT
 62
     5
 10
-140.1272318283619
 20
226.605273032381
 30
0.0
  0
VERTEX
  5
4E4
  8
DEFAULT
 62
     5
 10
-140.1272318283619
 20
226.837912080218
 30
0.0
 42
0.2070921599656591
  0
VERTEX
  5
4E5
  8
DEFAULT
 62
     5
 10
-140.4345230976583
 20
227.7997176181127
 30
0.0
 42
0.1777887432708123
  0
VERTEX
  5
4E6
  8
DEFAULT
 62
     5
 10
-141.5948242090237
 20
228.0867545138625
 30
0.0
 42
0.1651091138038195
  0
VERTEX
  5
4E7
  8
DEFAULT
 62
     5
 10
-142.4935506458443
 20
227.8402269303547
 30
0.0
 42
0.1491587679877873
  0
SEQEND
  5
4E8
  8
DEFAULT
 62
     5
  0
POLYLINE
  5
4E9
  8
DEFAULT
 62
     5
 66
     1
 10
0.0
 20
0.0
 30
0.0
 70
     1
  0
VERTEX
  5
4EA
  8
DEFAULT
 62
     5
 10
-140.1272318283619
 20
225.1237915508995
 30
0.0
  0
VERTEX
  5
4EB
  8
DEFAULT
 62
     5
 10
-141.4640368717512
 20
224.7730974066905
 30
0.0
 42
0.0811165779561107
  0
VERTEX
  5
4EC
  8
DEFAULT
 62
     5
 10
-142.6596383174023
 20
224.3737925399102
 30
0.0
 42
0.2517191883486103
  0
VERTEX
  5
4ED
  8
DEFAULT
 62
     5
 10
-143.0901947913249
 20
223.5659222755053
 30
0.0
 42
0.2041672574556359
  0
VERTEX
  5
4EE
  8
DEFAULT
 62
     5
 10
-142.7464446323767
 20
222.7337455195168
 30
0.0
 42
0.2097521333283393
  0
VERTEX
  5
4EF
  8
DEFAULT
 62
     5
 10
-141.8702868540903
 20
222.3830508101588
 30
0.0
 42
0.1670482644845714
  0
VERTEX
  5
4F0
  8
DEFAULT
 62
     5
 10
-140.7371846666813
 20
222.7904587827151
 30
0.0
 42
0.1651612454991036
  0
VERTEX
  5
4F1
  8
DEFAULT
 62
     5
 10
-140.2128790228212
 20
223.5497183245489
 30
0.0
 42
0.0593667948163617
  0
VERTEX
  5
4F2
  8
DEFAULT
 62
     5
 10
-140.1272318283619
 20
224.6666165610016
 30
0.0
  0
SEQEND
  5
4F3
  8
DEFAULT
 62
     5
  0
POLYLINE
  5
4F4
  8
DEFAULT
 62
     5
 66
     1
 10
0.0
 20
0.0
 30
0.0
 70
     1
  0
VERTEX
  5
4F5
  8
DEFAULT
 62
     5
 10
-127.6087133098434
 20
220.9756434027514
 30
0.0
  0
VERTEX
  5
4F6
  8
DEFAULT
 62
     5
 10
-129.9050096061397
 20
220.9756434027514
 30
0.0
  0
VERTEX
  5
4F7
  8
DEFAULT
 62
     5
 10
-129.9050096061397
 20
225.4004127513324
 30
0.0
 42
0.0659043403441784
  0
VERTEX
  5
4F8
  8
DEFAULT
 62
     5
 10
-130.0496854790829
 20
227.2175424162839
 30
0.0
 42
0.1600130695765432
  0
VERTEX
  5
4F9
  8
DEFAULT
 62
     5
 10
-130.5195927098813
 20
227.8581670189135
 30
0.0
 42
0.1575149176297589
  0
VERTEX
  5
4FA
  8
DEFAULT
 62
     5
 10
-131.3020001879323
 20
228.0867545138624
 30
0.0
 42
0.1576987046345076
  0
VERTEX
  5
4FB
  8
DEFAULT
 62
     5
 10
-132.3535044731743
 20
227.760365730939
 30
0.0
 42
0.1684371822617191
  0
VERTEX
  5
4FC
  8
DEFAULT
 62
     5
 10
-132.9918147908162
 20
226.8952040559505
 30
0.0
 42
0.0659809918576815
  0
VERTEX
  5
4FD
  8
DEFAULT
 62
     5
 10
-133.164268865399
 20
224.9027267537456
 30
0.0
  0
VERTEX
  5
4FE
  8
DEFAULT
 62
     5
 10
-133.164268865399
 20
220.9756434027514
 30
0.0
  0
VERTEX
  5
4FF
  8
DEFAULT
 62
     5
 10
-135.4605651616953
 20
220.9756434027514
 30
0.0
  0
VERTEX
  5
500
  8
DEFAULT
 62
     5
 10
-135.4605651616953
 20
229.6423100694181
 30
0.0
  0
VERTEX
  5
501
  8
DEFAULT
 62
     5
 10
-133.3124170135471
 20
229.6423100694181
 30
0.0
  0
VERTEX
  5
502
  8
DEFAULT
 62
     5
 10
-133.3124170135471
 20
228.3784222401835
 30
0.0
 42
-0.2486296121988558
  0
VERTEX
  5
503
  8
DEFAULT
 62
     5
 10
-130.4883427981858
 20
229.8645322916403
 30
0.0
 42
-0.105316401560809
  0
VERTEX
  5
504
  8
DEFAULT
 62
     5
 10
-129.1173937152813
 20
229.5902270716419
 30
0.0
 42
-0.129219171708864
  0
VERTEX
  5
505
  8
DEFAULT
 62
     5
 10
-128.1775786885356
 20
228.8905743556774
 30
0.0
 42
-0.1054932374262029
  0
VERTEX
  5
506
  8
DEFAULT
 62
     5
 10
-127.7337129566253
 20
227.9247178300435
 30
0.0
 42
-0.0533641385177026
  0
VERTEX
  5
507
  8
DEFAULT
 62
     5
 10
-127.6087133098434
 20
226.3772648151151
 30
0.0
  0
SEQEND
  5
508
  8
DEFAULT
 62
     5
  0
POLYLINE
  5
509
  8
DEFAULT
 62
     5
 66
     1
 10
0.0
 20
0.0
 30
0.0
 70
     1
  0
VERTEX
  5
50A
  8
DEFAULT
 62
     5
 10
-126.1272318283619
 20
223.4200878471958
 30
0.0
  0
VERTEX
  5
50B
  8
DEFAULT
 62
     5
 10
-123.8309355320656
 20
223.7163841434921
 30
0.0
 42
0.1817134537413108
  0
VERTEX
  5
50C
  8
DEFAULT
 62
     5
 10
-123.2366062367216
 20
222.7221712688337
 30
0.0
 42
0.1637490318832734
  0
VERTEX
  5
50D
  8
DEFAULT
 62
     5
 10
-121.9848696752574
 20
222.3830508101587
 30
0.0
 42
0.1581548590316011
  0
VERTEX
  5
50E
  8
DEFAULT
 62
     5
 10
-120.6503789168557
 20
222.7152272835728
 30
0.0
 42
0.2454173628753079
  0
VERTEX
  5
50F
  8
DEFAULT
 62
     5
 10
-120.3494540505841
 20
223.3379129279415
 30
0.0
 42
0.1967133408659047
  0
VERTEX
  5
510
  8
DEFAULT
 62
     5
 10
-120.5126475943224
 20
223.7777276721126
 30
0.0
 42
0.115248044176242
  0
VERTEX
  5
511
  8
DEFAULT
 62
     5
 10
-121.2811665367027
 20
224.0844407940238
 30
0.0
 42
-0.0750101977649489
  0
VERTEX
  5
512
  8
DEFAULT
 62
     5
 10
-124.8019993402089
 20
225.2175418511349
 30
0.0
 42
-0.2630575377237164
  0
VERTEX
  5
513
  8
DEFAULT
 62
     5
 10
-125.8309355320656
 20
227.1828202293835
 30
0.0
 42
-0.2278055359033971
  0
VERTEX
  5
514
  8
DEFAULT
 62
     5
 10
-124.9414679306426
 20
229.0913842141357
 30
0.0
 42
-0.1789409577799249
  0
VERTEX
  5
515
  8
DEFAULT
 62
     5
 10
-122.1839445264113
 20
229.8645322916403
 30
0.0
 42
-0.1478680227512921
  0
VERTEX
  5
516
  8
DEFAULT
 62
     5
 10
-119.5404257959619
 20
229.2655744263209
 30
0.0
 42
-0.1798681362132242
  0
VERTEX
  5
517
  8
DEFAULT
 62
     5
 10
-118.3494540505842
 20
227.4941619212699
 30
0.0
  0
VERTEX
  5
518
  8
DEFAULT
 62
     5
 10
-120.4976021987323
 20
227.1237915508995
 30
0.0
 42
0.1762609448244156
  0
VERTEX
  5
519
  8
DEFAULT
 62
     5
 10
-121.0230647025118
 20
227.948444478795
 30
0.0
 42
0.1598214678236618
  0
VERTEX
  5
51A
  8
DEFAULT
 62
     5
 10
-122.1272318283619
 20
228.2349026620106
 30
0.0
 42
0.137185548785749
  0
VERTEX
  5
51B
  8
DEFAULT
 62
     5
 10
-123.4223701344409
 20
227.977958818037
 30
0.0
 42
0.2593740206710035
  0
VERTEX
  5
51C
  8
DEFAULT
 62
     5
 10
-123.6827873839175
 20
227.5045787468847
 30
0.0
 42
0.2456185528239395
  0
VERTEX
  5
51D
  8
DEFAULT
 62
     5
 10
-123.4547780363537
 20
227.0809679536699
 30
0.0
 42
0.0664798749578815
  0
VERTEX
  5
51E
  8
DEFAULT
 62
     5
 10
-121.319360998808
 20
226.4252968251522
 30
0.0
 42
-0.1095214193377617
  0
VERTEX
  5
51F
  8
DEFAULT
 62
     5
 10
-118.769592568594
 20
225.3946256259908
 30
0.0
 42
-0.2284114958797729
  0
VERTEX
  5
520
  8
DEFAULT
 62
     5
 10
-118.0531577542879
 20
223.6781902465358
 30
0.0
 42
-0.2276229810650808
  0
VERTEX
  5
521
  8
DEFAULT
 62
     5
 10
-119.046213203878
 20
221.6156898579958
 30
0.0
 42
-0.180972224282535
  0
VERTEX
  5
522
  8
DEFAULT
 62
     5
 10
-121.9848696752574
 20
220.7534211805292
 30
0.0
 42
-0.1534212868271961
  0
VERTEX
  5
523
  8
DEFAULT
 62
     5
 10
-124.780588106743
 20
221.4710139850527
 30
0.0
 42
-0.1853542620165854
  0
SEQEND
  5
524
  8
DEFAULT
 62
     5
  0
POLYLINE
  5
525
  8
DEFAULT
 62
     5
 66
     1
 10
0.0
 20
0.0
 30
0.0
 70
     1
  0
VERTEX
  5
526
  8
DEFAULT
 62
     5
 10
-116.0531577542878
 20
229.6423100694181
 30
0.0
  0
VERTEX
  5
527
  8
DEFAULT
 62
     5
 10
-113.9050096061397
 20
229.6423100694181
 30
0.0
  0
VERTEX
  5
528
  8
DEFAULT
 62
     5
 10
-113.9050096061397
 20
228.3784222401835
 30
0.0
 42
-0.1189653659007511
  0
VERTEX
  5
529
  8
DEFAULT
 62
     5
 10
-112.7956340674821
 20
229.4455511986987
 30
0.0
 42
-0.1382105598910194
  0
VERTEX
  5
52A
  8
DEFAULT
 62
     5
 10
-111.2441289345167
 20
229.8645322916403
 30
0.0
 42
-0.2273648758850266
  0
VERTEX
  5
52B
  8
DEFAULT
 62
     5
 10
-108.7198244209545
 20
228.6741392587967
 30
0.0
 42
-0.1838682188936192
  0
VERTEX
  5
52C
  8
DEFAULT
 62
     5
 10
-107.6827873839175
 20
225.3587454488732
 30
0.0
 42
-0.1823656645300201
  0
VERTEX
  5
52D
  8
DEFAULT
 62
     5
 10
-108.7285045438179
 20
221.9640697172172
 30
0.0
 42
-0.2285594541574855
  0
VERTEX
  5
52E
  8
DEFAULT
 62
     5
 10
-111.2626477356097
 20
220.7534211805292
 30
0.0
 42
-0.1163198006807439
  0
VERTEX
  5
52F
  8
DEFAULT
 62
     5
 10
-112.5462129213035
 20
221.036986366223
 30
0.0
 42
-0.0904152380777716
  0
VERTEX
  5
530
  8
DEFAULT
 62
     5
 10
-113.7568614579916
 20
222.0092092948814
 30
0.0
  0
VERTEX
  5
531
  8
DEFAULT
 62
     5
 10
-113.7568614579916
 20
217.6423100694181
 30
0.0
  0
VERTEX
  5
532
  8
DEFAULT
 62
     5
 10
-116.0531577542878
 20
217.6423100694181
 30
0.0
  0
SEQEND
  5
533
  8
DEFAULT
 62
     5
  0
POLYLINE
  5
534
  8
DEFAULT
 62
     5
 66
     1
 10
0.0
 20
0.0
 30
0.0
 70
     1
  0
VERTEX
  5
535
  8
DEFAULT
 62
     5
 10
-113.7568614579916
 20
225.4548105992452
 30
0.0
 42
0.1662127852120699
  0
VERTEX
  5
536
  8
DEFAULT
 62
     5
 10
-113.1885742266845
 20
223.2453194876254
 30
0.0
 42
0.2404461653497732
  0
VERTEX
  5
537
  8
DEFAULT
 62
     5
 10
-111.8043147554944
 20
222.5311989583069
 30
0.0
 42
0.2413239634426698
  0
VERTEX
  5
538
  8
DEFAULT
 62
     5
 10
-110.4993377711858
 20
223.1868706519735
 30
0.0
 42
0.1627449374921638
  0
VERTEX
  5
539
  8
DEFAULT
 62
     5
 10
-109.9790836802137
 20
225.3379129279415
 30
0.0
 42
0.1661976731382251
  0
VERTEX
  5
53A
  8
DEFAULT
 62
     5
 10
-110.5155417221422
 20
227.4102502992642
 30
0.0
 42
0.2412377667960066
  0
VERTEX
  5
53B
  8
DEFAULT
 62
     5
 10
-111.8436660775192
 20
228.0867545138625
 30
0.0
 42
0.236742212932173
  0
VERTEX
  5
53C
  8
DEFAULT
 62
     5
 10
-113.2128795879702
 20
227.4224026973324
 30
0.0
 42
0.1723447809989145
  0
SEQEND
  5
53D
  8
DEFAULT
 62
     5
  0
POLYLINE
  5
53E
  8
DEFAULT
 62
     5
 66
     1
 10
0.0
 20
0.0
 30
0.0
 70
     1
  0
VERTEX
  5
53F
  8
DEFAULT
 62
     5
 10
-104.201305902436
 20
226.9756434027514
 30
0.0
  0
VERTEX
  5
540
  8
DEFAULT
 62
     5
 10
-106.2753799765101
 20
227.2719396990477
 30
0.0
 42
-0.1714833175990338
  0
VERTEX
  5
541
  8
DEFAULT
 62
     5
 10
-105.0907729387101
 20
229.2291161018181
 30
0.0
 42
-0.1608829132837571
  0
VERTEX
  5
542
  8
DEFAULT
 62
     5
 10
-102.5936662188064
 20
229.8645322916403
 30
0.0
 42
-0.1088364278880856
  0
VERTEX
  5
543
  8
DEFAULT
 62
     5
 10
-100.3529257606401
 20
229.5005277591457
 30
0.0
 42
-0.1580303644335086
  0
VERTEX
  5
544
  8
DEFAULT
 62
     5
 10
-99.31646743613729
 20
228.575759258288
 30
0.0
 42
-0.1088017057953535
  0
VERTEX
  5
545
  8
DEFAULT
 62
     5
 10
-99.01612071725084
 20
226.5173109877851
 30
0.0
  0
VERTEX
  5
546
  8
DEFAULT
 62
     5
 10
-99.01612071725083
 20
223.8321255200255
 30
0.0
 42
0.0514080219695468
  0
VERTEX
  5
547
  8
DEFAULT
 62
     5
 10
-98.8911205053199
 20
222.1417316394584
 30
0.0
 42
0.0692287864232876
  0
VERTEX
  5
548
  8
DEFAULT
 62
     5
 10
-98.42352812465822
 20
220.9756434027514
 30
0.0
  0
VERTEX
  5
549
  8
DEFAULT
 62
     5
 10
-100.7198244209545
 20
220.9756434027514
 30
0.0
  0
VERTEX
  5
54A
  8
DEFAULT
 62
     5
 10
-100.9397317930401
 20
221.6469397696913
 30
0.0
  0
VERTEX
  5
54B
  8
DEFAULT
 62
     5
 10
-101.0207492872262
 20
221.9143015695777
 30
0.0
 42
-0.093324418673798
  0
VERTEX
  5
54C
  8
DEFAULT
 62
     5
 10
-102.2742225514418
 20
221.0439309166329
 30
0.0
 42
-0.1040133466925812
  0
VERTEX
  5
54D
  8
DEFAULT
 62
     5
 10
-103.6989902045759
 20
220.7534211805292
 30
0.0
 42
-0.1965430357596552
  0
VERTEX
  5
54E
  8
DEFAULT
 62
     5
 10
-105.802578617892
 20
221.479694673065
 30
0.0
 42
-0.2154369487651162
  0
VERTEX
  5
54F
  8
DEFAULT
 62
     5
 10
-106.5716762728064
 20
223.3159218516435
 30
0.0
 42
-0.1373780248024285
  0
VERTEX
  5
550
  8
DEFAULT
 62
     5
 10
-106.2290835389265
 20
224.6261066836106
 30
0.0
 42
-0.14737832139715
  0
VERTEX
  5
551
  8
DEFAULT
 62
     5
 10
-105.2690135734854
 20
225.5074723095555
 30
0.0
 42
-0.0634404934847194
  0
VERTEX
  5
552
  8
DEFAULT
 62
     5
 10
-103.4883422330369
 20
226.0416160664962
 30
0.0
 42
0.0472009877729212
  0
VERTEX
  5
553
  8
DEFAULT
 62
     5
 10
-101.3124170135471
 20
226.605273032381
 30
0.0
  0
VERTEX
  5
554
  8
DEFAULT
 62
     5
 10
-101.3124170135471
 20
226.837912080218
 30
0.0
 42
0.2070921599656326
  0
VERTEX
  5
555
  8
DEFAULT
 62
     5
 10
-101.6197082828434
 20
227.7997176181127
 30
0.0
 42
0.1777887432707971
  0
VERTEX
  5
556
  8
DEFAULT
 62
     5
 10
-102.7800093942088
 20
228.0867545138625
 30
0.0
 42
0.1651091138038146
  0
VERTEX
  5
557
  8
DEFAULT
 62
     5
 10
-103.6787358310294
 20
227.8402269303547
 30
0.0
 42
0.1491587679877884
  0
SEQEND
  5
558
  8
DEFAULT
 62
     5
  0
POLYLINE
  5
559
  8
DEFAULT
 62
     5
 66
     1
 10
0.0
 20
0.0
 30
0.0
 70
     1
  0
VERTEX
  5
55A
  8
DEFAULT
 62
     5
 10
-101.3124170135471
 20
225.1237915508995
 30
0.0
  0
VERTEX
  5
55B
  8
DEFAULT
 62
     5
 10
-102.6492220569364
 20
224.7730974066905
 30
0.0
 42
0.0811165779561048
  0
VERTEX
  5
55C
  8
DEFAULT
 62
     5
 10
-103.8448235025875
 20
224.3737925399102
 30
0.0
 42
0.2517191883486183
  0
VERTEX
  5
55D
  8
DEFAULT
 62
     5
 10
-104.2753799765101
 20
223.5659222755053
 30
0.0
 42
0.2041672574556484
  0
VERTEX
  5
55E
  8
DEFAULT
 62
     5
 10
-103.9316298175619
 20
222.7337455195168
 30
0.0
 42
0.2097521333283179
  0
VERTEX
  5
55F
  8
DEFAULT
 62
     5
 10
-103.0554720392755
 20
222.3830508101588
 30
0.0
 42
0.1670482644845869
  0
VERTEX
  5
560
  8
DEFAULT
 62
     5
 10
-101.9223698518665
 20
222.7904587827151
 30
0.0
 42
0.16516124549916
  0
VERTEX
  5
561
  8
DEFAULT
 62
     5
 10
-101.3980642080064
 20
223.5497183245489
 30
0.0
 42
0.0593667948163616
  0
VERTEX
  5
562
  8
DEFAULT
 62
     5
 10
-101.3124170135471
 20
224.6666165610016
 30
0.0
  0
SEQEND
  5
563
  8
DEFAULT
 62
     5
  0
POLYLINE
  5
564
  8
DEFAULT
 62
     5
 66
     1
 10
0.0
 20
0.0
 30
0.0
 70
     1
  0
VERTEX
  5
565
  8
DEFAULT
 62
     5
 10
-89.16426886539898
 20
227.1237915508995
 30
0.0
  0
VERTEX
  5
566
  8
DEFAULT
 62
     5
 10
-91.46056516169529
 20
226.7534211805292
 30
0.0
 42
0.1809968098175286
  0
VERTEX
  5
567
  8
DEFAULT
 62
     5
 10
-91.9732959897233
 20
227.7516856080756
 30
0.0
 42
0.1804760167669942
  0
VERTEX
  5
568
  8
DEFAULT
 62
     5
 10
-93.01033359190922
 20
228.0867545138625
 30
0.0
 42
0.2329674834671363
  0
VERTEX
  5
569
  8
DEFAULT
 62
     5
 10
-94.36334258625494
 20
227.4849030858724
 30
0.0
 42
0.1695179555120364
  0
VERTEX
  5
56A
  8
DEFAULT
 62
     5
 10
-94.86797256910268
 20
225.4710145502016
 30
0.0
 42
0.1610966817175075
  0
VERTEX
  5
56B
  8
DEFAULT
 62
     5
 10
-94.35118962303765
 20
223.2528427505695
 30
0.0
 42
0.2405540491094358
  0
VERTEX
  5
56C
  8
DEFAULT
 62
     5
 10
-92.96403658917677
 20
222.605273032381
 30
0.0
 42
0.1883458441869487
  0
VERTEX
  5
56D
  8
DEFAULT
 62
     5
 10
-91.89864320311506
 20
222.9721716926954
 30
0.0
 42
0.1622604489948477
  0
VERTEX
  5
56E
  8
DEFAULT
 62
     5
 10
-91.31241701354715
 20
224.2349026620106
 30
0.0
  0
VERTEX
  5
56F
  8
DEFAULT
 62
     5
 10
-89.01612071725084
 20
223.9386063657144
 30
0.0
 42
-0.1724509721436207
  0
VERTEX
  5
570
  8
DEFAULT
 62
     5
 10
-90.35755546091337
 20
221.5578197348781
 30
0.0
 42
-0.1746967243539216
  0
VERTEX
  5
571
  8
DEFAULT
 62
     5
 10
-93.01727701202117
 20
220.7534211805292
 30
0.0
 42
-0.2163976905724449
  0
VERTEX
  5
572
  8
DEFAULT
 62
     5
 10
-96.03811122839979
 20
221.9600187294782
 30
0.0
 42
-0.1943870566321008
  0
VERTEX
  5
573
  8
DEFAULT
 62
     5
 10
-97.16426886539898
 20
225.3008753257555
 30
0.0
 42
-0.1945054615972524
  0
VERTEX
  5
574
  8
DEFAULT
 62
     5
 10
-96.03868994093398
 20
228.6619862955793
 30
0.0
 42
-0.2157801631579799
  0
VERTEX
  5
575
  8
DEFAULT
 62
     5
 10
-92.9941296409529
 20
229.8645322916403
 30
0.0
 42
-0.1599423076958007
  0
VERTEX
  5
576
  8
DEFAULT
 62
     5
 10
-90.49644420851502
 20
229.1874493645078
 30
0.0
 42
-0.1682635697126204
  0
SEQEND
  5
577
  8
DEFAULT
 62
     5
  0
POLYLINE
  5
578
  8
DEFAULT
 62
     5
 66
     1
 10
0.0
 20
0.0
 30
0.0
 70
     1
  0
VERTEX
  5
579
  8
DEFAULT
 62
     5
 10
-82.34945405058414
 20
223.7163841434921
 30
0.0
  0
VERTEX
  5
57A
  8
DEFAULT
 62
     5
 10
-80.05315775428788
 20
223.4200878471958
 30
0.0
 42
-0.1601948643917636
  0
VERTEX
  5
57B
  8
DEFAULT
 62
     5
 10
-81.44899091101217
 20
221.4351343730839
 30
0.0
 42
-0.1590209405814545
  0
VERTEX
  5
57C
  8
DEFAULT
 62
     5
 10
-83.83672152710926
 20
220.7534211805292
 30
0.0
 42
-0.2510606897924135
  0
VERTEX
  5
57D
  8
DEFAULT
 62
     5
 10
-87.19320336180886
 20
222.2395323622839
 30
0.0
 42
-0.1603231689598328
  0
VERTEX
  5
57E
  8
DEFAULT
 62
     5
 10
-88.0531577542879
 20
225.2430052026378
 30
0.0
 42
-0.1928988919450744
  0
VERTEX
  5
57F
  8
DEFAULT
 62
     5
 10
-86.91947685434467
 20
228.6376809342937
 30
0.0
 42
-0.2186957110499428
  0
VERTEX
  5
580
  8
DEFAULT
 62
     5
 10
-84.0531577542879
 20
229.8645322916403
 30
0.0
 42
-0.2248762650829939
  0
VERTEX
  5
581
  8
DEFAULT
 62
     5
 10
-80.98139796520142
 20
228.5884909340395
 30
0.0
 42
-0.1866850592647482
  0
VERTEX
  5
582
  8
DEFAULT
 62
     5
 10
-79.90500960613973
 20
224.6793471064551
 30
0.0
  0
VERTEX
  5
583
  8
DEFAULT
 62
     5
 10
-85.7568614579916
 20
224.6793471064551
 30
0.0
 42
0.1907233177560985
  0
VERTEX
  5
584
  8
DEFAULT
 62
     5
 10
-85.19030979913803
 20
223.0965926269431
 30
0.0
 42
0.2135192120775466
  0
VERTEX
  5
585
  8
DEFAULT
 62
     5
 10
-83.84019380231422
 20
222.5311989583069
 30
0.0
 42
0.1657236937101089
  0
VERTEX
  5
586
  8
DEFAULT
 62
     5
 10
-82.91600457913972
 20
222.81187058133
 30
0.0
 42
0.1589948514629822
  0
SEQEND
  5
587
  8
DEFAULT
 62
     5
  0
POLYLINE
  5
588
  8
DEFAULT
 62
     5
 66
     1
 10
0.0
 20
0.0
 30
0.0
 70
     1
  0
VERTEX
  5
589
  8
DEFAULT
 62
     5
 10
-82.20130590243599
 20
226.0867545138625
 30
0.0
 42
0.1931771868552368
  0
VERTEX
  5
58A
  8
DEFAULT
 62
     5
 10
-82.7285045438179
 20
227.5769166833563
 30
0.0
 42
0.2094545272841139
  0
VERTEX
  5
58B
  8
DEFAULT
 62
     5
 10
-83.95014805350593
 20
228.0867545138625
 30
0.0
 42
0.2175151257022543
  0
VERTEX
  5
58C
  8
DEFAULT
 62
     5
 10
-85.22213898851669
 20
227.5485608994806
 30
0.0
 42
0.1974850402976494
  0
VERTEX
  5
58D
  8
DEFAULT
 62
     5
 10
-85.71635158060063
 20
226.0867545138625
 30
0.0
  0
SEQEND
  5
58E
  8
DEFAULT
 62
     5
  0
POLYLINE
  5
58F
  8
DEFAULT
 62
     5
 66
     1
 10
0.0
 20
0.0
 30
0.0
 70
     1
  0
VERTEX
  5
590
  8
DEFAULT
 62
     5
 10
-78.20130590243599
 20
220.9756434027514
 30
0.0
  0
VERTEX
  5
591
  8
DEFAULT
 62
     5
 10
-78.20130590243599
 20
223.2719396990477
 30
0.0
  0
VERTEX
  5
592
  8
DEFAULT
 62
     5
 10
-75.90500960613974
 20
223.2719396990477
 30
0.0
  0
VERTEX
  5
593
  8
DEFAULT
 62
     5
 10
-75.90500960613974
 20
220.9756434027514
 30
0.0
  0
SEQEND
  5
594
  8
DEFAULT
 62
     5
  0
POLYLINE
  5
595
  8
DEFAULT
 62
     5
 66
     1
 10
0.0
 20
0.0
 30
0.0
 70
     1
  0
VERTEX
  5
596
  8
DEFAULT
 62
     5
 10
-66.0531577542879
 20
227.1237915508995
 30
0.0
  0
VERTEX
  5
597
  8
DEFAULT
 62
     5
 10
-68.34945405058414
 20
226.7534211805292
 30
0.0
 42
0.1809968098175349
  0
VERTEX
  5
598
  8
DEFAULT
 62
     5
 10
-68.86218487861215
 20
227.7516856080756
 30
0.0
 42
0.1804760167669692
  0
VERTEX
  5
599
  8
DEFAULT
 62
     5
 10
-69.89922248079813
 20
228.0867545138624
 30
0.0
 42
0.2329674834671443
  0
VERTEX
  5
59A
  8
DEFAULT
 62
     5
 10
-71.25223147514386
 20
227.4849030858724
 30
0.0
 42
0.1695179555120361
  0
VERTEX
  5
59B
  8
DEFAULT
 62
     5
 10
-71.7568614579916
 20
225.4710145502016
 30
0.0
 42
0.1610966817175204
  0
VERTEX
  5
59C
  8
DEFAULT
 62
     5
 10
-71.24007851192651
 20
223.2528427505695
 30
0.0
 42
0.2405540491094454
  0
VERTEX
  5
59D
  8
DEFAULT
 62
     5
 10
-69.85292547806569
 20
222.605273032381
 30
0.0
 42
0.1883458441869608
  0
VERTEX
  5
59E
  8
DEFAULT
 62
     5
 10
-68.7875320920039
 20
222.9721716926954
 30
0.0
 42
0.1622604489948056
  0
VERTEX
  5
59F
  8
DEFAULT
 62
     5
 10
-68.20130590243599
 20
224.2349026620106
 30
0.0
  0
VERTEX
  5
5A0
  8
DEFAULT
 62
     5
 10
-65.90500960613973
 20
223.9386063657144
 30
0.0
 42
-0.1724509721436026
  0
VERTEX
  5
5A1
  8
DEFAULT
 62
     5
 10
-67.24644434980225
 20
221.5578197348781
 30
0.0
 42
-0.1746967243539284
  0
VERTEX
  5
5A2
  8
DEFAULT
 62
     5
 10
-69.90616590091008
 20
220.7534211805292
 30
0.0
 42
-0.2163976905724466
  0
VERTEX
  5
5A3
  8
DEFAULT
 62
     5
 10
-72.92700011728867
 20
221.9600187294781
 30
0.0
 42
-0.1943870566321036
  0
VERTEX
  5
5A4
  8
DEFAULT
 62
     5
 10
-74.05315775428788
 20
225.3008753257555
 30
0.0
 42
-0.1945054615972615
  0
VERTEX
  5
5A5
  8
DEFAULT
 62
     5
 10
-72.92757882982283
 20
228.6619862955793
 30
0.0
 42
-0.2157801631579974
  0
VERTEX
  5
5A6
  8
DEFAULT
 62
     5
 10
-69.88301852984176
 20
229.8645322916403
 30
0.0
 42
-0.1599423076957829
  0
VERTEX
  5
5A7
  8
DEFAULT
 62
     5
 10
-67.38533309740394
 20
229.1874493645078
 30
0.0
 42
-0.1682635697126223
  0
SEQEND
  5
5A8
  8
DEFAULT
 62
     5
  0
POLYLINE
  5
5A9
  8
DEFAULT
 62
     5
 66
     1
 10
0.0
 20
0.0
 30
0.0
 70
     1
  0
VERTEX
  5
5AA
  8
DEFAULT
 62
     5
 10
-64.7938984950286
 20
225.431662097879
 30
0.0
 42
-0.1222574291832648
  0
VERTEX
  5
5AB
  8
DEFAULT
 62
     5
 10
-64.23429195173398
 20
227.6561997353868
 30
0.0
 42
-0.1509199207835834
  0
VERTEX
  5
5AC
  8
DEFAULT
 62
     5
 10
-62.64864334440227
 20
229.2979817630847
 30
0.0
 42
-0.1287246067144098
  0
VERTEX
  5
5AD
  8
DEFAULT
 62
     5
 10
-60.35755489576445
 20
229.8645322916403
 30
0.0
 42
-0.2109274079128477
  0
VERTEX
  5
5AE
  8
DEFAULT
 62
     5
 10
-57.15385203978416
 20
228.5798102460271
 30
0.0
 42
-0.2026212639801729
  0
VERTEX
  5
5AF
  8
DEFAULT
 62
     5
 10
-55.90500960613975
 20
225.3332832276683
 30
0.0
 42
-0.20222959733232
  0
VERTEX
  5
5B0
  8
DEFAULT
 62
     5
 10
-57.16600443785251
 20
222.0543471770987
 30
0.0
 42
-0.2115506096600904
  0
VERTEX
  5
5B1
  8
DEFAULT
 62
     5
 10
-60.34135207510599
 20
220.7534211805291
 30
0.0
 42
-0.1188796278362078
  0
VERTEX
  5
5B2
  8
DEFAULT
 62
     5
 10
-62.60003262183109
 20
221.2950882004139
 30
0.0
 42
-0.1582355798320387
  0
VERTEX
  5
5B3
  8
DEFAULT
 62
     5
 10
-64.23429195173392
 20
222.8836303704164
 30
0.0
 42
-0.1239053267140448
  0
SEQEND
  5
5B4
  8
DEFAULT
 62
     5
  0
POLYLINE
  5
5B5
  8
DEFAULT
 62
     5
 66
     1
 10
0.0
 20
0.0
 30
0.0
 70
     1
  0
VERTEX
  5
5B6
  8
DEFAULT
 62
     5
 10
-62.4976021987323
 20
225.3089773012337
 30
0.0
 42
0.1807696907208177
  0
VERTEX
  5
5B7
  8
DEFAULT
 62
     5
 10
-61.89806505572982
 20
223.3020327508238
 30
0.0
 42
0.2292871242715325
  0
VERTEX
  5
5B8
  8
DEFAULT
 62
     5
 10
-60.42005584945332
 20
222.605273032381
 30
0.0
 42
0.2303193461660699
  0
VERTEX
  5
5B9
  8
DEFAULT
 62
     5
 10
-58.94493964069857
 20
223.3020327508238
 30
0.0
 42
0.1794408075869849
  0
VERTEX
  5
5BA
  8
DEFAULT
 62
     5
 10
-58.34945405058419
 20
225.32518125219
 30
0.0
 42
0.1800932450793976
  0
VERTEX
  5
5BB
  8
DEFAULT
 62
     5
 10
-58.94493964069859
 20
227.3159212864946
 30
0.0
 42
0.230319226720601
  0
VERTEX
  5
5BC
  8
DEFAULT
 62
     5
 10
-60.42005584945332
 20
228.0126804397884
 30
0.0
 42
0.229287005070748
  0
VERTEX
  5
5BD
  8
DEFAULT
 62
     5
 10
-61.89806505572982
 20
227.3159212864946
 30
0.0
 42
0.1807697890868642
  0
SEQEND
  5
5BE
  8
DEFAULT
 62
     5
  0
POLYLINE
  5
5BF
  8
DEFAULT
 62
     5
 66
     1
 10
0.0
 20
0.0
 30
0.0
 70
     1
  0
VERTEX
  5
5C0
  8
DEFAULT
 62
     5
 10
-54.34945405058414
 20
229.6423100694181
 30
0.0
  0
VERTEX
  5
5C1
  8
DEFAULT
 62
     5
 10
-52.27537997651007
 20
229.6423100694181
 30
0.0
  0
VERTEX
  5
5C2
  8
DEFAULT
 62
     5
 10
-52.27537997651007
 20
228.4675417098477
 30
0.0
 42
-0.2373869490350206
  0
VERTEX
  5
5C3
  8
DEFAULT
 62
     5
 10
-49.5797776831356
 20
229.8645322916403
 30
0.0
 42
-0.131512031073493
  0
VERTEX
  5
5C4
  8
DEFAULT
 62
     5
 10
-48.13938422643025
 20
229.5173104226361
 30
0.0
 42
-0.1393853272244733
  0
VERTEX
  5
5C5
  8
DEFAULT
 62
     5
 10
-47.13764808882773
 20
228.4675417098476
 30
0.0
 42
-0.1018343532166102
  0
VERTEX
  5
5C6
  8
DEFAULT
 62
     5
 10
-45.91195359140062
 20
229.5173104226361
 30
0.0
 42
-0.1239296679571487
  0
VERTEX
  5
5C7
  8
DEFAULT
 62
     5
 10
-44.5080178940492
 20
229.8645322916403
 30
0.0
 42
-0.1355305589141794
  0
VERTEX
  5
5C8
  8
DEFAULT
 62
     5
 10
-42.90037934071751
 20
229.4756436853259
 30
0.0
 42
-0.1623661969580673
  0
VERTEX
  5
5C9
  8
DEFAULT
 62
     5
 10
-41.91774015159321
 20
228.3344400875876
 30
0.0
 42
-0.091544281031446
  0
VERTEX
  5
5CA
  8
DEFAULT
 62
     5
 10
-41.68278738391746
 20
226.5335138084436
 30
0.0
  0
VERTEX
  5
5CB
  8
DEFAULT
 62
     5
 10
-41.68278738391746
 20
220.9756434027514
 30
0.0
  0
VERTEX
  5
5CC
  8
DEFAULT
 62
     5
 10
-43.97908368021376
 20
220.9756434027514
 30
0.0
  0
VERTEX
  5
5CD
  8
DEFAULT
 62
     5
 10
-43.97908368021377
 20
225.9316629456024
 30
0.0
 42
0.1141470137910832
  0
VERTEX
  5
5CE
  8
DEFAULT
 62
     5
 10
-44.21287902282121
 20
227.5971716220518
 30
0.0
 42
0.2721000606533557
  0
VERTEX
  5
5CF
  8
DEFAULT
 62
     5
 10
-45.18162911112574
 20
228.0867545138625
 30
0.0
 42
0.1575639071466613
  0
VERTEX
  5
5D0
  8
DEFAULT
 62
     5
 10
-46.07688440303927
 20
227.7927730677028
 30
0.0
 42
0.1657627374474074
  0
VERTEX
  5
5D1
  8
DEFAULT
 62
     5
 10
-46.68220867138336
 20
226.9316623804534
 30
0.0
 42
0.0723437487254935
  0
VERTEX
  5
5D2
  8
DEFAULT
 62
     5
 10
-46.86797256910267
 20
225.1399955018559
 30
0.0
  0
VERTEX
  5
5D3
  8
DEFAULT
 62
     5
 10
-46.86797256910268
 20
220.9756434027514
 30
0.0
  0
VERTEX
  5
5D4
  8
DEFAULT
 62
     5
 10
-49.16426886539898
 20
220.9756434027514
 30
0.0
  0
VERTEX
  5
5D5
  8
DEFAULT
 62
     5
 10
-49.16426886539897
 20
225.726800969107
 30
0.0
 42
0.0609892367974919
  0
VERTEX
  5
5D6
  8
DEFAULT
 62
     5
 10
-49.28406009937345
 20
227.3604815864757
 30
0.0
 42
0.1633931196985974
  0
VERTEX
  5
5D7
  8
DEFAULT
 62
     5
 10
-49.65616604219736
 20
227.9073564540189
 30
0.0
 42
0.1561218014296844
  0
VERTEX
  5
5D8
  8
DEFAULT
 62
     5
 10
-50.34019465003769
 20
228.0867545138625
 30
0.0
 42
0.155183717546804
  0
VERTEX
  5
5D9
  8
DEFAULT
 62
     5
 10
-51.2771155489636
 20
227.800875043181
 30
0.0
 42
0.1670025847935181
  0
VERTEX
  5
5DA
  8
DEFAULT
 62
     5
 10
-51.87318041676107
 20
226.9762226804345
 30
0.0
 42
0.0722698594962775
  0
VERTEX
  5
5DB
  8
DEFAULT
 62
     5
 10
-52.05315775428788
 20
225.188607354725
 30
0.0
  0
VERTEX
  5
5DC
  8
DEFAULT
 62
     5
 10
-52.05315775428789
 20
220.9756434027514
 30
0.0
  0
VERTEX
  5
5DD
  8
DEFAULT
 62
     5
 10
-54.34945405058414
 20
220.9756434027514
 30
0.0
  0
SEQEND
  5
5DE
  8
DEFAULT
 62
     5
  0
ENDSEC
  0
EOF
