  0
SECTION
  2
HEADER
  9
$ACADVER
  1
AC1009
  9
$DWGCODEPAGE
  3
ansi_1252
  9
$INSBASE
 10
0.0
 20
0.0
 30
0.0
  9
$EXTMIN
 10
-67.31979072158543
 20
-60.27175744041216
 30
0.0
  9
$EXTMAX
 10
64.66248081521456
 20
76.36503566329567
 30
0.0
  9
$LIMMIN
 10
0.0
 20
0.0
  9
$LIMMAX
 10
12.0
 20
9.0
  9
$ORTHOMODE
 70
     0
  9
$REGENMODE
 70
     1
  9
$FILLMODE
 70
     1
  9
$QTEXTMODE
 70
     0
  9
$MIRRTEXT
 70
     1
  9
$DRAGMODE
 70
     2
  9
$LTSCALE
 40
1.0
  9
$OSMODE
 70
    37
  9
$ATTMODE
 70
     1
  9
$TEXTSIZE
 40
0.2
  9
$TRACEWID
 40
0.05
  9
$TEXTSTYLE
  7
STANDARD
  9
$CLAYER
  8
DEFAULT
  9
$CELTYPE
  6
BYLAYER
  9
$CECOLOR
 62
   256
  9
$DIMSCALE
 40
1.0
  9
$DIMASZ
 40
0.18
  9
$DIMEXO
 40
0.0625
  9
$DIMDLI
 40
0.38
  9
$DIMRND
 40
0.0
  9
$DIMDLE
 40
0.0
  9
$DIMEXE
 40
0.18
  9
$DIMTP
 40
0.0
  9
$DIMTM
 40
0.0
  9
$DIMTXT
 40
0.18
  9
$DIMCEN
 40
0.09
  9
$DIMTSZ
 40
0.0
  9
$DIMTOL
 70
     0
  9
$DIMLIM
 70
     0
  9
$DIMTIH
 70
     1
  9
$DIMTOH
 70
     1
  9
$DIMSE1
 70
     0
  9
$DIMSE2
 70
     0
  9
$DIMTAD
 70
     0
  9
$DIMZIN
 70
     0
  9
$DIMBLK
  1

  9
$DIMASO
 70
     1
  9
$DIMSHO
 70
     1
  9
$DIMPOST
  1

  9
$DIMAPOST
  1

  9
$DIMALT
 70
     0
  9
$DIMALTD
 70
     2
  9
$DIMALTF
 40
25.4
  9
$DIMLFAC
 40
1.0
  9
$DIMTOFL
 70
     0
  9
$DIMTVP
 40
0.0
  9
$DIMTIX
 70
     0
  9
$DIMSOXD
 70
     0
  9
$DIMSAH
 70
     0
  9
$DIMBLK1
  1

  9
$DIMBLK2
  1

  9
$DIMSTYLE
  2
STANDARD
  9
$DIMCLRD
 70
     0
  9
$DIMCLRE
 70
     0
  9
$DIMCLRT
 70
     0
  9
$DIMTFAC
 40
1.0
  9
$DIMGAP
 40
0.09
  9
$LUNITS
 70
     2
  9
$LUPREC
 70
     4
  9
$SKETCHINC
 40
0.1
  9
$FILLETRAD
 40
0.5
  9
$AUNITS
 70
     0
  9
$AUPREC
 70
     0
  9
$MENU
  1
.
  9
$ELEVATION
 40
0.0
  9
$PELEVATION
 40
0.0
  9
$THICKNESS
 40
0.0
  9
$LIMCHECK
 70
     0
  9
$CHAMFERA
 40
0.0
  9
$CHAMFERB
 40
0.0
  9
$SKPOLY
 70
     0
  9
$TDCREATE
 40
2458792.978469514
  9
$TDUPDATE
 40
2458792.978486539
  9
$TDINDWG
 40
0.0000000116
  9
$TDUSRTIMER
 40
0.0000000116
  9
$USRTIMER
 70
     1
  9
$ANGBASE
 50
0.0
  9
$ANGDIR
 70
     0
  9
$PDMODE
 70
     0
  9
$PDSIZE
 40
0.0
  9
$PLINEWID
 40
0.0
  9
$COORDS
 70
     1
  9
$SPLFRAME
 70
     0
  9
$SPLINETYPE
 70
     6
  9
$SPLINESEGS
 70
     8
  9
$ATTDIA
 70
     0
  9
$ATTREQ
 70
     1
  9
$HANDLING
 70
     1
  9
$HANDSEED
  5
523
  9
$SURFTAB1
 70
     6
  9
$SURFTAB2
 70
     6
  9
$SURFTYPE
 70
     6
  9
$SURFU
 70
     6
  9
$SURFV
 70
     6
  9
$UCSNAME
  2

  9
$UCSORG
 10
0.0
 20
0.0
 30
0.0
  9
$UCSXDIR
 10
1.0
 20
0.0
 30
0.0
  9
$UCSYDIR
 10
0.0
 20
1.0
 30
0.0
  9
$PUCSNAME
  2

  9
$PUCSORG
 10
0.0
 20
0.0
 30
0.0
  9
$PUCSXDIR
 10
1.0
 20
0.0
 30
0.0
  9
$PUCSYDIR
 10
0.0
 20
1.0
 30
0.0
  9
$USERI1
 70
     0
  9
$USERI2
 70
     0
  9
$USERI3
 70
     0
  9
$USERI4
 70
     0
  9
$USERI5
 70
     0
  9
$USERR1
 40
0.0
  9
$USERR2
 40
0.0
  9
$USERR3
 40
0.0
  9
$USERR4
 40
0.0
  9
$USERR5
 40
0.0
  9
$WORLDVIEW
 70
     1
  9
$SHADEDGE
 70
     3
  9
$SHADEDIF
 70
    70
  9
$TILEMODE
 70
     1
  9
$MAXACTVP
 70
    64
  9
$PLIMCHECK
 70
     0
  9
$PEXTMIN
 10
1.000000000000000E+20
 20
1.000000000000000E+20
 30
1.000000000000000E+20
  9
$PEXTMAX
 10
-1.000000000000000E+20
 20
-1.000000000000000E+20
 30
-1.000000000000000E+20
  9
$PLIMMIN
 10
0.0
 20
0.0
  9
$PLIMMAX
 10
12.0
 20
9.0
  9
$UNITMODE
 70
     0
  9
$VISRETAIN
 70
     1
  9
$PLINEGEN
 70
     0
  9
$PSLTSCALE
 70
     1
  0
ENDSEC
  0
SECTION
  2
TABLES
  0
TABLE
  2
VPORT
 70
     1
  0
VPORT
  2
*ACTIVE
 70
     0
 10
0.0
 20
0.0
 11
1.0
 21
1.0
 12
-1.328654953185435
 22
8.046639111441749
 13
0.0
 23
0.0
 14
0.5
 24
0.5
 15
0.5
 25
0.5
 16
0.0
 26
0.0
 36
1.0
 17
0.0
 27
0.0
 37
0.0
 40
139.369528965782
 41
0.9659350789697252
 42
50.0
 43
0.0
 44
0.0
 50
0.0
 51
0.0
 71
     0
 72
   100
 73
     1
 74
     3
 75
     0
 76
     0
 77
     0
 78
     0
  0
ENDTAB
  0
TABLE
  2
LTYPE
 70
     1
  0
LTYPE
  2
CONTINUOUS
 70
     0
  3
Solid line
 72
    65
 73
     0
 40
0.0
  0
ENDTAB
  0
TABLE
  2
LAYER
 70
    11
  0
LAYER
  2
0
 70
     0
 62
     7
  6
CONTINUOUS
  0
LAYER
  2
DEFAULT
 70
     0
 62
     7
  6
CONTINUOUS
  0
LAYER
  2
1
 70
     0
 62
     7
  6
CONTINUOUS
  0
LAYER
  2
2
 70
     0
 62
     7
  6
CONTINUOUS
  0
LAYER
  2
3
 70
     0
 62
     7
  6
CONTINUOUS
  0
LAYER
  2
4
 70
     0
 62
     7
  6
CONTINUOUS
  0
LAYER
  2
5
 70
     0
 62
     7
  6
CONTINUOUS
  0
LAYER
  2
6
 70
     0
 62
     7
  6
CONTINUOUS
  0
LAYER
  2
7
 70
     0
 62
     7
  6
CONTINUOUS
  0
LAYER
  2
8
 70
     0
 62
     7
  6
CONTINUOUS
  0
LAYER
  2
9
 70
     0
 62
     7
  6
CONTINUOUS
  0
ENDTAB
  0
TABLE
  2
STYLE
 70
     1
  0
STYLE
  2
STANDARD
 70
     0
 40
0.0
 41
1.0
 50
0.0
 71
     0
 42
0.2
  3
txt
  4

  0
ENDTAB
  0
TABLE
  2
VIEW
 70
     0
  0
ENDTAB
  0
TABLE
  2
UCS
 70
     0
  0
ENDTAB
  0
TABLE
  2
APPID
 70
     1
  0
APPID
  2
ACAD
 70
     0
  0
ENDTAB
  0
TABLE
  2
DIMSTYLE
 70
     1
  0
DIMSTYLE
  2
STANDARD
 70
     0
  3

  4

  5

  6

  7

 40
1.0
 41
0.18
 42
0.0625
 43
0.38
 44
0.18
 45
0.0
 46
0.0
 47
0.0
 48
0.0
140
0.18
141
0.09
142
0.0
143
25.4
144
1.0
145
0.0
146
1.0
147
0.09
 71
     0
 72
     0
 73
     1
 74
     1
 75
     0
 76
     0
 77
     0
 78
     0
170
     0
171
     2
172
     0
173
     0
174
     0
175
     0
176
     0
177
     0
178
     0
  0
ENDTAB
  0
ENDSEC
  0
SECTION
  2
BLOCKS
  0
BLOCK
  8
0
  2
$MODEL_SPACE
 70
     0
 10
0.0
 20
0.0
 30
0.0
  3
$MODEL_SPACE
  1

  0
ENDBLK
  5
21
  8
0
  0
BLOCK
 67
     1
  8
0
  2
$PAPER_SPACE
 70
     0
 10
0.0
 20
0.0
 30
0.0
  3
$PAPER_SPACE
  1

  0
ENDBLK
  5
1D
 67
     1
  8
0
  0
BLOCK
  8
0
  2
SE
 70
     0
 10
0.0
 20
0.0
 30
0.0
  3
SE
  1

  0
LINE
  5
4D9
  8
1
  6
CONTINUOUS
 62
     7
 10
271.8161448492
 20
254.3826300237
 30
0.0
 11
293.8131901053
 21
254.3826300237
 31
0.0
  0
LINE
  5
4DA
  8
1
  6
CONTINUOUS
 62
     7
 10
293.8131901053
 20
254.3826300237
 30
0.0
 11
326.8057343563
 21
197.2326300237
 31
0.0
  0
LINE
  5
4DB
  8
1
  6
CONTINUOUS
 62
     7
 10
326.8057343563
 20
197.2326300237
 30
0.0
 11
304.8117127334
 21
197.2326300237
 31
0.0
  0
LINE
  5
4DC
  8
1
  6
CONTINUOUS
 62
     7
 10
304.8117127334
 20
197.2326300237
 30
0.0
 11
271.8161448492
 21
254.3826300237
 31
0.0
  0
LINE
  5
4DE
  8
2
  6
CONTINUOUS
 62
     7
 10
271.8161448492
 20
254.3826300237
 30
0.0
 11
282.8146674773
 21
273.4326300237
 31
0.0
  0
LINE
  5
4DF
  8
2
  6
CONTINUOUS
 62
     7
 10
293.8131901053
 20
254.3826300237
 30
0.0
 11
271.8161448492
 21
254.3826300237
 31
0.0
  0
LINE
  5
4E0
  8
2
  6
CONTINUOUS
 62
     7
 10
304.8117127334
 20
235.3326300237
 30
0.0
 11
293.8131901053
 21
254.3826300237
 31
0.0
  0
LINE
  5
4E1
  8
2
  6
CONTINUOUS
 62
     7
 10
326.8087579895
 20
235.3326300237
 30
0.0
 11
304.8117127334
 21
235.3326300237
 31
0.0
  0
LINE
  5
4E2
  8
2
  6
CONTINUOUS
 62
     7
 10
315.8102353614
 20
254.3826300237
 30
0.0
 11
326.8087579895
 21
235.3326300237
 31
0.0
  0
LINE
  5
4E3
  8
2
  6
CONTINUOUS
 62
     7
 10
326.8087579895
 20
273.4326300237
 30
0.0
 11
315.8102353614
 21
254.3826300237
 31
0.0
  0
LINE
  5
4E4
  8
2
  6
CONTINUOUS
 62
     7
 10
282.8146674773
 20
273.4326300237
 30
0.0
 11
326.8087579895
 21
273.4326300237
 31
0.0
  0
LINE
  5
4E6
  8
3
  6
CONTINUOUS
 62
     7
 10
337.8072806176
 20
178.1826300237
 30
0.0
 11
315.8102353614
 21
178.1826300237
 31
0.0
  0
LINE
  5
4E7
  8
3
  6
CONTINUOUS
 62
     7
 10
326.8087579895
 20
159.1326300237
 30
0.0
 11
337.8072806176
 21
178.1826300237
 31
0.0
  0
LINE
  5
4E8
  8
3
  6
CONTINUOUS
 62
     7
 10
282.8146674773
 20
159.1326300237
 30
0.0
 11
326.8087579895
 21
159.1326300237
 31
0.0
  0
LINE
  5
4E9
  8
3
  6
CONTINUOUS
 62
     7
 10
304.8117127334
 20
197.2326300237
 30
0.0
 11
282.8146674773
 21
159.1326300237
 31
0.0
  0
LINE
  5
4EA
  8
3
  6
CONTINUOUS
 62
     7
 10
326.8087579895
 20
197.2326300237
 30
0.0
 11
304.8117127334
 21
197.2326300237
 31
0.0
  0
LINE
  5
4EB
  8
3
  6
CONTINUOUS
 62
     7
 10
315.8102353614
 20
178.1826300237
 30
0.0
 11
326.8087579895
 21
197.2326300237
 31
0.0
  0
LINE
  5
4ED
  8
4
  6
CONTINUOUS
 62
     7
 10
249.8190995931
 20
178.1826300237
 30
0.0
 11
260.8176222211
 21
197.2326300237
 31
0.0
  0
LINE
  5
4EE
  8
4
  6
CONTINUOUS
 62
     7
 10
260.8176222211
 20
159.1326300237
 30
0.0
 11
249.8190995931
 21
178.1826300237
 31
0.0
  0
LINE
  5
4EF
  8
4
  6
CONTINUOUS
 62
     7
 10
282.8146674773
 20
159.1326300237
 30
0.0
 11
260.8176222211
 21
159.1326300237
 31
0.0
  0
LINE
  5
4F0
  8
4
  6
CONTINUOUS
 62
     7
 10
293.8131901053
 20
178.1826300237
 30
0.0
 11
282.8146674773
 21
159.1326300237
 31
0.0
  0
LINE
  5
4F1
  8
4
  6
CONTINUOUS
 62
     7
 10
282.8146674773
 20
197.2326300237
 30
0.0
 11
293.8131901053
 21
178.1826300237
 31
0.0
  0
LINE
  5
4F2
  8
4
  6
CONTINUOUS
 62
     7
 10
260.8176222211
 20
197.2326300237
 30
0.0
 11
282.8146674773
 21
197.2326300237
 31
0.0
  0
LINE
  5
4F4
  8
5
  6
CONTINUOUS
 62
     7
 10
249.8190995931
 20
216.2826300237
 30
0.0
 11
260.8176222211
 21
235.3326300237
 31
0.0
  0
LINE
  5
4F5
  8
5
  6
CONTINUOUS
 62
     7
 10
260.8176222211
 20
197.2326300237
 30
0.0
 11
249.8190995931
 21
216.2826300237
 31
0.0
  0
LINE
  5
4F6
  8
5
  6
CONTINUOUS
 62
     7
 10
249.8190995931
 20
178.1826300237
 30
0.0
 11
260.8176222211
 21
197.2326300237
 31
0.0
  0
LINE
  5
4F7
  8
5
  6
CONTINUOUS
 62
     7
 10
227.8220543369
 20
216.2826300237
 30
0.0
 11
249.8190995931
 21
178.1826300237
 31
0.0
  0
LINE
  5
4F8
  8
5
  6
CONTINUOUS
 62
     7
 10
249.8190995931
 20
254.3826300237
 30
0.0
 11
227.8220543369
 21
216.2826300237
 31
0.0
  0
LINE
  5
4F9
  8
5
  6
CONTINUOUS
 62
     7
 10
260.8176222211
 20
235.3326300237
 30
0.0
 11
249.8190995931
 21
254.3826300237
 31
0.0
  0
LINE
  5
4FB
  8
6
  6
CONTINUOUS
 62
     7
 10
282.8146674773
 20
273.4326300237
 30
0.0
 11
260.8176222211
 21
273.4326300237
 31
0.0
  0
LINE
  5
4FC
  8
6
  6
CONTINUOUS
 62
     7
 10
260.8176222211
 20
273.4326300237
 30
0.0
 11
249.8190995931
 21
254.3826300237
 31
0.0
  0
LINE
  5
4FD
  8
6
  6
CONTINUOUS
 62
     7
 10
249.8190995931
 20
254.3826300237
 30
0.0
 11
271.8161448492
 21
216.2826300237
 31
0.0
  0
LINE
  5
4FE
  8
6
  6
CONTINUOUS
 62
     7
 10
271.8161448492
 20
216.2826300237
 30
0.0
 11
293.8131901053
 21
216.2826300237
 31
0.0
  0
LINE
  5
4FF
  8
6
  6
CONTINUOUS
 62
     7
 10
293.8131901053
 20
216.2826300237
 30
0.0
 11
271.8161448492
 21
254.3826300237
 31
0.0
  0
LINE
  5
500
  8
6
  6
CONTINUOUS
 62
     7
 10
271.8161448492
 20
254.3826300237
 30
0.0
 11
282.8146674773
 21
273.4326300237
 31
0.0
  0
LINE
  5
502
  8
7
  6
CONTINUOUS
 62
     7
 10
315.8102353614
 20
254.3826300237
 30
0.0
 11
326.8087579895
 21
273.4326300237
 31
0.0
  0
LINE
  5
503
  8
7
  6
CONTINUOUS
 62
     7
 10
326.8087579895
 20
235.3326300237
 30
0.0
 11
315.8102353614
 21
254.3826300237
 31
0.0
  0
LINE
  5
504
  8
7
  6
CONTINUOUS
 62
     7
 10
304.8117127334
 20
235.3326300237
 30
0.0
 11
326.8087579895
 21
235.3326300237
 31
0.0
  0
LINE
  5
505
  8
7
  6
CONTINUOUS
 62
     7
 10
315.8102353614
 20
216.2826300237
 30
0.0
 11
304.8117127334
 21
235.3326300237
 31
0.0
  0
LINE
  5
506
  8
7
  6
CONTINUOUS
 62
     7
 10
337.8072806176
 20
216.2826300237
 30
0.0
 11
315.8102353614
 21
216.2826300237
 31
0.0
  0
LINE
  5
507
  8
7
  6
CONTINUOUS
 62
     7
 10
348.8058032456
 20
235.3326300237
 30
0.0
 11
337.8072806176
 21
216.2826300237
 31
0.0
  0
LINE
  5
508
  8
7
  6
CONTINUOUS
 62
     7
 10
326.8087579895
 20
273.4326300237
 30
0.0
 11
348.8058032456
 21
235.3326300237
 31
0.0
  0
LINE
  5
50A
  8
8
  6
CONTINUOUS
 62
     7
 10
315.8102353614
 20
178.1826300237
 30
0.0
 11
326.8087579895
 21
197.2326300237
 31
0.0
  0
LINE
  5
50B
  8
8
  6
CONTINUOUS
 62
     7
 10
337.8072806176
 20
178.1826300237
 30
0.0
 11
315.8102353614
 21
178.1826300237
 31
0.0
  0
LINE
  5
50C
  8
8
  6
CONTINUOUS
 62
     7
 10
359.8043258737
 20
216.2826300237
 30
0.0
 11
337.8072806176
 21
178.1826300237
 31
0.0
  0
LINE
  5
50D
  8
8
  6
CONTINUOUS
 62
     7
 10
348.8058032456
 20
235.3326300237
 30
0.0
 11
359.8043258737
 21
216.2826300237
 31
0.0
  0
LINE
  5
50E
  8
8
  6
CONTINUOUS
 62
     7
 10
337.8072806176
 20
216.2826300237
 30
0.0
 11
348.8058032456
 21
235.3326300237
 31
0.0
  0
LINE
  5
50F
  8
8
  6
CONTINUOUS
 62
     7
 10
315.8102353614
 20
216.2826300237
 30
0.0
 11
337.8072806176
 21
216.2826300237
 31
0.0
  0
LINE
  5
510
  8
8
  6
CONTINUOUS
 62
     7
 10
326.8087579895
 20
197.2326300237
 30
0.0
 11
315.8102353614
 21
216.2826300237
 31
0.0
  0
LINE
  5
512
  8
9
  6
CONTINUOUS
 62
     7
 10
260.8176222211
 20
235.3326300237
 30
0.0
 11
271.8161448492
 21
216.2826300237
 31
0.0
  0
LINE
  5
513
  8
9
  6
CONTINUOUS
 62
     7
 10
271.8161448492
 20
216.2826300237
 30
0.0
 11
293.8131901053
 21
216.2826300237
 31
0.0
  0
LINE
  5
514
  8
9
  6
CONTINUOUS
 62
     7
 10
293.8131901053
 20
216.2826300237
 30
0.0
 11
304.8117127334
 21
197.2326300237
 31
0.0
  0
LINE
  5
515
  8
9
  6
CONTINUOUS
 62
     7
 10
304.8117127334
 20
197.2326300237
 30
0.0
 11
293.8131901053
 21
178.1826300237
 31
0.0
  0
LINE
  5
516
  8
9
  6
CONTINUOUS
 62
     7
 10
293.8131901053
 20
178.1826300237
 30
0.0
 11
282.8146674773
 21
197.2326300237
 31
0.0
  0
LINE
  5
517
  8
9
  6
CONTINUOUS
 62
     7
 10
282.8146674773
 20
197.2326300237
 30
0.0
 11
260.8176222211
 21
197.2326300237
 31
0.0
  0
LINE
  5
518
  8
9
  6
CONTINUOUS
 62
     7
 10
260.8176222211
 20
197.2326300237
 30
0.0
 11
249.8190995931
 21
216.2826300237
 31
0.0
  0
LINE
  5
519
  8
9
  6
CONTINUOUS
 62
     7
 10
249.8190995931
 20
216.2826300237
 30
0.0
 11
260.8176222211
 21
235.3326300237
 31
0.0
  0
ENDBLK
  5
51B
  8
0
  0
ENDSEC
  0
SECTION
  2
ENTITIES
  0
LINE
  5
6F
  8
DEFAULT
  6
CONTINUOUS
 62
     5
 10
-45.32274546538545
 20
-3.121757440412154
 30
0.0
 11
-34.32422283738543
 21
15.92824255958786
 31
0.0
  0
LINE
  5
70
  8
DEFAULT
  6
CONTINUOUS
 62
     5
 10
-34.32422283738543
 20
-22.17175744041214
 30
0.0
 11
-45.32274546538545
 21
-3.121757440412154
 31
0.0
  0
LINE
  5
71
  8
DEFAULT
  6
CONTINUOUS
 62
     5
 10
-12.32717758118542
 20
-22.17175744041214
 30
0.0
 11
-34.32422283738543
 21
-22.17175744041214
 31
0.0
  0
LINE
  5
72
  8
DEFAULT
  6
CONTINUOUS
 62
     5
 10
-1.328654953185435
 20
-41.22175744041215
 30
0.0
 11
-12.32717758118542
 21
-22.17175744041214
 31
0.0
  0
LINE
  5
73
  8
DEFAULT
  6
CONTINUOUS
 62
     5
 10
9.669867674914542
 20
-22.17175744041214
 30
0.0
 11
-1.328654953185435
 21
-41.22175744041215
 31
0.0
  0
LINE
  5
74
  8
DEFAULT
  6
CONTINUOUS
 62
     5
 10
-1.328654953185435
 20
-3.121757440412154
 30
0.0
 11
9.669867674914542
 21
-22.17175744041214
 31
0.0
  0
LINE
  5
75
  8
DEFAULT
  6
CONTINUOUS
 62
     5
 10
-23.32570020928546
 20
-3.121757440412154
 30
0.0
 11
-1.328654953185435
 21
-3.121757440412154
 31
0.0
  0
LINE
  5
76
  8
DEFAULT
  6
CONTINUOUS
 62
     5
 10
-34.32422283738543
 20
15.92824255958786
 30
0.0
 11
-23.32570020928546
 21
-3.121757440412154
 31
0.0
  0
LINE
  5
77
  8
DEFAULT
  6
CONTINUOUS
 62
     5
 10
31.66691293101456
 20
-22.17175744041214
 30
0.0
 11
20.66839030291453
 21
-3.121757440412154
 31
0.0
  0
LINE
  5
78
  8
DEFAULT
  6
CONTINUOUS
 62
     5
 10
20.66839030291453
 20
-3.121757440412154
 30
0.0
 11
42.66543555911454
 21
-3.121757440412154
 31
0.0
  0
LINE
  5
79
  8
DEFAULT
  6
CONTINUOUS
 62
     5
 10
42.66543555911454
 20
-3.121757440412154
 30
0.0
 11
53.66395818711453
 21
15.92824255958786
 31
0.0
  0
LINE
  5
7A
  8
DEFAULT
  6
CONTINUOUS
 62
     5
 10
53.66395818711453
 20
15.92824255958786
 30
0.0
 11
64.66248081521456
 21
-3.121757440412154
 31
0.0
  0
LINE
  5
7B
  8
DEFAULT
  6
CONTINUOUS
 62
     5
 10
64.66248081521456
 20
-3.121757440412154
 30
0.0
 11
42.66543555911454
 21
-41.22175744041215
 31
0.0
  0
LINE
  5
7C
  8
DEFAULT
  6
CONTINUOUS
 62
     5
 10
42.66543555911454
 20
-41.22175744041215
 30
0.0
 11
20.66839030291453
 21
-41.22175744041215
 31
0.0
  0
LINE
  5
7D
  8
DEFAULT
  6
CONTINUOUS
 62
     5
 10
20.66839030291453
 20
-41.22175744041215
 30
0.0
 11
31.66691293101456
 21
-22.17175744041214
 31
0.0
  0
LINE
  5
7E
  8
DEFAULT
  6
CONTINUOUS
 62
     5
 10
31.66691293101456
 20
54.02824255958788
 30
0.0
 11
53.66395818711453
 21
15.92824255958786
 31
0.0
  0
LINE
  5
7F
  8
DEFAULT
  6
CONTINUOUS
 62
     5
 10
53.66395818711453
 20
15.92824255958786
 30
0.0
 11
42.66543555911454
 21
-3.121757440412154
 31
0.0
  0
LINE
  5
80
  8
DEFAULT
  6
CONTINUOUS
 62
     5
 10
42.66543555911454
 20
-3.121757440412154
 30
0.0
 11
20.66839030291453
 21
-3.121757440412154
 31
0.0
  0
LINE
  5
81
  8
DEFAULT
  6
CONTINUOUS
 62
     5
 10
20.66839030291453
 20
-3.121757440412154
 30
0.0
 11
9.669867674914542
 21
15.92824255958786
 31
0.0
  0
LINE
  5
82
  8
DEFAULT
  6
CONTINUOUS
 62
     5
 10
9.669867674914542
 20
15.92824255958786
 30
0.0
 11
31.66691293101456
 21
15.92824255958786
 31
0.0
  0
LINE
  5
83
  8
DEFAULT
  6
CONTINUOUS
 62
     5
 10
31.66691293101456
 20
15.92824255958786
 30
0.0
 11
20.66839030291453
 21
34.97824255958784
 31
0.0
  0
LINE
  5
84
  8
DEFAULT
  6
CONTINUOUS
 62
     5
 10
20.66839030291453
 20
34.97824255958784
 30
0.0
 11
31.66691293101456
 21
54.02824255958788
 31
0.0
  0
LINE
  5
85
  8
DEFAULT
  6
CONTINUOUS
 62
     5
 10
-23.32570020928546
 20
34.97824255958784
 30
0.0
 11
-12.32717758118542
 21
54.02824255958788
 31
0.0
  0
LINE
  5
86
  8
DEFAULT
  6
CONTINUOUS
 62
     5
 10
-1.328654953185435
 20
-3.121757440412154
 30
0.0
 11
-23.32570020928546
 21
34.97824255958784
 31
0.0
  0
LINE
  5
87
  8
DEFAULT
  6
CONTINUOUS
 62
     5
 10
-23.32570020928546
 20
-3.121757440412154
 30
0.0
 11
-1.328654953185435
 21
-3.121757440412154
 31
0.0
  0
LINE
  5
88
  8
DEFAULT
  6
CONTINUOUS
 62
     5
 10
-45.32274546538545
 20
34.97824255958784
 30
0.0
 11
-23.32570020928546
 21
-3.121757440412154
 31
0.0
  0
LINE
  5
89
  8
DEFAULT
  6
CONTINUOUS
 62
     5
 10
-34.32422283738543
 20
54.02824255958788
 30
0.0
 11
-45.32274546538545
 21
34.97824255958784
 31
0.0
  0
LINE
  5
8A
  8
DEFAULT
  6
CONTINUOUS
 62
     5
 10
-12.32717758118542
 20
54.02824255958788
 30
0.0
 11
-34.32422283738543
 21
54.02824255958788
 31
0.0
  0
LINE
  5
8B
  8
DEFAULT
  6
CONTINUOUS
 62
     5
 10
-34.32422283738543
 20
15.92824255958786
 30
0.0
 11
-45.32274546538545
 21
34.97824255958784
 31
0.0
  0
LINE
  5
8C
  8
DEFAULT
  6
CONTINUOUS
 62
     5
 10
-45.32274546538545
 20
34.97824255958784
 30
0.0
 11
-67.31979072158543
 21
-3.121757440412154
 31
0.0
  0
LINE
  5
8D
  8
DEFAULT
  6
CONTINUOUS
 62
     5
 10
-67.31979072158543
 20
-3.121757440412154
 30
0.0
 11
-45.32274546538545
 21
-41.22175744041215
 31
0.0
  0
LINE
  5
8E
  8
DEFAULT
  6
CONTINUOUS
 62
     5
 10
-45.32274546538545
 20
-41.22175744041215
 30
0.0
 11
-34.32422283738543
 21
-22.17175744041214
 31
0.0
  0
LINE
  5
8F
  8
DEFAULT
  6
CONTINUOUS
 62
     5
 10
-34.32422283738543
 20
-22.17175744041214
 30
0.0
 11
-45.32274546538545
 21
-3.121757440412154
 31
0.0
  0
LINE
  5
90
  8
DEFAULT
  6
CONTINUOUS
 62
     5
 10
-45.32274546538545
 20
-3.121757440412154
 30
0.0
 11
-34.32422283738543
 21
15.92824255958786
 31
0.0
  0
LINE
  5
91
  8
DEFAULT
  6
CONTINUOUS
 62
     5
 10
-34.32422283738543
 20
-22.17175744041214
 30
0.0
 11
-12.32717758118542
 21
-22.17175744041214
 31
0.0
  0
LINE
  5
92
  8
DEFAULT
  6
CONTINUOUS
 62
     5
 10
-12.32717758118542
 20
-22.17175744041214
 30
0.0
 11
-1.328654953185435
 21
-41.22175744041215
 31
0.0
  0
LINE
  5
93
  8
DEFAULT
  6
CONTINUOUS
 62
     5
 10
-1.328654953185435
 20
-41.22175744041215
 30
0.0
 11
-12.32717758118542
 21
-60.27175744041216
 31
0.0
  0
LINE
  5
94
  8
DEFAULT
  6
CONTINUOUS
 62
     5
 10
-12.32717758118542
 20
-60.27175744041216
 30
0.0
 11
-34.32422283738543
 21
-60.27175744041216
 31
0.0
  0
LINE
  5
95
  8
DEFAULT
  6
CONTINUOUS
 62
     5
 10
-34.32422283738543
 20
-60.27175744041216
 30
0.0
 11
-45.32274546538545
 21
-41.22175744041215
 31
0.0
  0
LINE
  5
96
  8
DEFAULT
  6
CONTINUOUS
 62
     5
 10
-45.32274546538545
 20
-41.22175744041215
 30
0.0
 11
-34.32422283738543
 21
-22.17175744041214
 31
0.0
  0
LINE
  5
97
  8
DEFAULT
  6
CONTINUOUS
 62
     5
 10
20.66839030291453
 20
-41.22175744041215
 30
0.0
 11
31.66691293101456
 21
-22.17175744041214
 31
0.0
  0
LINE
  5
98
  8
DEFAULT
  6
CONTINUOUS
 62
     5
 10
31.66691293101456
 20
-22.17175744041214
 30
0.0
 11
9.669867674914542
 21
-22.17175744041214
 31
0.0
  0
LINE
  5
99
  8
DEFAULT
  6
CONTINUOUS
 62
     5
 10
9.669867674914542
 20
-22.17175744041214
 30
0.0
 11
-12.32717758118542
 21
-60.27175744041216
 31
0.0
  0
LINE
  5
9A
  8
DEFAULT
  6
CONTINUOUS
 62
     5
 10
-12.32717758118542
 20
-60.27175744041216
 30
0.0
 11
31.66691293101456
 21
-60.27175744041216
 31
0.0
  0
LINE
  5
9B
  8
DEFAULT
  6
CONTINUOUS
 62
     5
 10
31.66691293101456
 20
-60.27175744041216
 30
0.0
 11
42.66543555911454
 21
-41.22175744041215
 31
0.0
  0
LINE
  5
9C
  8
DEFAULT
  6
CONTINUOUS
 62
     5
 10
42.66543555911454
 20
-41.22175744041215
 30
0.0
 11
20.66839030291453
 21
-41.22175744041215
 31
0.0
  0
LINE
  5
9D
  8
DEFAULT
  6
CONTINUOUS
 62
     5
 10
-12.32717758118542
 20
54.02824255958788
 30
0.0
 11
31.66691293101456
 21
54.02824255958788
 31
0.0
  0
LINE
  5
9E
  8
DEFAULT
  6
CONTINUOUS
 62
     5
 10
31.66691293101456
 20
54.02824255958788
 30
0.0
 11
20.66839030291453
 21
34.97824255958784
 31
0.0
  0
LINE
  5
9F
  8
DEFAULT
  6
CONTINUOUS
 62
     5
 10
20.66839030291453
 20
34.97824255958784
 30
0.0
 11
31.66691293101456
 21
15.92824255958786
 31
0.0
  0
LINE
  5
A0
  8
DEFAULT
  6
CONTINUOUS
 62
     5
 10
31.66691293101456
 20
15.92824255958786
 30
0.0
 11
9.669867674914542
 21
15.92824255958786
 31
0.0
  0
LINE
  5
A1
  8
DEFAULT
  6
CONTINUOUS
 62
     5
 10
9.669867674914542
 20
15.92824255958786
 30
0.0
 11
-1.328654953185435
 21
34.97824255958784
 31
0.0
  0
LINE
  5
A2
  8
DEFAULT
  6
CONTINUOUS
 62
     5
 10
-1.328654953185435
 20
34.97824255958784
 30
0.0
 11
-23.32570020928546
 21
34.97824255958784
 31
0.0
  0
LINE
  5
A3
  8
DEFAULT
  6
CONTINUOUS
 62
     5
 10
-23.32570020928546
 20
34.97824255958784
 30
0.0
 11
-12.32717758118542
 21
54.02824255958788
 31
0.0
  0
LINE
  5
A4
  8
DEFAULT
  6
CONTINUOUS
 62
     5
 10
9.669867674914542
 20
-22.17175744041214
 30
0.0
 11
-23.32570020928546
 21
34.97824255958784
 31
0.0
  0
LINE
  5
A5
  8
DEFAULT
  6
CONTINUOUS
 62
     5
 10
31.66388929781453
 20
-22.17175744041214
 30
0.0
 11
9.669867674914542
 21
-22.17175744041214
 31
0.0
  0
LINE
  5
A6
  8
DEFAULT
  6
CONTINUOUS
 62
     5
 10
-1.328654953185435
 20
34.97824255958784
 30
0.0
 11
31.66388929781453
 21
-22.17175744041214
 31
0.0
  0
LINE
  5
A7
  8
DEFAULT
  6
CONTINUOUS
 62
     5
 10
-23.32570020928546
 20
34.97824255958784
 30
0.0
 11
-1.328654953185435
 21
34.97824255958784
 31
0.0
  0
POLYLINE
  5
A8
  8
DEFAULT
 62
     5
 66
     1
 10
0.0
 20
0.0
 30
0.0
 70
     1
  0
VERTEX
  5
A9
  8
DEFAULT
 62
     5
 10
33.76260465528788
 20
75.20380563383365
 30
0.0
  0
VERTEX
  5
AA
  8
DEFAULT
 62
     5
 10
34.45396267997923
 20
75.20380563383365
 30
0.0
  0
VERTEX
  5
AB
  8
DEFAULT
 62
     5
 10
34.45396267997923
 20
74.81221618064353
 30
0.0
 42
-0.2373869490350149
  0
VERTEX
  5
AC
  8
DEFAULT
 62
     5
 10
35.35249677777073
 20
75.27787970790773
 30
0.0
 42
-0.1315120310734282
  0
VERTEX
  5
AD
  8
DEFAULT
 62
     5
 10
35.83262793000586
 20
75.16213908490636
 30
0.0
 42
-0.1393853272244722
  0
VERTEX
  5
AE
  8
DEFAULT
 62
     5
 10
36.16653997587333
 20
74.81221618064353
 30
0.0
 42
-0.1018343532165789
  0
VERTEX
  5
AF
  8
DEFAULT
 62
     5
 10
36.57510480834906
 20
75.16213908490636
 30
0.0
 42
-0.1239296679570884
  0
VERTEX
  5
B0
  8
DEFAULT
 62
     5
 10
37.04308337413287
 20
75.27787970790773
 30
0.0
 42
-0.135530558914194
  0
VERTEX
  5
B1
  8
DEFAULT
 62
     5
 10
37.5789628919101
 20
75.14825017246959
 30
0.0
 42
-0.1623661969580907
  0
VERTEX
  5
B2
  8
DEFAULT
 62
     5
 10
37.90650928828486
 20
74.76784897322351
 30
0.0
 42
-0.0915442810314369
  0
VERTEX
  5
B3
  8
DEFAULT
 62
     5
 10
37.98482687751009
 20
74.16754021350883
 30
0.0
  0
VERTEX
  5
B4
  8
DEFAULT
 62
     5
 10
37.98482687751009
 20
72.31491674494477
 30
0.0
  0
VERTEX
  5
B5
  8
DEFAULT
 62
     5
 10
37.21939477874466
 20
72.31491674494477
 30
0.0
  0
VERTEX
  5
B6
  8
DEFAULT
 62
     5
 10
37.21939477874467
 20
73.96692325922844
 30
0.0
 42
0.1141470137910659
  0
VERTEX
  5
B7
  8
DEFAULT
 62
     5
 10
37.14146299787553
 20
74.5220928180449
 30
0.0
 42
0.272100060653375
  0
VERTEX
  5
B8
  8
DEFAULT
 62
     5
 10
36.81854630177401
 20
74.68528711531513
 30
0.0
  0
VERTEX
  5
B9
  8
DEFAULT
 62
     5
 10
36.52012787113615
 20
74.58729329992858
 30
0.0
 42
0.1657627374473748
  0
VERTEX
  5
BA
  8
DEFAULT
 62
     5
 10
36.31835311502148
 20
74.30025640417878
 30
0.0
  0
VERTEX
  5
BB
  8
DEFAULT
 62
     5
 10
36.2564318157817
 20
73.70303411131295
 30
0.0
  0
VERTEX
  5
BC
  8
DEFAULT
 62
     5
 10
36.2564318157817
 20
72.31491674494477
 30
0.0
  0
VERTEX
  5
BD
  8
DEFAULT
 62
     5
 10
35.49099971701627
 20
72.31491674494477
 30
0.0
  0
VERTEX
  5
BE
  8
DEFAULT
 62
     5
 10
35.49099971701627
 20
73.89863593372995
 30
0.0
  0
VERTEX
  5
BF
  8
DEFAULT
 62
     5
 10
35.45106930569144
 20
74.44319613951953
 30
0.0
  0
VERTEX
  5
C0
  8
DEFAULT
 62
     5
 10
35.32703399141682
 20
74.62548776203393
 30
0.0
  0
VERTEX
  5
C1
  8
DEFAULT
 62
     5
 10
35.09902445547005
 20
74.68528711531513
 30
0.0
 42
0.3306618495400658
  0
VERTEX
  5
C2
  8
DEFAULT
 62
     5
 10
34.58802919989557
 20
74.31510983750579
 30
0.0
  0
VERTEX
  5
C3
  8
DEFAULT
 62
     5
 10
34.52803675405331
 20
73.71923806226931
 30
0.0
  0
VERTEX
  5
C4
  8
DEFAULT
 62
     5
 10
34.52803675405331
 20
72.31491674494477
 30
0.0
  0
VERTEX
  5
C5
  8
DEFAULT
 62
     5
 10
33.76260465528788
 20
72.31491674494477
 30
0.0
  0
SEQEND
  5
C6
  8
DEFAULT
 62
     5
  0
POLYLINE
  5
C7
  8
DEFAULT
 62
     5
 66
     1
 10
0.0
 20
0.0
 30
0.0
 70
     1
  0
VERTEX
  5
C8
  8
DEFAULT
 62
     5
 10
31.04655527257183
 20
73.7593613777722
 30
0.0
 42
0.1807696907208255
  0
VERTEX
  5
C9
  8
DEFAULT
 62
     5
 10
31.24640098690598
 20
73.09037986096891
 30
0.0
 42
0.47770363976373
  0
VERTEX
  5
CA
  8
DEFAULT
 62
     5
 10
32.23077612524974
 20
73.09037986096891
 30
0.0
 42
0.1794408075869799
  0
VERTEX
  5
CB
  8
DEFAULT
 62
     5
 10
32.42927132195454
 20
73.76476269475765
 30
0.0
 42
0.180093245079372
  0
VERTEX
  5
CC
  8
DEFAULT
 62
     5
 10
32.23077612524975
 20
74.42834270619251
 30
0.0
 42
0.479372938484636
  0
VERTEX
  5
CD
  8
DEFAULT
 62
     5
 10
31.24640098690597
 20
74.42834270619251
 30
0.0
 42
0.1807697890868429
  0
SEQEND
  5
CE
  8
DEFAULT
 62
     5
  0
POLYLINE
  5
CF
  8
DEFAULT
 62
     5
 66
     1
 10
0.0
 20
0.0
 30
0.0
 70
     1
  0
VERTEX
  5
D0
  8
DEFAULT
 62
     5
 10
30.2811231738064
 20
73.80025630998729
 30
0.0
 42
-0.1222574291832803
  0
VERTEX
  5
D1
  8
DEFAULT
 62
     5
 10
30.46765868823796
 20
74.54176885582322
 30
0.0
 42
-0.1509199207835999
  0
VERTEX
  5
D2
  8
DEFAULT
 62
     5
 10
30.99620822401517
 20
75.08902953172255
 30
0.0
 42
-0.1287246067143768
  0
VERTEX
  5
D3
  8
DEFAULT
 62
     5
 10
31.75990437356112
 20
75.27787970790772
 30
0.0
 42
-0.2109274079128519
  0
VERTEX
  5
D4
  8
DEFAULT
 62
     5
 10
32.82780532555455
 20
74.84963902603667
 30
0.0
 42
-0.202621263980174
  0
VERTEX
  5
D5
  8
DEFAULT
 62
     5
 10
33.24408613676936
 20
73.76746335325038
 30
0.0
 42
-0.2022295973323243
  0
VERTEX
  5
D6
  8
DEFAULT
 62
     5
 10
32.82375452619844
 20
72.6744846697272
 30
0.0
 42
-0.2115506096600799
  0
VERTEX
  5
D7
  8
DEFAULT
 62
     5
 10
31.7653053137806
 20
72.24084267087069
 30
0.0
 42
-0.1188796278362213
  0
VERTEX
  5
D8
  8
DEFAULT
 62
     5
 10
31.01241179820557
 20
72.42139834416561
 30
0.0
 42
-0.158235579832004
  0
VERTEX
  5
D9
  8
DEFAULT
 62
     5
 10
30.46765868823795
 20
72.9509124008331
 30
0.0
 42
-0.1239053267140452
  0
SEQEND
  5
DA
  8
DEFAULT
 62
     5
  0
POLYLINE
  5
DB
  8
DEFAULT
 62
     5
 66
     1
 10
0.0
 20
0.0
 30
0.0
 70
     1
  0
VERTEX
  5
DC
  8
DEFAULT
 62
     5
 10
29.86137008738665
 20
74.36429946099415
 30
0.0
  0
VERTEX
  5
DD
  8
DEFAULT
 62
     5
 10
29.09593798862122
 20
74.24084267087069
 30
0.0
 42
0.1809968098175366
  0
VERTEX
  5
DE
  8
DEFAULT
 62
     5
 10
28.92502771261188
 20
74.57359748005285
 30
0.0
 42
0.1804760167669865
  0
VERTEX
  5
DF
  8
DEFAULT
 62
     5
 10
28.57934851188321
 20
74.68528711531513
 30
0.0
 42
0.2329674834671575
  0
VERTEX
  5
E0
  8
DEFAULT
 62
     5
 10
28.12834551376799
 20
74.48466997265176
 30
0.0
 42
0.1695179555120365
  0
VERTEX
  5
E1
  8
DEFAULT
 62
     5
 10
27.96013551948541
 20
73.81337379409483
 30
0.0
 42
0.1610966817174994
  0
VERTEX
  5
E2
  8
DEFAULT
 62
     5
 10
28.13239650150709
 20
73.07398319421746
 30
0.0
 42
0.2405540491094318
  0
VERTEX
  5
E3
  8
DEFAULT
 62
     5
 10
28.59478084612738
 20
72.85812662148797
 30
0.0
 42
0.1883458441869102
  0
VERTEX
  5
E4
  8
DEFAULT
 62
     5
 10
28.94991197481463
 20
72.9804261749261
 30
0.0
 42
0.16226044899479
  0
VERTEX
  5
E5
  8
DEFAULT
 62
     5
 10
29.14532070467059
 20
73.40133649803118
 30
0.0
  0
VERTEX
  5
E6
  8
DEFAULT
 62
     5
 10
29.91075280343603
 20
73.30257106593243
 30
0.0
 42
-0.1724509721435995
  0
VERTEX
  5
E7
  8
DEFAULT
 62
     5
 10
29.46360788888184
 20
72.50897552232034
 30
0.0
 42
-0.174696724353931
  0
VERTEX
  5
E8
  8
DEFAULT
 62
     5
 10
28.57703403851256
 20
72.24084267087069
 30
0.0
 42
-0.2163976905724378
  0
VERTEX
  5
E9
  8
DEFAULT
 62
     5
 10
27.5700892997197
 20
72.64304185385369
 30
0.0
 42
-0.1943870566321073
  0
VERTEX
  5
EA
  8
DEFAULT
 62
     5
 10
27.19470342071997
 20
73.75666071927947
 30
0.0
 42
-0.1945054615972568
  0
VERTEX
  5
EB
  8
DEFAULT
 62
     5
 10
27.56989639554164
 20
74.87703104255411
 30
0.0
 42
-0.2157801631579731
  0
VERTEX
  5
EC
  8
DEFAULT
 62
     5
 10
28.58474982886867
 20
75.27787970790773
 30
0.0
 42
-0.159942307695799
  0
VERTEX
  5
ED
  8
DEFAULT
 62
     5
 10
29.41731163968129
 20
75.05218539886356
 30
0.0
 42
-0.1682635697126242
  0
SEQEND
  5
EE
  8
DEFAULT
 62
     5
  0
POLYLINE
  5
EF
  8
DEFAULT
 62
     5
 66
     1
 10
0.0
 20
0.0
 30
0.0
 70
     1
  0
VERTEX
  5
F0
  8
DEFAULT
 62
     5
 10
25.81198737133726
 20
72.31491674494477
 30
0.0
  0
VERTEX
  5
F1
  8
DEFAULT
 62
     5
 10
25.81198737133726
 20
73.0803488437102
 30
0.0
  0
VERTEX
  5
F2
  8
DEFAULT
 62
     5
 10
26.57741947010269
 20
73.0803488437102
 30
0.0
  0
VERTEX
  5
F3
  8
DEFAULT
 62
     5
 10
26.57741947010269
 20
72.31491674494477
 30
0.0
  0
SEQEND
  5
F4
  8
DEFAULT
 62
     5
  0
POLYLINE
  5
F5
  8
DEFAULT
 62
     5
 66
     1
 10
0.0
 20
0.0
 30
0.0
 70
     1
  0
VERTEX
  5
F6
  8
DEFAULT
 62
     5
 10
24.47865403800393
 20
74.01862044864848
 30
0.0
 42
0.1931771868552609
  0
VERTEX
  5
F7
  8
DEFAULT
 62
     5
 10
24.3029211575433
 20
74.51534117181309
 30
0.0
 42
0.4344367687048022
  0
VERTEX
  5
F8
  8
DEFAULT
 62
     5
 10
23.47170967597705
 20
74.50588924385448
 30
0.0
 42
0.1974850402976662
  0
VERTEX
  5
F9
  8
DEFAULT
 62
     5
 10
23.30697214528239
 20
74.01862044864848
 30
0.0
  0
SEQEND
  5
FA
  8
DEFAULT
 62
     5
  0
POLYLINE
  5
FB
  8
DEFAULT
 62
     5
 66
     1
 10
0.0
 20
0.0
 30
0.0
 70
     1
  0
VERTEX
  5
FC
  8
DEFAULT
 62
     5
 10
24.42927132195454
 20
73.22849699185835
 30
0.0
  0
VERTEX
  5
FD
  8
DEFAULT
 62
     5
 10
25.19470342071997
 20
73.12973155975959
 30
0.0
 42
-0.1601948643917498
  0
VERTEX
  5
FE
  8
DEFAULT
 62
     5
 10
24.72942570181188
 20
72.46808040172228
 30
0.0
 42
-0.1590209405814402
  0
VERTEX
  5
FF
  8
DEFAULT
 62
     5
 10
23.93351549644617
 20
72.24084267087069
 30
0.0
 42
-0.2510606897924278
  0
VERTEX
  5
100
  8
DEFAULT
 62
     5
 10
22.81468821821299
 20
72.73621306478896
 30
0.0
 42
-0.1603231689598403
  0
VERTEX
  5
101
  8
DEFAULT
 62
     5
 10
22.52803675405331
 20
73.73737067824024
 30
0.0
 42
-0.1928988919450666
  0
VERTEX
  5
102
  8
DEFAULT
 62
     5
 10
22.90593038736771
 20
74.8689292554589
 30
0.0
 42
-0.21869571104994
  0
VERTEX
  5
103
  8
DEFAULT
 62
     5
 10
23.86137008738665
 20
75.2778797079077
 30
0.0
 42
-0.224876265082999
  0
VERTEX
  5
104
  8
DEFAULT
 62
     5
 10
24.88529001708211
 20
74.85253258870745
 30
0.0
 42
-0.1866850592647391
  0
VERTEX
  5
105
  8
DEFAULT
 62
     5
 10
25.24408613676936
 20
73.54948464617934
 30
0.0
  0
VERTEX
  5
106
  8
DEFAULT
 62
     5
 10
23.29346885281874
 20
73.54948464617934
 30
0.0
 42
0.1907233177561071
  0
VERTEX
  5
107
  8
DEFAULT
 62
     5
 10
23.4823194057699
 20
73.02189981967535
 30
0.0
 42
0.2135192120775348
  0
VERTEX
  5
108
  8
DEFAULT
 62
     5
 10
23.93235807137786
 20
72.83343526346327
 30
0.0
 42
0.1657236937101168
  0
VERTEX
  5
109
  8
DEFAULT
 62
     5
 10
24.24042114576936
 20
72.92699247113764
 30
0.0
 42
0.1589948514629795
  0
SEQEND
  5
10A
  8
DEFAULT
 62
     5
  0
POLYLINE
  5
10B
  8
DEFAULT
 62
     5
 66
     1
 10
0.0
 20
0.0
 30
0.0
 70
     1
  0
VERTEX
  5
10C
  8
DEFAULT
 62
     5
 10
22.15766638368294
 20
74.36429946099415
 30
0.0
  0
VERTEX
  5
10D
  8
DEFAULT
 62
     5
 10
21.39223428491751
 20
74.24084267087069
 30
0.0
 42
0.1809968098175355
  0
VERTEX
  5
10E
  8
DEFAULT
 62
     5
 10
21.22132400890818
 20
74.57359748005285
 30
0.0
 42
0.1804760167669879
  0
VERTEX
  5
10F
  8
DEFAULT
 62
     5
 10
20.87564480817951
 20
74.68528711531513
 30
0.0
 42
0.2329674834671572
  0
VERTEX
  5
110
  8
DEFAULT
 62
     5
 10
20.42464181006429
 20
74.48466997265176
 30
0.0
 42
0.1695179555120429
  0
VERTEX
  5
111
  8
DEFAULT
 62
     5
 10
20.25643181578169
 20
73.81337379409483
 30
0.0
 42
0.1610966817174999
  0
VERTEX
  5
112
  8
DEFAULT
 62
     5
 10
20.42869279780338
 20
73.07398319421746
 30
0.0
 42
0.2405540491094343
  0
VERTEX
  5
113
  8
DEFAULT
 62
     5
 10
20.89107714242368
 20
72.85812662148798
 30
0.0
 42
0.1883458441869107
  0
VERTEX
  5
114
  8
DEFAULT
 62
     5
 10
21.24620827111092
 20
72.98042617492611
 30
0.0
 42
0.1622604489947801
  0
VERTEX
  5
115
  8
DEFAULT
 62
     5
 10
21.4416170009669
 20
73.40133649803118
 30
0.0
  0
VERTEX
  5
116
  8
DEFAULT
 62
     5
 10
22.20704909973233
 20
73.30257106593241
 30
0.0
 42
-0.1724509721435848
  0
VERTEX
  5
117
  8
DEFAULT
 62
     5
 10
21.75990418517814
 20
72.50897552232034
 30
0.0
 42
-0.1746967243539256
  0
VERTEX
  5
118
  8
DEFAULT
 62
     5
 10
20.87333033480886
 20
72.24084267087069
 30
0.0
 42
-0.2163976905724378
  0
VERTEX
  5
119
  8
DEFAULT
 62
     5
 10
19.86638559601598
 20
72.64304185385369
 30
0.0
 42
-0.1943870566321063
  0
VERTEX
  5
11A
  8
DEFAULT
 62
     5
 10
19.49099971701627
 20
73.75666071927947
 30
0.0
 42
-0.1945054615972626
  0
VERTEX
  5
11B
  8
DEFAULT
 62
     5
 10
19.86619269183794
 20
74.87703104255411
 30
0.0
 42
-0.2157801631579799
  0
VERTEX
  5
11C
  8
DEFAULT
 62
     5
 10
20.88104612516497
 20
75.27787970790773
 30
0.0
 42
-0.159942307695799
  0
VERTEX
  5
11D
  8
DEFAULT
 62
     5
 10
21.71360793597758
 20
75.05218539886356
 30
0.0
 42
-0.1682635697126136
  0
SEQEND
  5
11E
  8
DEFAULT
 62
     5
  0
POLYLINE
  5
11F
  8
DEFAULT
 62
     5
 66
     1
 10
0.0
 20
0.0
 30
0.0
 70
     1
  0
VERTEX
  5
120
  8
DEFAULT
 62
     5
 10
18.10828366763356
 20
73.69763279432749
 30
0.0
  0
VERTEX
  5
121
  8
DEFAULT
 62
     5
 10
17.66268198650378
 20
73.5807347462578
 30
0.0
  0
VERTEX
  5
122
  8
DEFAULT
 62
     5
 10
17.26414817128677
 20
73.44763312399772
 30
0.0
 42
0.2517191883486258
  0
VERTEX
  5
123
  8
DEFAULT
 62
     5
 10
17.1206293466459
 20
73.17834303586272
 30
0.0
 42
0.429815094554497
  0
VERTEX
  5
124
  8
DEFAULT
 62
     5
 10
17.52726532572409
 20
72.78405254741392
 30
0.0
 42
0.1670482644845582
  0
VERTEX
  5
125
  8
DEFAULT
 62
     5
 10
17.90496605486044
 20
72.91985520493267
 30
0.0
 42
0.1651612454991042
  0
VERTEX
  5
126
  8
DEFAULT
 62
     5
 10
18.0797346028138
 20
73.17294171887727
 30
0.0
  0
VERTEX
  5
127
  8
DEFAULT
 62
     5
 10
18.10828366763356
 20
73.54524113102816
 30
0.0
  0
SEQEND
  5
128
  8
DEFAULT
 62
     5
  0
POLYLINE
  5
129
  8
DEFAULT
 62
     5
 66
     1
 10
0.0
 20
0.0
 30
0.0
 70
     1
  0
VERTEX
  5
12A
  8
DEFAULT
 62
     5
 10
17.1453207046706
 20
74.31491674494477
 30
0.0
  0
VERTEX
  5
12B
  8
DEFAULT
 62
     5
 10
16.45396267997924
 20
74.41368217704353
 30
0.0
 42
-0.1714833175990252
  0
VERTEX
  5
12C
  8
DEFAULT
 62
     5
 10
16.84883169257923
 20
75.06607431130033
 30
0.0
 42
-0.1608829132837323
  0
VERTEX
  5
12D
  8
DEFAULT
 62
     5
 10
17.6812005992138
 20
75.27787970790773
 30
0.0
 42
-0.1088364278880681
  0
VERTEX
  5
12E
  8
DEFAULT
 62
     5
 10
18.42811408526922
 20
75.15654486374285
 30
0.0
 42
-0.1580303644335033
  0
VERTEX
  5
12F
  8
DEFAULT
 62
     5
 10
18.77360019343684
 20
74.8482886967903
 30
0.0
 42
-0.1088017057953274
  0
VERTEX
  5
130
  8
DEFAULT
 62
     5
 10
18.87371576639899
 20
74.16213927328933
 30
0.0
  0
VERTEX
  5
131
  8
DEFAULT
 62
     5
 10
18.87371576639899
 20
73.26707745070279
 30
0.0
  0
VERTEX
  5
132
  8
DEFAULT
 62
     5
 10
18.91538250370927
 20
72.7036128238471
 30
0.0
  0
VERTEX
  5
133
  8
DEFAULT
 62
     5
 10
19.07124663059652
 20
72.31491674494477
 30
0.0
  0
VERTEX
  5
134
  8
DEFAULT
 62
     5
 10
18.30581453183109
 20
72.31491674494477
 30
0.0
  0
VERTEX
  5
135
  8
DEFAULT
 62
     5
 10
18.23251207446922
 20
72.53868220059141
 30
0.0
  0
VERTEX
  5
136
  8
DEFAULT
 62
     5
 10
18.20550624307388
 20
72.62780280055354
 30
0.0
  0
VERTEX
  5
137
  8
DEFAULT
 62
     5
 10
17.78768182166868
 20
72.33767924957192
 30
0.0
 42
-0.1040133466925651
  0
VERTEX
  5
138
  8
DEFAULT
 62
     5
 10
17.31275927062395
 20
72.2408426708707
 30
0.0
 42
-0.1965430357596694
  0
VERTEX
  5
139
  8
DEFAULT
 62
     5
 10
16.61156313285194
 20
72.48293383504931
 30
0.0
 42
-0.2154369487651172
  0
VERTEX
  5
13A
  8
DEFAULT
 62
     5
 10
16.35519724788048
 20
73.09500956124215
 30
0.0
 42
-0.1373780248024636
  0
VERTEX
  5
13B
  8
DEFAULT
 62
     5
 10
16.46939482584041
 20
73.53173783856452
 30
0.0
 42
-0.1473783213971515
  0
VERTEX
  5
13C
  8
DEFAULT
 62
     5
 10
16.78941814765413
 20
73.82552638054615
 30
0.0
  0
VERTEX
  5
13D
  8
DEFAULT
 62
     5
 10
17.38297526113698
 20
74.00357429952638
 30
0.0
  0
VERTEX
  5
13E
  8
DEFAULT
 62
     5
 10
18.10828366763356
 20
74.19145995482131
 30
0.0
  0
VERTEX
  5
13F
  8
DEFAULT
 62
     5
 10
18.10828366763355
 20
74.26900630410032
 30
0.0
 42
0.2070921599656087
  0
VERTEX
  5
140
  8
DEFAULT
 62
     5
 10
18.00585324453479
 20
74.5896081500652
 30
0.0
 42
0.1777887432707979
  0
VERTEX
  5
141
  8
DEFAULT
 62
     5
 10
17.61908620741298
 20
74.68528711531515
 30
0.0
 42
0.1651091138038434
  0
VERTEX
  5
142
  8
DEFAULT
 62
     5
 10
17.31951072847279
 20
74.60311125414584
 30
0.0
  0
SEQEND
  5
143
  8
DEFAULT
 62
     5
  0
POLYLINE
  5
144
  8
DEFAULT
 62
     5
 66
     1
 10
0.0
 20
0.0
 30
0.0
 70
     1
  0
VERTEX
  5
145
  8
DEFAULT
 62
     5
 10
13.96013551948541
 20
73.80797247710937
 30
0.0
 42
0.1662127852120463
  0
VERTEX
  5
146
  8
DEFAULT
 62
     5
 10
14.14956459658774
 20
73.07147543990278
 30
0.0
 42
0.240446165349766
  0
VERTEX
  5
147
  8
DEFAULT
 62
     5
 10
14.61098442031778
 20
72.83343526346329
 30
0.0
 42
0.2413239634426941
  0
VERTEX
  5
148
  8
DEFAULT
 62
     5
 10
15.04597674842065
 20
73.05199249468552
 30
0.0
 42
0.1627449374921694
  0
VERTEX
  5
149
  8
DEFAULT
 62
     5
 10
15.21939477874468
 20
73.7690065866748
 30
0.0
 42
0.1661976731382075
  0
VERTEX
  5
14A
  8
DEFAULT
 62
     5
 10
15.04057543143519
 20
74.45978571044901
 30
0.0
 42
0.5079902430882598
  0
VERTEX
  5
14B
  8
DEFAULT
 62
     5
 10
14.14146280949254
 20
74.46383650980512
 30
0.0
 42
0.1723447809988919
  0
SEQEND
  5
14C
  8
DEFAULT
 62
     5
  0
POLYLINE
  5
14D
  8
DEFAULT
 62
     5
 66
     1
 10
0.0
 20
0.0
 30
0.0
 70
     1
  0
VERTEX
  5
14E
  8
DEFAULT
 62
     5
 10
13.19470342071997
 20
75.20380563383365
 30
0.0
  0
VERTEX
  5
14F
  8
DEFAULT
 62
     5
 10
13.91075280343603
 20
75.20380563383365
 30
0.0
  0
VERTEX
  5
150
  8
DEFAULT
 62
     5
 10
13.91075280343603
 20
74.78250969075546
 30
0.0
 42
-0.1189653659007735
  0
VERTEX
  5
151
  8
DEFAULT
 62
     5
 10
14.28054464965523
 20
75.13821934359387
 30
0.0
 42
-0.1382105598909876
  0
VERTEX
  5
152
  8
DEFAULT
 62
     5
 10
14.79771302731037
 20
75.27787970790773
 30
0.0
 42
-0.2273648758850377
  0
VERTEX
  5
153
  8
DEFAULT
 62
     5
 10
15.63914786516442
 20
74.88108203029319
 30
0.0
 42
-0.1838682188936166
  0
VERTEX
  5
154
  8
DEFAULT
 62
     5
 10
15.98482687751008
 20
73.7759507603187
 30
0.0
 42
-0.1823656645300235
  0
VERTEX
  5
155
  8
DEFAULT
 62
     5
 10
15.63625449087663
 20
72.64439218310005
 30
0.0
 42
-0.2285594541574792
  0
VERTEX
  5
156
  8
DEFAULT
 62
     5
 10
14.7915400936127
 20
72.24084267087068
 30
0.0
 42
-0.1163198006807436
  0
VERTEX
  5
157
  8
DEFAULT
 62
     5
 10
14.36368503171476
 20
72.3353643994353
 30
0.0
  0
VERTEX
  5
158
  8
DEFAULT
 62
     5
 10
13.96013551948541
 20
72.6594387089881
 30
0.0
  0
VERTEX
  5
159
  8
DEFAULT
 62
     5
 10
13.96013551948541
 20
71.20380563383365
 30
0.0
  0
VERTEX
  5
15A
  8
DEFAULT
 62
     5
 10
13.19470342071997
 20
71.20380563383365
 30
0.0
  0
SEQEND
  5
15B
  8
DEFAULT
 62
     5
  0
POLYLINE
  5
15C
  8
DEFAULT
 62
     5
 66
     1
 10
0.0
 20
0.0
 30
0.0
 70
     1
  0
VERTEX
  5
15D
  8
DEFAULT
 62
     5
 10
9.836678729361957
 20
73.12973155975958
 30
0.0
  0
VERTEX
  5
15E
  8
DEFAULT
 62
     5
 10
10.60211082812739
 20
73.22849699185835
 30
0.0
 42
0.1817134537413101
  0
VERTEX
  5
15F
  8
DEFAULT
 62
     5
 10
10.80022059324206
 20
72.89709270030554
 30
0.0
 42
0.1637490318832655
  0
VERTEX
  5
160
  8
DEFAULT
 62
     5
 10
11.21746611373012
 20
72.7840525474139
 30
0.0
 42
0.1581548590316079
  0
VERTEX
  5
161
  8
DEFAULT
 62
     5
 10
11.66229636653067
 20
72.89477803855189
 30
0.0
 42
0.2454173628752329
  0
VERTEX
  5
162
  8
DEFAULT
 62
     5
 10
11.76260465528789
 20
73.10233992000813
 30
0.0
  0
VERTEX
  5
163
  8
DEFAULT
 62
     5
 10
11.70820680737511
 20
73.24894483473187
 30
0.0
  0
VERTEX
  5
164
  8
DEFAULT
 62
     5
 10
11.4520338265817
 20
73.35118254203557
 30
0.0
 42
-0.0750101977649307
  0
VERTEX
  5
165
  8
DEFAULT
 62
     5
 10
10.27842289207964
 20
73.72888289440593
 30
0.0
 42
-0.2630575377237115
  0
VERTEX
  5
166
  8
DEFAULT
 62
     5
 10
9.935444161460708
 20
74.38397568715546
 30
0.0
 42
-0.2278055359033999
  0
VERTEX
  5
167
  8
DEFAULT
 62
     5
 10
10.23193336193507
 20
75.02016368207289
 30
0.0
 42
-0.178940957779906
  0
VERTEX
  5
168
  8
DEFAULT
 62
     5
 10
11.15110783001216
 20
75.27787970790773
 30
0.0
 42
-0.1478680227512861
  0
VERTEX
  5
169
  8
DEFAULT
 62
     5
 10
12.03228074016195
 20
75.07822708613462
 30
0.0
 42
-0.1798681362131984
  0
VERTEX
  5
16A
  8
DEFAULT
 62
     5
 10
12.42927132195455
 20
74.4877562511176
 30
0.0
  0
VERTEX
  5
16B
  8
DEFAULT
 62
     5
 10
11.7132219392385
 20
74.36429946099415
 30
0.0
 42
0.1762609448244251
  0
VERTEX
  5
16C
  8
DEFAULT
 62
     5
 10
11.53806777131202
 20
74.63918377029266
 30
0.0
 42
0.1598214678236143
  0
VERTEX
  5
16D
  8
DEFAULT
 62
     5
 10
11.17001206269529
 20
74.73466983136453
 30
0.0
 42
0.1371855487857933
  0
VERTEX
  5
16E
  8
DEFAULT
 62
     5
 10
10.73829929400228
 20
74.6490218833733
 30
0.0
  0
VERTEX
  5
16F
  8
DEFAULT
 62
     5
 10
10.65149354417677
 20
74.49122852632254
 30
0.0
  0
VERTEX
  5
170
  8
DEFAULT
 62
     5
 10
10.72749666003136
 20
74.35002492858428
 30
0.0
  0
VERTEX
  5
171
  8
DEFAULT
 62
     5
 10
11.43930233921326
 20
74.13146788574505
 30
0.0
 42
-0.1095214193377343
  0
VERTEX
  5
172
  8
DEFAULT
 62
     5
 10
12.28922514928458
 20
73.78791081935793
 30
0.0
 42
-0.2284114958797527
  0
VERTEX
  5
173
  8
DEFAULT
 62
     5
 10
12.52803675405331
 20
73.21576569287288
 30
0.0
 42
-0.2276229810650732
  0
VERTEX
  5
174
  8
DEFAULT
 62
     5
 10
12.19701827085661
 20
72.52826556335957
 30
0.0
 42
-0.1809722242825169
  0
VERTEX
  5
175
  8
DEFAULT
 62
     5
 10
11.21746611373012
 20
72.24084267087069
 30
0.0
 42
-0.1534212868272173
  0
VERTEX
  5
176
  8
DEFAULT
 62
     5
 10
10.2855599699016
 20
72.48004027237852
 30
0.0
 42
-0.18535426201663
  0
SEQEND
  5
177
  8
DEFAULT
 62
     5
  0
POLYLINE
  5
178
  8
DEFAULT
 62
     5
 66
     1
 10
0.0
 20
0.0
 30
0.0
 70
     1
  0
VERTEX
  5
179
  8
DEFAULT
 62
     5
 10
9.342851568868127
 20
72.31491674494477
 30
0.0
  0
VERTEX
  5
17A
  8
DEFAULT
 62
     5
 10
8.577419470102697
 20
72.31491674494477
 30
0.0
  0
VERTEX
  5
17B
  8
DEFAULT
 62
     5
 10
8.577419470102697
 20
73.78983986113845
 30
0.0
  0
VERTEX
  5
17C
  8
DEFAULT
 62
     5
 10
8.529194179121625
 20
74.3955497494556
 30
0.0
  0
VERTEX
  5
17D
  8
DEFAULT
 62
     5
 10
8.372558435522173
 20
74.60909128366548
 30
0.0
  0
VERTEX
  5
17E
  8
DEFAULT
 62
     5
 10
8.111755942838492
 20
74.68528711531513
 30
0.0
 42
0.1576987046345082
  0
VERTEX
  5
17F
  8
DEFAULT
 62
     5
 10
7.761254514424494
 20
74.57649085434066
 30
0.0
 42
0.1684371822617379
  0
VERTEX
  5
180
  8
DEFAULT
 62
     5
 10
7.548484408543848
 20
74.28810362934449
 30
0.0
  0
VERTEX
  5
181
  8
DEFAULT
 62
     5
 10
7.490999717016273
 20
73.62394452860951
 30
0.0
  0
VERTEX
  5
182
  8
DEFAULT
 62
     5
 10
7.490999717016273
 20
72.31491674494477
 30
0.0
  0
VERTEX
  5
183
  8
DEFAULT
 62
     5
 10
6.725567618250842
 20
72.31491674494477
 30
0.0
  0
VERTEX
  5
184
  8
DEFAULT
 62
     5
 10
6.725567618250842
 20
75.20380563383365
 30
0.0
  0
VERTEX
  5
185
  8
DEFAULT
 62
     5
 10
7.441617000966893
 20
75.20380563383365
 30
0.0
  0
VERTEX
  5
186
  8
DEFAULT
 62
     5
 10
7.441617000966891
 20
74.78250969075546
 30
0.0
 42
-0.2486296121988263
  0
VERTEX
  5
187
  8
DEFAULT
 62
     5
 10
8.382975072753993
 20
75.27787970790772
 30
0.0
  0
VERTEX
  5
188
  8
DEFAULT
 62
     5
 10
8.839958100388841
 20
75.18644463457494
 30
0.0
 42
-0.1292191717088763
  0
VERTEX
  5
189
  8
DEFAULT
 62
     5
 10
9.153229775970729
 20
74.95322706258673
 30
0.0
  0
VERTEX
  5
18A
  8
DEFAULT
 62
     5
 10
9.301185019940824
 20
74.6312748873755
 30
0.0
  0
VERTEX
  5
18B
  8
DEFAULT
 62
     5
 10
9.342851568868127
 20
74.11545721573269
 30
0.0
  0
SEQEND
  5
18C
  8
DEFAULT
 62
     5
  0
POLYLINE
  5
18D
  8
DEFAULT
 62
     5
 66
     1
 10
0.0
 20
0.0
 30
0.0
 70
     1
  0
VERTEX
  5
18E
  8
DEFAULT
 62
     5
 10
5.170012062695285
 20
73.69763279432749
 30
0.0
  0
VERTEX
  5
18F
  8
DEFAULT
 62
     5
 10
4.724410381565519
 20
73.5807347462578
 30
0.0
  0
VERTEX
  5
190
  8
DEFAULT
 62
     5
 10
4.3258765663485
 20
73.44763312399772
 30
0.0
 42
0.2517191883486253
  0
VERTEX
  5
191
  8
DEFAULT
 62
     5
 10
4.182357741707623
 20
73.17834303586272
 30
0.0
 42
0.4298150945544994
  0
VERTEX
  5
192
  8
DEFAULT
 62
     5
 10
4.588993720785815
 20
72.78405254741392
 30
0.0
 42
0.167048264484557
  0
VERTEX
  5
193
  8
DEFAULT
 62
     5
 10
4.966694449922164
 20
72.91985520493269
 30
0.0
 42
0.1651612454990912
  0
VERTEX
  5
194
  8
DEFAULT
 62
     5
 10
5.14146299787553
 20
73.17294171887727
 30
0.0
  0
VERTEX
  5
195
  8
DEFAULT
 62
     5
 10
5.170012062695285
 20
73.54524113102816
 30
0.0
  0
SEQEND
  5
196
  8
DEFAULT
 62
     5
  0
POLYLINE
  5
197
  8
DEFAULT
 62
     5
 66
     1
 10
0.0
 20
0.0
 30
0.0
 70
     1
  0
VERTEX
  5
198
  8
DEFAULT
 62
     5
 10
4.207049099732323
 20
74.31491674494477
 30
0.0
  0
VERTEX
  5
199
  8
DEFAULT
 62
     5
 10
3.51569107504098
 20
74.41368217704351
 30
0.0
 42
-0.1714833175990379
  0
VERTEX
  5
19A
  8
DEFAULT
 62
     5
 10
3.910560087640958
 20
75.06607431130034
 30
0.0
 42
-0.1608829132837231
  0
VERTEX
  5
19B
  8
DEFAULT
 62
     5
 10
4.74292899427553
 20
75.27787970790773
 30
0.0
 42
-0.1088364278880718
  0
VERTEX
  5
19C
  8
DEFAULT
 62
     5
 10
5.489842480330948
 20
75.15654486374285
 30
0.0
 42
-0.1580303644335046
  0
VERTEX
  5
19D
  8
DEFAULT
 62
     5
 10
5.835328588498579
 20
74.8482886967903
 30
0.0
 42
-0.1088017057953385
  0
VERTEX
  5
19E
  8
DEFAULT
 62
     5
 10
5.935444161460714
 20
74.16213927328934
 30
0.0
  0
VERTEX
  5
19F
  8
DEFAULT
 62
     5
 10
5.935444161460715
 20
73.26707745070279
 30
0.0
  0
VERTEX
  5
1A0
  8
DEFAULT
 62
     5
 10
5.977110898771002
 20
72.7036128238471
 30
0.0
  0
VERTEX
  5
1A1
  8
DEFAULT
 62
     5
 10
6.132975025658247
 20
72.31491674494477
 30
0.0
  0
VERTEX
  5
1A2
  8
DEFAULT
 62
     5
 10
5.367542926892817
 20
72.31491674494477
 30
0.0
  0
VERTEX
  5
1A3
  8
DEFAULT
 62
     5
 10
5.294240469530955
 20
72.53868220059141
 30
0.0
  0
VERTEX
  5
1A4
  8
DEFAULT
 62
     5
 10
5.267234638135605
 20
72.62780280055354
 30
0.0
  0
VERTEX
  5
1A5
  8
DEFAULT
 62
     5
 10
4.849410216730404
 20
72.33767924957192
 30
0.0
 42
-0.1040133466925613
  0
VERTEX
  5
1A6
  8
DEFAULT
 62
     5
 10
4.374487665685677
 20
72.24084267087069
 30
0.0
 42
-0.1965430357596745
  0
VERTEX
  5
1A7
  8
DEFAULT
 62
     5
 10
3.673291527913675
 20
72.48293383504931
 30
0.0
 42
-0.2154369487651169
  0
VERTEX
  5
1A8
  8
DEFAULT
 62
     5
 10
3.416925642942194
 20
73.09500956124215
 30
0.0
 42
-0.137378024802445
  0
VERTEX
  5
1A9
  8
DEFAULT
 62
     5
 10
3.531123220902143
 20
73.53173783856452
 30
0.0
 42
-0.1473783213971383
  0
VERTEX
  5
1AA
  8
DEFAULT
 62
     5
 10
3.85114654271586
 20
73.82552638054614
 30
0.0
  0
VERTEX
  5
1AB
  8
DEFAULT
 62
     5
 10
4.444703656198712
 20
74.00357429952638
 30
0.0
  0
VERTEX
  5
1AC
  8
DEFAULT
 62
     5
 10
5.170012062695285
 20
74.19145995482131
 30
0.0
  0
VERTEX
  5
1AD
  8
DEFAULT
 62
     5
 10
5.170012062695291
 20
74.26900630410032
 30
0.0
 42
0.2070921599656294
  0
VERTEX
  5
1AE
  8
DEFAULT
 62
     5
 10
5.067581639596524
 20
74.58960815006522
 30
0.0
 42
0.1777887432707694
  0
VERTEX
  5
1AF
  8
DEFAULT
 62
     5
 10
4.680814602474713
 20
74.68528711531513
 30
0.0
 42
0.16510911380389
  0
VERTEX
  5
1B0
  8
DEFAULT
 62
     5
 10
4.381239123534514
 20
74.60311125414586
 30
0.0
  0
SEQEND
  5
1B1
  8
DEFAULT
 62
     5
  0
POLYLINE
  5
1B2
  8
DEFAULT
 62
     5
 66
     1
 10
0.0
 20
0.0
 30
0.0
 70
     1
  0
VERTEX
  5
1B3
  8
DEFAULT
 62
     5
 10
-1.34850645582323
 20
75.20380563383365
 30
0.0
  0
VERTEX
  5
1B4
  8
DEFAULT
 62
     5
 10
-0.6571484311318727
 20
75.20380563383365
 30
0.0
  0
VERTEX
  5
1B5
  8
DEFAULT
 62
     5
 10
-0.657148431131872
 20
74.81221618064353
 30
0.0
 42
-0.2373869490350071
  0
VERTEX
  5
1B6
  8
DEFAULT
 62
     5
 10
0.2413856666596174
 20
75.27787970790772
 30
0.0
 42
-0.1315120310734553
  0
VERTEX
  5
1B7
  8
DEFAULT
 62
     5
 10
0.7215168188947336
 20
75.16213908490636
 30
0.0
 42
-0.1393853272244872
  0
VERTEX
  5
1B8
  8
DEFAULT
 62
     5
 10
1.055428864762228
 20
74.81221618064353
 30
0.0
 42
-0.1018343532165713
  0
VERTEX
  5
1B9
  8
DEFAULT
 62
     5
 10
1.463993697237946
 20
75.16213908490636
 30
0.0
 42
-0.1239296679570952
  0
VERTEX
  5
1BA
  8
DEFAULT
 62
     5
 10
1.931972263021756
 20
75.27787970790773
 30
0.0
 42
-0.1355305589141979
  0
VERTEX
  5
1BB
  8
DEFAULT
 62
     5
 10
2.467851780798989
 20
75.14825017246959
 30
0.0
 42
-0.1623661969580925
  0
VERTEX
  5
1BC
  8
DEFAULT
 62
     5
 10
2.795398177173746
 20
74.76784897322351
 30
0.0
 42
-0.091544281031437
  0
VERTEX
  5
1BD
  8
DEFAULT
 62
     5
 10
2.873715766398987
 20
74.16754021350883
 30
0.0
  0
VERTEX
  5
1BE
  8
DEFAULT
 62
     5
 10
2.873715766398988
 20
72.31491674494477
 30
0.0
  0
VERTEX
  5
1BF
  8
DEFAULT
 62
     5
 10
2.108283667633557
 20
72.31491674494477
 30
0.0
  0
VERTEX
  5
1C0
  8
DEFAULT
 62
     5
 10
2.108283667633563
 20
73.96692325922844
 30
0.0
 42
0.1141470137910679
  0
VERTEX
  5
1C1
  8
DEFAULT
 62
     5
 10
2.030351886764409
 20
74.5220928180449
 30
0.0
 42
0.2721000606534006
  0
VERTEX
  5
1C2
  8
DEFAULT
 62
     5
 10
1.707435190662906
 20
74.68528711531515
 30
0.0
  0
VERTEX
  5
1C3
  8
DEFAULT
 62
     5
 10
1.409016760025051
 20
74.58729329992858
 30
0.0
 42
0.1657627374473822
  0
VERTEX
  5
1C4
  8
DEFAULT
 62
     5
 10
1.207242003910365
 20
74.30025640417878
 30
0.0
  0
VERTEX
  5
1C5
  8
DEFAULT
 62
     5
 10
1.145320704670596
 20
73.70303411131295
 30
0.0
  0
VERTEX
  5
1C6
  8
DEFAULT
 62
     5
 10
1.145320704670596
 20
72.31491674494477
 30
0.0
  0
VERTEX
  5
1C7
  8
DEFAULT
 62
     5
 10
0.3798886059051654
 20
72.31491674494477
 30
0.0
  0
VERTEX
  5
1C8
  8
DEFAULT
 62
     5
 10
0.3798886059051654
 20
73.89863593372995
 30
0.0
  0
VERTEX
  5
1C9
  8
DEFAULT
 62
     5
 10
0.3399581945803334
 20
74.44319613951953
 30
0.0
  0
VERTEX
  5
1CA
  8
DEFAULT
 62
     5
 10
0.2159228803057047
 20
74.62548776203393
 30
0.0
  0
VERTEX
  5
1CB
  8
DEFAULT
 62
     5
 10
-0.0120866556410631
 20
74.68528711531515
 30
0.0
 42
0.3306618495400677
  0
VERTEX
  5
1CC
  8
DEFAULT
 62
     5
 10
-0.5230819112155507
 20
74.3151098375058
 30
0.0
  0
VERTEX
  5
1CD
  8
DEFAULT
 62
     5
 10
-0.5830743570578001
 20
73.71923806226931
 30
0.0
  0
VERTEX
  5
1CE
  8
DEFAULT
 62
     5
 10
-0.5830743570578001
 20
72.31491674494477
 30
0.0
  0
VERTEX
  5
1CF
  8
DEFAULT
 62
     5
 10
-1.34850645582323
 20
72.31491674494477
 30
0.0
  0
SEQEND
  5
1D0
  8
DEFAULT
 62
     5
  0
POLYLINE
  5
1D1
  8
DEFAULT
 62
     5
 66
     1
 10
0.0
 20
0.0
 30
0.0
 70
     1
  0
VERTEX
  5
1D2
  8
DEFAULT
 62
     5
 10
-4.632457073107183
 20
73.12973155975958
 30
0.0
  0
VERTEX
  5
1D3
  8
DEFAULT
 62
     5
 10
-3.867024974341745
 20
73.22849699185835
 30
0.0
 42
0.1817134537413048
  0
VERTEX
  5
1D4
  8
DEFAULT
 62
     5
 10
-3.668915209227078
 20
72.89709270030554
 30
0.0
 42
0.1637490318832405
  0
VERTEX
  5
1D5
  8
DEFAULT
 62
     5
 10
-3.251669688739014
 20
72.78405254741392
 30
0.0
 42
0.1581548590316169
  0
VERTEX
  5
1D6
  8
DEFAULT
 62
     5
 10
-2.806839435938457
 20
72.89477803855189
 30
0.0
 42
0.2454173628752322
  0
VERTEX
  5
1D7
  8
DEFAULT
 62
     5
 10
-2.706531147181253
 20
73.10233992000813
 30
0.0
  0
VERTEX
  5
1D8
  8
DEFAULT
 62
     5
 10
-2.760928995094019
 20
73.24894483473187
 30
0.0
  0
VERTEX
  5
1D9
  8
DEFAULT
 62
     5
 10
-3.017101975887431
 20
73.35118254203557
 30
0.0
 42
-0.0750101977649291
  0
VERTEX
  5
1DA
  8
DEFAULT
 62
     5
 10
-4.190712910389491
 20
73.72888289440594
 30
0.0
 42
-0.2630575377237057
  0
VERTEX
  5
1DB
  8
DEFAULT
 62
     5
 10
-4.533691641008424
 20
74.38397568715546
 30
0.0
 42
-0.2278055359033912
  0
VERTEX
  5
1DC
  8
DEFAULT
 62
     5
 10
-4.237202440534067
 20
75.02016368207289
 30
0.0
 42
-0.1789409577799042
  0
VERTEX
  5
1DD
  8
DEFAULT
 62
     5
 10
-3.318027972456977
 20
75.27787970790773
 30
0.0
 42
-0.1478680227512857
  0
VERTEX
  5
1DE
  8
DEFAULT
 62
     5
 10
-2.436855062307188
 20
75.07822708613462
 30
0.0
 42
-0.1798681362131984
  0
VERTEX
  5
1DF
  8
DEFAULT
 62
     5
 10
-2.039864480514583
 20
74.4877562511176
 30
0.0
  0
VERTEX
  5
1E0
  8
DEFAULT
 62
     5
 10
-2.755913863230643
 20
74.36429946099415
 30
0.0
 42
0.1762609448244004
  0
VERTEX
  5
1E1
  8
DEFAULT
 62
     5
 10
-2.931068031157122
 20
74.63918377029265
 30
0.0
 42
0.1598214678236346
  0
VERTEX
  5
1E2
  8
DEFAULT
 62
     5
 10
-3.299123739773847
 20
74.73466983136453
 30
0.0
 42
0.137185548785781
  0
VERTEX
  5
1E3
  8
DEFAULT
 62
     5
 10
-3.730836508466858
 20
74.6490218833733
 30
0.0
  0
VERTEX
  5
1E4
  8
DEFAULT
 62
     5
 10
-3.817642258292366
 20
74.49122852632254
 30
0.0
  0
VERTEX
  5
1E5
  8
DEFAULT
 62
     5
 10
-3.741639142437773
 20
74.35002492858428
 30
0.0
  0
VERTEX
  5
1E6
  8
DEFAULT
 62
     5
 10
-3.029833463255883
 20
74.13146788574504
 30
0.0
 42
-0.1095214193377312
  0
VERTEX
  5
1E7
  8
DEFAULT
 62
     5
 10
-2.179910653184553
 20
73.78791081935792
 30
0.0
 42
-0.2284114958797466
  0
VERTEX
  5
1E8
  8
DEFAULT
 62
     5
 10
-1.941099048415833
 20
73.21576569287288
 30
0.0
 42
-0.2276229810650766
  0
VERTEX
  5
1E9
  8
DEFAULT
 62
     5
 10
-2.272117531612528
 20
72.52826556335958
 30
0.0
 42
-0.1809722242825252
  0
VERTEX
  5
1EA
  8
DEFAULT
 62
     5
 10
-3.251669688739014
 20
72.24084267087069
 30
0.0
 42
-0.1534212868272175
  0
VERTEX
  5
1EB
  8
DEFAULT
 62
     5
 10
-4.183575832567539
 20
72.48004027237852
 30
0.0
 42
-0.1853542620166075
  0
SEQEND
  5
1EC
  8
DEFAULT
 62
     5
  0
POLYLINE
  5
1ED
  8
DEFAULT
 62
     5
 66
     1
 10
0.0
 20
0.0
 30
0.0
 70
     1
  0
VERTEX
  5
1EE
  8
DEFAULT
 62
     5
 10
-4.879370653354094
 20
75.20380563383365
 30
0.0
  0
VERTEX
  5
1EF
  8
DEFAULT
 62
     5
 10
-4.879370653354094
 20
74.61121304124106
 30
0.0
  0
VERTEX
  5
1F0
  8
DEFAULT
 62
     5
 10
-5.397889171872613
 20
74.61121304124106
 30
0.0
  0
VERTEX
  5
1F1
  8
DEFAULT
 62
     5
 10
-5.397889171872613
 20
73.41831206569977
 30
0.0
  0
VERTEX
  5
1F2
  8
DEFAULT
 62
     5
 10
-5.383228642723644
 20
72.99605103658236
 30
0.0
  0
VERTEX
  5
1F3
  8
DEFAULT
 62
     5
 10
-5.317063451566717
 20
72.89709270030554
 30
0.0
  0
VERTEX
  5
1F4
  8
DEFAULT
 62
     5
 10
-5.191098907128584
 20
72.85812662148798
 30
0.0
  0
VERTEX
  5
1F5
  8
DEFAULT
 62
     5
 10
-4.891716143983455
 20
72.93104364725971
 30
0.0
  0
VERTEX
  5
1F6
  8
DEFAULT
 62
     5
 10
-4.829987937304711
 20
72.3519539703648
 30
0.0
 42
-0.1009135694950951
  0
VERTEX
  5
1F7
  8
DEFAULT
 62
     5
 10
-5.425666619980166
 20
72.24084267087069
 30
0.0
  0
VERTEX
  5
1F8
  8
DEFAULT
 62
     5
 10
-5.793143616062743
 20
72.31105884976671
 30
0.0
  0
VERTEX
  5
1F9
  8
DEFAULT
 62
     5
 10
-6.033305738460818
 20
72.49257904395189
 30
0.0
  0
VERTEX
  5
1FA
  8
DEFAULT
 62
     5
 10
-6.139015344203486
 20
72.7936977563165
 30
0.0
  0
VERTEX
  5
1FB
  8
DEFAULT
 62
     5
 10
-6.163321270638047
 20
73.33806505792803
 30
0.0
  0
VERTEX
  5
1FC
  8
DEFAULT
 62
     5
 10
-6.163321270638047
 20
74.61121304124106
 30
0.0
  0
VERTEX
  5
1FD
  8
DEFAULT
 62
     5
 10
-6.533691641008417
 20
74.61121304124106
 30
0.0
  0
VERTEX
  5
1FE
  8
DEFAULT
 62
     5
 10
-6.533691641008417
 20
75.20380563383365
 30
0.0
  0
VERTEX
  5
1FF
  8
DEFAULT
 62
     5
 10
-6.163321270638047
 20
75.20380563383365
 30
0.0
  0
VERTEX
  5
200
  8
DEFAULT
 62
     5
 10
-6.163321270638047
 20
75.74701551037687
 30
0.0
  0
VERTEX
  5
201
  8
DEFAULT
 62
     5
 10
-5.397889171872613
 20
76.19145995482131
 30
0.0
  0
VERTEX
  5
202
  8
DEFAULT
 62
     5
 10
-5.397889171872613
 20
75.20380563383365
 30
0.0
  0
SEQEND
  5
203
  8
DEFAULT
 62
     5
  0
POLYLINE
  5
204
  8
DEFAULT
 62
     5
 66
     1
 10
0.0
 20
0.0
 30
0.0
 70
     1
  0
VERTEX
  5
205
  8
DEFAULT
 62
     5
 10
-8.360852134835575
 20
75.20380563383365
 30
0.0
  0
VERTEX
  5
206
  8
DEFAULT
 62
     5
 10
-7.965790406440515
 20
75.20380563383365
 30
0.0
  0
VERTEX
  5
207
  8
DEFAULT
 62
     5
 10
-7.965790406440518
 20
75.4202411074803
 30
0.0
 42
-0.0950504639922824
  0
VERTEX
  5
208
  8
DEFAULT
 62
     5
 10
-7.889401482229812
 20
75.96113613388687
 30
0.0
 42
-0.1716707163024314
  0
VERTEX
  5
209
  8
DEFAULT
 62
     5
 10
-7.607958430877555
 20
76.25203111319772
 30
0.0
 42
-0.1257658996646562
  0
VERTEX
  5
20A
  8
DEFAULT
 62
     5
 10
-7.089247008180987
 20
76.36429946099415
 30
0.0
  0
VERTEX
  5
20B
  8
DEFAULT
 62
     5
 10
-6.459617566934341
 20
76.26553402889539
 30
0.0
  0
VERTEX
  5
20C
  8
DEFAULT
 62
     5
 10
-6.546037131637775
 20
75.72849708604984
 30
0.0
  0
VERTEX
  5
20D
  8
DEFAULT
 62
     5
 10
-6.893259377407873
 20
75.77170686840155
 30
0.0
 42
0.2070684672811777
  0
VERTEX
  5
20E
  8
DEFAULT
 62
     5
 10
-7.12898470371075
 20
75.69570394092995
 30
0.0
 42
0.1773524100532076
  0
VERTEX
  5
20F
  8
DEFAULT
 62
     5
 10
-7.200358307675086
 20
75.40365134816781
 30
0.0
  0
VERTEX
  5
210
  8
DEFAULT
 62
     5
 10
-7.200358307675081
 20
75.20380563383365
 30
0.0
  0
VERTEX
  5
211
  8
DEFAULT
 62
     5
 10
-6.657148431131873
 20
75.20380563383365
 30
0.0
  0
VERTEX
  5
212
  8
DEFAULT
 62
     5
 10
-6.657148431131873
 20
74.61121304124106
 30
0.0
  0
VERTEX
  5
213
  8
DEFAULT
 62
     5
 10
-7.200358307675081
 20
74.61121304124106
 30
0.0
  0
VERTEX
  5
214
  8
DEFAULT
 62
     5
 10
-7.200358307675081
 20
72.31491674494477
 30
0.0
  0
VERTEX
  5
215
  8
DEFAULT
 62
     5
 10
-7.965790406440515
 20
72.31491674494477
 30
0.0
  0
VERTEX
  5
216
  8
DEFAULT
 62
     5
 10
-7.965790406440515
 20
74.61121304124106
 30
0.0
  0
VERTEX
  5
217
  8
DEFAULT
 62
     5
 10
-8.360852134835575
 20
74.61121304124106
 30
0.0
  0
SEQEND
  5
218
  8
DEFAULT
 62
     5
  0
POLYLINE
  5
219
  8
DEFAULT
 62
     5
 66
     1
 10
0.0
 20
0.0
 30
0.0
 70
     1
  0
VERTEX
  5
21A
  8
DEFAULT
 62
     5
 10
-9.620111394094835
 20
73.69763279432749
 30
0.0
  0
VERTEX
  5
21B
  8
DEFAULT
 62
     5
 10
-10.06571307522461
 20
73.5807347462578
 30
0.0
  0
VERTEX
  5
21C
  8
DEFAULT
 62
     5
 10
-10.46424689044162
 20
73.4476331239977
 30
0.0
 42
0.2517191883486035
  0
VERTEX
  5
21D
  8
DEFAULT
 62
     5
 10
-10.6077657150825
 20
73.17834303586272
 30
0.0
 42
0.4298150945544698
  0
VERTEX
  5
21E
  8
DEFAULT
 62
     5
 10
-10.2011297360043
 20
72.78405254741392
 30
0.0
 42
0.1670482644845528
  0
VERTEX
  5
21F
  8
DEFAULT
 62
     5
 10
-9.82342900686795
 20
72.91985520493267
 30
0.0
 42
0.165161245499102
  0
VERTEX
  5
220
  8
DEFAULT
 62
     5
 10
-9.648660458914591
 20
73.17294171887727
 30
0.0
  0
VERTEX
  5
221
  8
DEFAULT
 62
     5
 10
-9.620111394094835
 20
73.54524113102816
 30
0.0
  0
SEQEND
  5
222
  8
DEFAULT
 62
     5
  0
POLYLINE
  5
223
  8
DEFAULT
 62
     5
 66
     1
 10
0.0
 20
0.0
 30
0.0
 70
     1
  0
VERTEX
  5
224
  8
DEFAULT
 62
     5
 10
-10.5830743570578
 20
74.31491674494477
 30
0.0
  0
VERTEX
  5
225
  8
DEFAULT
 62
     5
 10
-11.27443238174916
 20
74.41368217704353
 30
0.0
 42
-0.171483317599024
  0
VERTEX
  5
226
  8
DEFAULT
 62
     5
 10
-10.87956336914916
 20
75.06607431130033
 30
0.0
 42
-0.1608829132837332
  0
VERTEX
  5
227
  8
DEFAULT
 62
     5
 10
-10.04719446251459
 20
75.27787970790773
 30
0.0
 42
-0.1088364278880614
  0
VERTEX
  5
228
  8
DEFAULT
 62
     5
 10
-9.300280976459172
 20
75.15654486374284
 30
0.0
 42
-0.1580303644335345
  0
VERTEX
  5
229
  8
DEFAULT
 62
     5
 10
-8.954794868291547
 20
74.8482886967903
 30
0.0
 42
-0.1088017057953489
  0
VERTEX
  5
22A
  8
DEFAULT
 62
     5
 10
-8.8546792953294
 20
74.16213927328934
 30
0.0
  0
VERTEX
  5
22B
  8
DEFAULT
 62
     5
 10
-8.854679295329404
 20
73.26707745070279
 30
0.0
  0
VERTEX
  5
22C
  8
DEFAULT
 62
     5
 10
-8.813012558019118
 20
72.7036128238471
 30
0.0
  0
VERTEX
  5
22D
  8
DEFAULT
 62
     5
 10
-8.657148431131873
 20
72.31491674494477
 30
0.0
  0
VERTEX
  5
22E
  8
DEFAULT
 62
     5
 10
-9.422580529897306
 20
72.31491674494477
 30
0.0
  0
VERTEX
  5
22F
  8
DEFAULT
 62
     5
 10
-9.495882987259172
 20
72.53868220059141
 30
0.0
  0
VERTEX
  5
230
  8
DEFAULT
 62
     5
 10
-9.522888818654515
 20
72.62780280055354
 30
0.0
  0
VERTEX
  5
231
  8
DEFAULT
 62
     5
 10
-9.940713240059718
 20
72.33767924957192
 30
0.0
 42
-0.1040133466925644
  0
VERTEX
  5
232
  8
DEFAULT
 62
     5
 10
-10.41563579110445
 20
72.24084267087069
 30
0.0
 42
-0.1965430357596771
  0
VERTEX
  5
233
  8
DEFAULT
 62
     5
 10
-11.11683192887644
 20
72.48293383504931
 30
0.0
 42
-0.2154369487651284
  0
VERTEX
  5
234
  8
DEFAULT
 62
     5
 10
-11.37319781384793
 20
73.09500956124215
 30
0.0
 42
-0.1373780248024465
  0
VERTEX
  5
235
  8
DEFAULT
 62
     5
 10
-11.25900023588799
 20
73.53173783856452
 30
0.0
 42
-0.1473783213971384
  0
VERTEX
  5
236
  8
DEFAULT
 62
     5
 10
-10.93897691407426
 20
73.82552638054614
 30
0.0
  0
VERTEX
  5
237
  8
DEFAULT
 62
     5
 10
-10.34541980059141
 20
74.00357429952638
 30
0.0
  0
VERTEX
  5
238
  8
DEFAULT
 62
     5
 10
-9.620111394094835
 20
74.19145995482131
 30
0.0
  0
VERTEX
  5
239
  8
DEFAULT
 62
     5
 10
-9.620111394094835
 20
74.26900630410032
 30
0.0
 42
0.2070921599656492
  0
VERTEX
  5
23A
  8
DEFAULT
 62
     5
 10
-9.722541817193603
 20
74.5896081500652
 30
0.0
 42
0.1777887432707948
  0
VERTEX
  5
23B
  8
DEFAULT
 62
     5
 10
-10.10930885431541
 20
74.68528711531513
 30
0.0
 42
0.1651091138038882
  0
VERTEX
  5
23C
  8
DEFAULT
 62
     5
 10
-10.40888433325561
 20
74.60311125414586
 30
0.0
  0
SEQEND
  5
23D
  8
DEFAULT
 62
     5
  0
POLYLINE
  5
23E
  8
DEFAULT
 62
     5
 66
     1
 10
0.0
 20
0.0
 30
0.0
 70
     1
  0
VERTEX
  5
23F
  8
DEFAULT
 62
     5
 10
-12.53369164100842
 20
72.31491674494477
 30
0.0
  0
VERTEX
  5
240
  8
DEFAULT
 62
     5
 10
-13.29912373977385
 20
72.31491674494477
 30
0.0
  0
VERTEX
  5
241
  8
DEFAULT
 62
     5
 10
-13.29912373977385
 20
75.20380563383365
 30
0.0
  0
VERTEX
  5
242
  8
DEFAULT
 62
     5
 10
-12.5830743570578
 20
75.20380563383365
 30
0.0
  0
VERTEX
  5
243
  8
DEFAULT
 62
     5
 10
-12.5830743570578
 20
74.79601260645313
 30
0.0
  0
VERTEX
  5
244
  8
DEFAULT
 62
     5
 10
-12.2694168731198
 20
75.18142912594558
 30
0.0
 42
-0.1561720185078855
  0
VERTEX
  5
245
  8
DEFAULT
 62
     5
 10
-11.95344453904518
 20
75.27787970790773
 30
0.0
 42
-0.14381709813702
  0
VERTEX
  5
246
  8
DEFAULT
 62
     5
 10
-11.47196324594669
 20
75.1324322182523
 30
0.0
  0
VERTEX
  5
247
  8
DEFAULT
 62
     5
 10
-11.70653095879827
 20
74.46229365314667
 30
0.0
 42
0.1496770151887312
  0
VERTEX
  5
248
  8
DEFAULT
 62
     5
 10
-12.0475802708707
 20
74.58652168321638
 30
0.0
  0
VERTEX
  5
249
  8
DEFAULT
 62
     5
 10
-12.3062608175958
 20
74.49798017255436
 30
0.0
 42
0.1501348396488499
  0
VERTEX
  5
24A
  8
DEFAULT
 62
     5
 10
-12.47292757845397
 20
74.17795703912364
 30
0.0
  0
VERTEX
  5
24B
  8
DEFAULT
 62
     5
 10
-12.53369164100842
 20
73.20843533410691
 30
0.0
  0
SEQEND
  5
24C
  8
DEFAULT
 62
     5
  0
POLYLINE
  5
24D
  8
DEFAULT
 62
     5
 66
     1
 10
0.0
 20
0.0
 30
0.0
 70
     1
  0
VERTEX
  5
24E
  8
DEFAULT
 62
     5
 10
-13.89171633236644
 20
74.36429946099415
 30
0.0
  0
VERTEX
  5
24F
  8
DEFAULT
 62
     5
 10
-14.65714843113188
 20
74.24084267087068
 30
0.0
 42
0.1809968098175303
  0
VERTEX
  5
250
  8
DEFAULT
 62
     5
 10
-14.82805870714121
 20
74.57359748005284
 30
0.0
 42
0.1804760167670095
  0
VERTEX
  5
251
  8
DEFAULT
 62
     5
 10
-15.17373790786987
 20
74.68528711531512
 30
0.0
 42
0.2329674834671527
  0
VERTEX
  5
252
  8
DEFAULT
 62
     5
 10
-15.6247409059851
 20
74.48466997265176
 30
0.0
 42
0.1695179555120377
  0
VERTEX
  5
253
  8
DEFAULT
 62
     5
 10
-15.7929509002677
 20
73.81337379409483
 30
0.0
 42
0.1610966817174881
  0
VERTEX
  5
254
  8
DEFAULT
 62
     5
 10
-15.62068991824601
 20
73.07398319421748
 30
0.0
 42
0.240554049109424
  0
VERTEX
  5
255
  8
DEFAULT
 62
     5
 10
-15.1583055736257
 20
72.85812662148798
 30
0.0
 42
0.1883458441869144
  0
VERTEX
  5
256
  8
DEFAULT
 62
     5
 10
-14.80317444493846
 20
72.9804261749261
 30
0.0
 42
0.1622604489948055
  0
VERTEX
  5
257
  8
DEFAULT
 62
     5
 10
-14.60776571508249
 20
73.40133649803118
 30
0.0
  0
VERTEX
  5
258
  8
DEFAULT
 62
     5
 10
-13.84233361631705
 20
73.30257106593243
 30
0.0
 42
-0.1724509721435987
  0
VERTEX
  5
259
  8
DEFAULT
 62
     5
 10
-14.28947853087125
 20
72.50897552232033
 30
0.0
 42
-0.1746967243539258
  0
VERTEX
  5
25A
  8
DEFAULT
 62
     5
 10
-15.17605238124052
 20
72.24084267087069
 30
0.0
 42
-0.2163976905724303
  0
VERTEX
  5
25B
  8
DEFAULT
 62
     5
 10
-16.1829971200334
 20
72.64304185385369
 30
0.0
 42
-0.1943870566321061
  0
VERTEX
  5
25C
  8
DEFAULT
 62
     5
 10
-16.55838299903311
 20
73.75666071927947
 30
0.0
 42
-0.1945054615972626
  0
VERTEX
  5
25D
  8
DEFAULT
 62
     5
 10
-16.18319002421144
 20
74.87703104255411
 30
0.0
 42
-0.2157801631579683
  0
VERTEX
  5
25E
  8
DEFAULT
 62
     5
 10
-15.16833659088441
 20
75.2778797079077
 30
0.0
 42
-0.1599423076958104
  0
VERTEX
  5
25F
  8
DEFAULT
 62
     5
 10
-14.3357747800718
 20
75.05218539886354
 30
0.0
 42
-0.1682635697126178
  0
SEQEND
  5
260
  8
DEFAULT
 62
     5
  0
POLYLINE
  5
261
  8
DEFAULT
 62
     5
 66
     1
 10
0.0
 20
0.0
 30
0.0
 70
     1
  0
VERTEX
  5
262
  8
DEFAULT
 62
     5
 10
-17.94109904841582
 20
72.31491674494477
 30
0.0
  0
VERTEX
  5
263
  8
DEFAULT
 62
     5
 10
-17.94109904841582
 20
73.0803488437102
 30
0.0
  0
VERTEX
  5
264
  8
DEFAULT
 62
     5
 10
-17.17566694965039
 20
73.0803488437102
 30
0.0
  0
VERTEX
  5
265
  8
DEFAULT
 62
     5
 10
-17.17566694965039
 20
72.31491674494477
 30
0.0
  0
SEQEND
  5
266
  8
DEFAULT
 62
     5
  0
POLYLINE
  5
267
  8
DEFAULT
 62
     5
 66
     1
 10
0.0
 20
0.0
 30
0.0
 70
     1
  0
VERTEX
  5
268
  8
DEFAULT
 62
     5
 10
-21.66023470959772
 20
72.31491674494477
 30
0.0
  0
VERTEX
  5
269
  8
DEFAULT
 62
     5
 10
-22.5830743570578
 20
75.20380563383365
 30
0.0
  0
VERTEX
  5
26A
  8
DEFAULT
 62
     5
 10
-21.83346002412666
 20
75.20380563383365
 30
0.0
  0
VERTEX
  5
26B
  8
DEFAULT
 62
     5
 10
-21.28677787237852
 20
73.31067304141061
 30
0.0
  0
VERTEX
  5
26C
  8
DEFAULT
 62
     5
 10
-20.77366067084546
 20
75.20380563383365
 30
0.0
  0
VERTEX
  5
26D
  8
DEFAULT
 62
     5
 10
-20.0317625050364
 20
75.20380563383365
 30
0.0
  0
VERTEX
  5
26E
  8
DEFAULT
 62
     5
 10
-19.55838281065012
 20
73.31067304141061
 30
0.0
  0
VERTEX
  5
26F
  8
DEFAULT
 62
     5
 10
-19.01015742547756
 20
75.20380563383365
 30
0.0
  0
VERTEX
  5
270
  8
DEFAULT
 62
     5
 10
-18.26208670273681
 20
75.20380563383365
 30
0.0
  0
VERTEX
  5
271
  8
DEFAULT
 62
     5
 10
-19.1829969316504
 20
72.31491674494477
 30
0.0
  0
VERTEX
  5
272
  8
DEFAULT
 62
     5
 10
-19.90869152326905
 20
72.31491674494477
 30
0.0
  0
VERTEX
  5
273
  8
DEFAULT
 62
     5
 10
-20.39788898348963
 20
74.17294153049428
 30
0.0
  0
VERTEX
  5
274
  8
DEFAULT
 62
     5
 10
-20.90251877795437
 20
72.31491674494477
 30
0.0
  0
SEQEND
  5
275
  8
DEFAULT
 62
     5
  0
POLYLINE
  5
276
  8
DEFAULT
 62
     5
 66
     1
 10
0.0
 20
0.0
 30
0.0
 70
     1
  0
VERTEX
  5
277
  8
DEFAULT
 62
     5
 10
-25.95653100589401
 20
72.31491674494477
 30
0.0
  0
VERTEX
  5
278
  8
DEFAULT
 62
     5
 10
-26.87937065335409
 20
75.20380563383365
 30
0.0
  0
VERTEX
  5
279
  8
DEFAULT
 62
     5
 10
-26.12975632042296
 20
75.20380563383365
 30
0.0
  0
VERTEX
  5
27A
  8
DEFAULT
 62
     5
 10
-25.58307416867481
 20
73.31067304141061
 30
0.0
  0
VERTEX
  5
27B
  8
DEFAULT
 62
     5
 10
-25.06995696714175
 20
75.20380563383365
 30
0.0
  0
VERTEX
  5
27C
  8
DEFAULT
 62
     5
 10
-24.3280588013327
 20
75.20380563383365
 30
0.0
  0
VERTEX
  5
27D
  8
DEFAULT
 62
     5
 10
-23.85467910694642
 20
73.31067304141061
 30
0.0
  0
VERTEX
  5
27E
  8
DEFAULT
 62
     5
 10
-23.30645372177385
 20
75.20380563383365
 30
0.0
  0
VERTEX
  5
27F
  8
DEFAULT
 62
     5
 10
-22.55838299903311
 20
75.20380563383365
 30
0.0
  0
VERTEX
  5
280
  8
DEFAULT
 62
     5
 10
-23.47929322794669
 20
72.31491674494477
 30
0.0
  0
VERTEX
  5
281
  8
DEFAULT
 62
     5
 10
-24.20498781956535
 20
72.31491674494477
 30
0.0
  0
VERTEX
  5
282
  8
DEFAULT
 62
     5
 10
-24.69418527978592
 20
74.17294153049428
 30
0.0
  0
VERTEX
  5
283
  8
DEFAULT
 62
     5
 10
-25.19881507425066
 20
72.31491674494477
 30
0.0
  0
SEQEND
  5
284
  8
DEFAULT
 62
     5
  0
POLYLINE
  5
285
  8
DEFAULT
 62
     5
 66
     1
 10
0.0
 20
0.0
 30
0.0
 70
     1
  0
VERTEX
  5
286
  8
DEFAULT
 62
     5
 10
-30.25282730219031
 20
72.31491674494477
 30
0.0
  0
VERTEX
  5
287
  8
DEFAULT
 62
     5
 10
-31.17566694965039
 20
75.20380563383365
 30
0.0
  0
VERTEX
  5
288
  8
DEFAULT
 62
     5
 10
-30.42605261671925
 20
75.20380563383365
 30
0.0
  0
VERTEX
  5
289
  8
DEFAULT
 62
     5
 10
-29.87937046497111
 20
73.31067304141061
 30
0.0
  0
VERTEX
  5
28A
  8
DEFAULT
 62
     5
 10
-29.36625326343805
 20
75.20380563383365
 30
0.0
  0
VERTEX
  5
28B
  8
DEFAULT
 62
     5
 10
-28.62435509762899
 20
75.20380563383365
 30
0.0
  0
VERTEX
  5
28C
  8
DEFAULT
 62
     5
 10
-28.15097540324271
 20
73.31067304141061
 30
0.0
  0
VERTEX
  5
28D
  8
DEFAULT
 62
     5
 10
-27.60275001807015
 20
75.20380563383365
 30
0.0
  0
VERTEX
  5
28E
  8
DEFAULT
 62
     5
 10
-26.8546792953294
 20
75.20380563383365
 30
0.0
  0
VERTEX
  5
28F
  8
DEFAULT
 62
     5
 10
-27.77558952424299
 20
72.31491674494477
 30
0.0
  0
VERTEX
  5
290
  8
DEFAULT
 62
     5
 10
-28.50128411586164
 20
72.31491674494477
 30
0.0
  0
VERTEX
  5
291
  8
DEFAULT
 62
     5
 10
-28.99048157608222
 20
74.17294153049428
 30
0.0
  0
VERTEX
  5
292
  8
DEFAULT
 62
     5
 10
-29.49511137054696
 20
72.31491674494477
 30
0.0
  0
SEQEND
  5
293
  8
DEFAULT
 62
     5
  0
POLYLINE
  5
294
  8
DEFAULT
 62
     5
 66
     1
 10
0.0
 20
0.0
 30
0.0
 70
     1
  0
VERTEX
  5
295
  8
DEFAULT
 62
     5
 10
44.40239340828875
 20
64.07886005656047
 30
0.0
 42
0.19317718685526
  0
VERTEX
  5
296
  8
DEFAULT
 62
     5
 10
44.22666052782813
 20
64.57558077972507
 30
0.0
 42
0.4344367687048259
  0
VERTEX
  5
297
  8
DEFAULT
 62
     5
 10
43.39544904626185
 20
64.56612885176649
 30
0.0
 42
0.1974850402976551
  0
VERTEX
  5
298
  8
DEFAULT
 62
     5
 10
43.23071151556721
 20
64.07886005656047
 30
0.0
  0
SEQEND
  5
299
  8
DEFAULT
 62
     5
  0
POLYLINE
  5
29A
  8
DEFAULT
 62
     5
 66
     1
 10
0.0
 20
0.0
 30
0.0
 70
     1
  0
VERTEX
  5
29B
  8
DEFAULT
 62
     5
 10
44.35301069223937
 20
63.28873659977035
 30
0.0
  0
VERTEX
  5
29C
  8
DEFAULT
 62
     5
 10
45.1184427910048
 20
63.18997116767159
 30
0.0
 42
-0.1601948643917455
  0
VERTEX
  5
29D
  8
DEFAULT
 62
     5
 10
44.6531650720967
 20
62.52832000963426
 30
0.0
 42
-0.1590209405814483
  0
VERTEX
  5
29E
  8
DEFAULT
 62
     5
 10
43.857254866731
 20
62.30108227878269
 30
0.0
 42
-0.2510606897924152
  0
VERTEX
  5
29F
  8
DEFAULT
 62
     5
 10
42.73842758849781
 20
62.79645267270093
 30
0.0
 42
-0.1603231689598217
  0
VERTEX
  5
2A0
  8
DEFAULT
 62
     5
 10
42.45177612433813
 20
63.79761028615222
 30
0.0
 42
-0.1928988919450763
  0
VERTEX
  5
2A1
  8
DEFAULT
 62
     5
 10
42.82966975765252
 20
64.92916886337089
 30
0.0
 42
-0.2186957110499406
  0
VERTEX
  5
2A2
  8
DEFAULT
 62
     5
 10
43.78510945767147
 20
65.33811931581972
 30
0.0
 42
-0.2248762650829955
  0
VERTEX
  5
2A3
  8
DEFAULT
 62
     5
 10
44.80902938736693
 20
64.91277219661944
 30
0.0
 42
-0.1866850592647505
  0
VERTEX
  5
2A4
  8
DEFAULT
 62
     5
 10
45.16782550705418
 20
63.60972425409133
 30
0.0
  0
VERTEX
  5
2A5
  8
DEFAULT
 62
     5
 10
43.21720822310358
 20
63.60972425409133
 30
0.0
 42
0.1907233177561328
  0
VERTEX
  5
2A6
  8
DEFAULT
 62
     5
 10
43.40605877605471
 20
63.08213942758735
 30
0.0
 42
0.2135192120775306
  0
VERTEX
  5
2A7
  8
DEFAULT
 62
     5
 10
43.85609744166268
 20
62.89367487137527
 30
0.0
 42
0.1657236937100886
  0
VERTEX
  5
2A8
  8
DEFAULT
 62
     5
 10
44.16416051605419
 20
62.98723207904963
 30
0.0
 42
0.1589948514629395
  0
SEQEND
  5
2A9
  8
DEFAULT
 62
     5
  0
POLYLINE
  5
2AA
  8
DEFAULT
 62
     5
 66
     1
 10
0.0
 20
0.0
 30
0.0
 70
     1
  0
VERTEX
  5
2AB
  8
DEFAULT
 62
     5
 10
41.14313414902949
 20
62.37515635285676
 30
0.0
  0
VERTEX
  5
2AC
  8
DEFAULT
 62
     5
 10
41.14313414902949
 20
66.35046499483207
 30
0.0
  0
VERTEX
  5
2AD
  8
DEFAULT
 62
     5
 10
41.90856624779492
 20
66.35046499483207
 30
0.0
  0
VERTEX
  5
2AE
  8
DEFAULT
 62
     5
 10
41.90856624779492
 20
62.37515635285676
 30
0.0
  0
SEQEND
  5
2AF
  8
DEFAULT
 62
     5
  0
POLYLINE
  5
2B0
  8
DEFAULT
 62
     5
 66
     1
 10
0.0
 20
0.0
 30
0.0
 70
     1
  0
VERTEX
  5
2B1
  8
DEFAULT
 62
     5
 10
38.05671439594308
 20
62.37515635285676
 30
0.0
  0
VERTEX
  5
2B2
  8
DEFAULT
 62
     5
 10
38.05671439594308
 20
62.96774894544936
 30
0.0
  0
VERTEX
  5
2B3
  8
DEFAULT
 62
     5
 10
39.12461572470247
 20
64.23163790498187
 30
0.0
  0
VERTEX
  5
2B4
  8
DEFAULT
 62
     5
 10
39.51350451939986
 20
64.67145264915305
 30
0.0
  0
VERTEX
  5
2B5
  8
DEFAULT
 62
     5
 10
39.16589684203963
 20
64.65486326660655
 30
0.0
  0
VERTEX
  5
2B6
  8
DEFAULT
 62
     5
 10
38.15547982804183
 20
64.64676129112837
 30
0.0
  0
VERTEX
  5
2B7
  8
DEFAULT
 62
     5
 10
38.15547982804183
 20
65.26404524174565
 30
0.0
  0
VERTEX
  5
2B8
  8
DEFAULT
 62
     5
 10
40.5258501984122
 20
65.26404524174565
 30
0.0
  0
VERTEX
  5
2B9
  8
DEFAULT
 62
     5
 10
40.5258501984122
 20
64.72083536520245
 30
0.0
  0
VERTEX
  5
2BA
  8
DEFAULT
 62
     5
 10
39.41203880557434
 20
63.44112863983564
 30
0.0
  0
VERTEX
  5
2BB
  8
DEFAULT
 62
     5
 10
39.01967735890604
 20
63.01713166149874
 30
0.0
  0
VERTEX
  5
2BC
  8
DEFAULT
 62
     5
 10
39.42091202099876
 20
63.04182301952343
 30
0.0
  0
VERTEX
  5
2BD
  8
DEFAULT
 62
     5
 10
40.62461563051097
 20
63.04182301952343
 30
0.0
  0
VERTEX
  5
2BE
  8
DEFAULT
 62
     5
 10
40.62461563051097
 20
62.37515635285676
 30
0.0
  0
SEQEND
  5
2BF
  8
DEFAULT
 62
     5
  0
POLYLINE
  5
2C0
  8
DEFAULT
 62
     5
 66
     1
 10
0.0
 20
0.0
 30
0.0
 70
     1
  0
VERTEX
  5
2C1
  8
DEFAULT
 62
     5
 10
35.29128229717764
 20
62.37515635285676
 30
0.0
  0
VERTEX
  5
2C2
  8
DEFAULT
 62
     5
 10
35.29128229717764
 20
62.96774894544936
 30
0.0
  0
VERTEX
  5
2C3
  8
DEFAULT
 62
     5
 10
36.35918362593704
 20
64.23163790498187
 30
0.0
  0
VERTEX
  5
2C4
  8
DEFAULT
 62
     5
 10
36.74807242063443
 20
64.67145264915305
 30
0.0
  0
VERTEX
  5
2C5
  8
DEFAULT
 62
     5
 10
36.4004647432742
 20
64.65486326660655
 30
0.0
  0
VERTEX
  5
2C6
  8
DEFAULT
 62
     5
 10
35.3900477292764
 20
64.64676129112837
 30
0.0
  0
VERTEX
  5
2C7
  8
DEFAULT
 62
     5
 10
35.3900477292764
 20
65.26404524174565
 30
0.0
  0
VERTEX
  5
2C8
  8
DEFAULT
 62
     5
 10
37.76041809964677
 20
65.26404524174565
 30
0.0
  0
VERTEX
  5
2C9
  8
DEFAULT
 62
     5
 10
37.76041809964677
 20
64.72083536520245
 30
0.0
  0
VERTEX
  5
2CA
  8
DEFAULT
 62
     5
 10
36.64660670680891
 20
63.44112863983564
 30
0.0
  0
VERTEX
  5
2CB
  8
DEFAULT
 62
     5
 10
36.25424526014061
 20
63.01713166149874
 30
0.0
  0
VERTEX
  5
2CC
  8
DEFAULT
 62
     5
 10
36.65547992223333
 20
63.04182301952343
 30
0.0
  0
VERTEX
  5
2CD
  8
DEFAULT
 62
     5
 10
37.85918353174554
 20
63.04182301952343
 30
0.0
  0
VERTEX
  5
2CE
  8
DEFAULT
 62
     5
 10
37.85918353174554
 20
62.37515635285676
 30
0.0
  0
SEQEND
  5
2CF
  8
DEFAULT
 62
     5
  0
POLYLINE
  5
2D0
  8
DEFAULT
 62
     5
 66
     1
 10
0.0
 20
0.0
 30
0.0
 70
     1
  0
VERTEX
  5
2D1
  8
DEFAULT
 62
     5
 10
34.13078847001715
 20
62.37515635285676
 30
0.0
  0
VERTEX
  5
2D2
  8
DEFAULT
 62
     5
 10
34.13078847001715
 20
62.80455464817912
 30
0.0
 42
-0.2468024331858134
  0
VERTEX
  5
2D3
  8
DEFAULT
 62
     5
 10
33.18132879951783
 20
62.30108227878269
 30
0.0
 42
-0.130105933459975
  0
VERTEX
  5
2D4
  8
DEFAULT
 62
     5
 10
32.66377480188957
 20
62.42936167335746
 30
0.0
 42
-0.167000738323213
  0
VERTEX
  5
2D5
  8
DEFAULT
 62
     5
 10
32.33198451359766
 20
62.78950831067404
 30
0.0
 42
-0.100942783308362
  0
VERTEX
  5
2D6
  8
DEFAULT
 62
     5
 10
32.22955390211591
 20
63.4307121909868
 30
0.0
  0
VERTEX
  5
2D7
  8
DEFAULT
 62
     5
 10
32.22955390211591
 20
65.26404524174565
 30
0.0
  0
VERTEX
  5
2D8
  8
DEFAULT
 62
     5
 10
32.99498600088134
 20
65.26404524174565
 30
0.0
  0
VERTEX
  5
2D9
  8
DEFAULT
 62
     5
 10
32.99498600088134
 20
63.93765645882219
 30
0.0
  0
VERTEX
  5
2DA
  8
DEFAULT
 62
     5
 10
33.03665273819163
 20
63.19132168530093
 30
0.0
  0
VERTEX
  5
2DB
  8
DEFAULT
 62
     5
 10
33.18865896990081
 20
62.97392187914702
 30
0.0
  0
VERTEX
  5
2DC
  8
DEFAULT
 62
     5
 10
33.46836569526762
 20
62.89367487137528
 30
0.0
 42
0.1578518894734381
  0
VERTEX
  5
2DD
  8
DEFAULT
 62
     5
 10
33.81520213268162
 20
63.00112099148639
 30
0.0
 42
0.159108590463089
  0
VERTEX
  5
2DE
  8
DEFAULT
 62
     5
 10
34.02488577171344
 20
63.26751770533357
 30
0.0
  0
VERTEX
  5
2DF
  8
DEFAULT
 62
     5
 10
34.08140575396776
 20
64.04606709982356
 30
0.0
  0
VERTEX
  5
2E0
  8
DEFAULT
 62
     5
 10
34.08140575396776
 20
65.26404524174565
 30
0.0
  0
VERTEX
  5
2E1
  8
DEFAULT
 62
     5
 10
34.84683785273319
 20
65.26404524174565
 30
0.0
  0
VERTEX
  5
2E2
  8
DEFAULT
 62
     5
 10
34.84683785273319
 20
62.37515635285676
 30
0.0
  0
SEQEND
  5
2E3
  8
DEFAULT
 62
     5
  0
POLYLINE
  5
2E4
  8
DEFAULT
 62
     5
 66
     1
 10
0.0
 20
0.0
 30
0.0
 70
     1
  0
VERTEX
  5
2E5
  8
DEFAULT
 62
     5
 10
29.61226995149863
 20
63.86821208502137
 30
0.0
 42
0.1662127852120534
  0
VERTEX
  5
2E6
  8
DEFAULT
 62
     5
 10
29.80169902860095
 20
63.13171504781478
 30
0.0
 42
0.2404461653497347
  0
VERTEX
  5
2E7
  8
DEFAULT
 62
     5
 10
30.26311885233099
 20
62.89367487137529
 30
0.0
 42
0.24132396344271
  0
VERTEX
  5
2E8
  8
DEFAULT
 62
     5
 10
30.69811118043387
 20
63.1122321025975
 30
0.0
 42
0.1627449374921685
  0
VERTEX
  5
2E9
  8
DEFAULT
 62
     5
 10
30.87152921075788
 20
63.8292461945868
 30
0.0
 42
0.166197673138225
  0
VERTEX
  5
2EA
  8
DEFAULT
 62
     5
 10
30.69270986344841
 20
64.52002531836101
 30
0.0
 42
0.5079902430882705
  0
VERTEX
  5
2EB
  8
DEFAULT
 62
     5
 10
29.79359724150574
 20
64.5240761177171
 30
0.0
 42
0.1723447809988868
  0
SEQEND
  5
2EC
  8
DEFAULT
 62
     5
  0
POLYLINE
  5
2ED
  8
DEFAULT
 62
     5
 66
     1
 10
0.0
 20
0.0
 30
0.0
 70
     1
  0
VERTEX
  5
2EE
  8
DEFAULT
 62
     5
 10
28.84683785273319
 20
65.26404524174565
 30
0.0
  0
VERTEX
  5
2EF
  8
DEFAULT
 62
     5
 10
29.56288723544924
 20
65.26404524174565
 30
0.0
  0
VERTEX
  5
2F0
  8
DEFAULT
 62
     5
 10
29.56288723544924
 20
64.84274929866746
 30
0.0
 42
-0.1189653659007668
  0
VERTEX
  5
2F1
  8
DEFAULT
 62
     5
 10
29.93267908166844
 20
65.19845895150587
 30
0.0
 42
-0.1382105598909885
  0
VERTEX
  5
2F2
  8
DEFAULT
 62
     5
 10
30.44984745932358
 20
65.33811931581972
 30
0.0
 42
-0.2273648758850394
  0
VERTEX
  5
2F3
  8
DEFAULT
 62
     5
 10
31.29128229717764
 20
64.94132163820518
 30
0.0
 42
-0.1838682188936201
  0
VERTEX
  5
2F4
  8
DEFAULT
 62
     5
 10
31.63696130952331
 20
63.8361903682307
 30
0.0
 42
-0.1823656645300078
  0
VERTEX
  5
2F5
  8
DEFAULT
 62
     5
 10
31.28838892288985
 20
62.70463179101204
 30
0.0
 42
-0.2285594541574932
  0
VERTEX
  5
2F6
  8
DEFAULT
 62
     5
 10
30.44367452562592
 20
62.30108227878269
 30
0.0
 42
-0.1163198006807692
  0
VERTEX
  5
2F7
  8
DEFAULT
 62
     5
 10
30.01581946372798
 20
62.39560400734729
 30
0.0
  0
VERTEX
  5
2F8
  8
DEFAULT
 62
     5
 10
29.61226995149863
 20
62.7196783169001
 30
0.0
  0
VERTEX
  5
2F9
  8
DEFAULT
 62
     5
 10
29.61226995149863
 20
61.26404524174565
 30
0.0
  0
VERTEX
  5
2FA
  8
DEFAULT
 62
     5
 10
28.84683785273319
 20
61.26404524174565
 30
0.0
  0
SEQEND
  5
2FB
  8
DEFAULT
 62
     5
  0
POLYLINE
  5
2FC
  8
DEFAULT
 62
     5
 66
     1
 10
0.0
 20
0.0
 30
0.0
 70
     1
  0
VERTEX
  5
2FD
  8
DEFAULT
 62
     5
 10
26.5505415564369
 20
62.37515635285676
 30
0.0
  0
VERTEX
  5
2FE
  8
DEFAULT
 62
     5
 10
25.78510945767147
 20
62.37515635285676
 30
0.0
  0
VERTEX
  5
2FF
  8
DEFAULT
 62
     5
 10
25.78510945767147
 20
63.85007946905045
 30
0.0
  0
VERTEX
  5
300
  8
DEFAULT
 62
     5
 10
25.7368841666904
 20
64.45578935736759
 30
0.0
  0
VERTEX
  5
301
  8
DEFAULT
 62
     5
 10
25.58024842309095
 20
64.66933089157747
 30
0.0
  0
VERTEX
  5
302
  8
DEFAULT
 62
     5
 10
25.31944593040727
 20
64.74552672322713
 30
0.0
 42
0.1576987046344997
  0
VERTEX
  5
303
  8
DEFAULT
 62
     5
 10
24.96894450199327
 20
64.63673046225264
 30
0.0
 42
0.1684371822617117
  0
VERTEX
  5
304
  8
DEFAULT
 62
     5
 10
24.75617439611261
 20
64.34834323725649
 30
0.0
  0
VERTEX
  5
305
  8
DEFAULT
 62
     5
 10
24.69868970458505
 20
63.68418413652151
 30
0.0
  0
VERTEX
  5
306
  8
DEFAULT
 62
     5
 10
24.69868970458505
 20
62.37515635285676
 30
0.0
  0
VERTEX
  5
307
  8
DEFAULT
 62
     5
 10
23.93325760581962
 20
62.37515635285676
 30
0.0
  0
VERTEX
  5
308
  8
DEFAULT
 62
     5
 10
23.93325760581962
 20
65.26404524174565
 30
0.0
  0
VERTEX
  5
309
  8
DEFAULT
 62
     5
 10
24.64930698853567
 20
65.26404524174565
 30
0.0
  0
VERTEX
  5
30A
  8
DEFAULT
 62
     5
 10
24.64930698853566
 20
64.84274929866746
 30
0.0
 42
-0.2486296121988369
  0
VERTEX
  5
30B
  8
DEFAULT
 62
     5
 10
25.59066506032276
 20
65.33811931581972
 30
0.0
  0
VERTEX
  5
30C
  8
DEFAULT
 62
     5
 10
26.04764808795761
 20
65.24668424248694
 30
0.0
 42
-0.1292191717088741
  0
VERTEX
  5
30D
  8
DEFAULT
 62
     5
 10
26.3609197635395
 20
65.01346667049873
 30
0.0
  0
VERTEX
  5
30E
  8
DEFAULT
 62
     5
 10
26.5088750075096
 20
64.69151449528749
 30
0.0
  0
VERTEX
  5
30F
  8
DEFAULT
 62
     5
 10
26.5505415564369
 20
64.17569682364469
 30
0.0
  0
SEQEND
  5
310
  8
DEFAULT
 62
     5
  0
POLYLINE
  5
311
  8
DEFAULT
 62
     5
 66
     1
 10
0.0
 20
0.0
 30
0.0
 70
     1
  0
VERTEX
  5
312
  8
DEFAULT
 62
     5
 10
21.14313414902949
 20
63.8196009856842
 30
0.0
 42
0.1807696907208237
  0
VERTEX
  5
313
  8
DEFAULT
 62
     5
 10
21.34297986336366
 20
63.15061946888091
 30
0.0
 42
0.4777036397638032
  0
VERTEX
  5
314
  8
DEFAULT
 62
     5
 10
22.32735500170741
 20
63.1506194688809
 30
0.0
 42
0.179440807586959
  0
VERTEX
  5
315
  8
DEFAULT
 62
     5
 10
22.5258501984122
 20
63.82500230266965
 30
0.0
 42
0.1800932450793641
  0
VERTEX
  5
316
  8
DEFAULT
 62
     5
 10
22.3273550017074
 20
64.4885823141045
 30
0.0
 42
0.4793729384846424
  0
VERTEX
  5
317
  8
DEFAULT
 62
     5
 10
21.34297986336365
 20
64.4885823141045
 30
0.0
 42
0.18076978908684
  0
SEQEND
  5
318
  8
DEFAULT
 62
     5
  0
POLYLINE
  5
319
  8
DEFAULT
 62
     5
 66
     1
 10
0.0
 20
0.0
 30
0.0
 70
     1
  0
VERTEX
  5
31A
  8
DEFAULT
 62
     5
 10
20.37770205026406
 20
63.86049591789929
 30
0.0
 42
-0.1222574291832734
  0
VERTEX
  5
31B
  8
DEFAULT
 62
     5
 10
20.56423756469561
 20
64.60200846373522
 30
0.0
 42
-0.1509199207835916
  0
VERTEX
  5
31C
  8
DEFAULT
 62
     5
 10
21.09278710047283
 20
65.14926913963454
 30
0.0
 42
-0.1287246067143855
  0
VERTEX
  5
31D
  8
DEFAULT
 62
     5
 10
21.85648325001878
 20
65.33811931581972
 30
0.0
 42
-0.2109274079128439
  0
VERTEX
  5
31E
  8
DEFAULT
 62
     5
 10
22.92438420201221
 20
64.90987863394867
 30
0.0
 42
-0.2026212639801759
  0
VERTEX
  5
31F
  8
DEFAULT
 62
     5
 10
23.34066501322702
 20
63.82770296116238
 30
0.0
 42
-0.2022295973323152
  0
VERTEX
  5
320
  8
DEFAULT
 62
     5
 10
22.9203334026561
 20
62.7347242776392
 30
0.0
 42
-0.2115506096600977
  0
VERTEX
  5
321
  8
DEFAULT
 62
     5
 10
21.86188419023827
 20
62.30108227878269
 30
0.0
 42
-0.1188796278362318
  0
VERTEX
  5
322
  8
DEFAULT
 62
     5
 10
21.10899067466323
 20
62.48163795207761
 30
0.0
 42
-0.1582355798320385
  0
VERTEX
  5
323
  8
DEFAULT
 62
     5
 10
20.5642375646956
 20
63.0111520087451
 30
0.0
 42
-0.1239053267140297
  0
SEQEND
  5
324
  8
DEFAULT
 62
     5
  0
POLYLINE
  5
325
  8
DEFAULT
 62
     5
 66
     1
 10
0.0
 20
0.0
 30
0.0
 70
     1
  0
VERTEX
  5
326
  8
DEFAULT
 62
     5
 10
19.01967735890604
 20
62.37515635285676
 30
0.0
  0
VERTEX
  5
327
  8
DEFAULT
 62
     5
 10
19.01967735890604
 20
65.26404524174565
 30
0.0
  0
VERTEX
  5
328
  8
DEFAULT
 62
     5
 10
19.78510945767147
 20
65.26404524174565
 30
0.0
  0
VERTEX
  5
329
  8
DEFAULT
 62
     5
 10
19.78510945767147
 20
62.37515635285676
 30
0.0
  0
SEQEND
  5
32A
  8
DEFAULT
 62
     5
  0
POLYLINE
  5
32B
  8
DEFAULT
 62
     5
 66
     1
 10
0.0
 20
0.0
 30
0.0
 70
     1
  0
VERTEX
  5
32C
  8
DEFAULT
 62
     5
 10
19.01967735890604
 20
65.68379832816541
 30
0.0
  0
VERTEX
  5
32D
  8
DEFAULT
 62
     5
 10
19.01967735890604
 20
66.35046499483207
 30
0.0
  0
VERTEX
  5
32E
  8
DEFAULT
 62
     5
 10
19.78510945767147
 20
66.35046499483207
 30
0.0
  0
VERTEX
  5
32F
  8
DEFAULT
 62
     5
 10
19.78510945767147
 20
65.68379832816541
 30
0.0
  0
SEQEND
  5
330
  8
DEFAULT
 62
     5
  0
POLYLINE
  5
331
  8
DEFAULT
 62
     5
 66
     1
 10
0.0
 20
0.0
 30
0.0
 70
     1
  0
VERTEX
  5
332
  8
DEFAULT
 62
     5
 10
18.50115884038752
 20
65.26404524174565
 30
0.0
  0
VERTEX
  5
333
  8
DEFAULT
 62
     5
 10
18.50115884038752
 20
64.67145264915305
 30
0.0
  0
VERTEX
  5
334
  8
DEFAULT
 62
     5
 10
17.982640321869
 20
64.67145264915305
 30
0.0
  0
VERTEX
  5
335
  8
DEFAULT
 62
     5
 10
17.982640321869
 20
63.47855167361176
 30
0.0
  0
VERTEX
  5
336
  8
DEFAULT
 62
     5
 10
17.99730085101797
 20
63.05629064449435
 30
0.0
  0
VERTEX
  5
337
  8
DEFAULT
 62
     5
 10
18.06346604217489
 20
62.95733230821753
 30
0.0
  0
VERTEX
  5
338
  8
DEFAULT
 62
     5
 10
18.18943058661303
 20
62.91836622939997
 30
0.0
  0
VERTEX
  5
339
  8
DEFAULT
 62
     5
 10
18.48881334975815
 20
62.99128325517171
 30
0.0
  0
VERTEX
  5
33A
  8
DEFAULT
 62
     5
 10
18.5505415564369
 20
62.41219357827678
 30
0.0
 42
-0.1009135694950959
  0
VERTEX
  5
33B
  8
DEFAULT
 62
     5
 10
17.95486287376144
 20
62.30108227878269
 30
0.0
  0
VERTEX
  5
33C
  8
DEFAULT
 62
     5
 10
17.58738587767887
 20
62.37129845767871
 30
0.0
  0
VERTEX
  5
33D
  8
DEFAULT
 62
     5
 10
17.34722375528079
 20
62.55281865186389
 30
0.0
  0
VERTEX
  5
33E
  8
DEFAULT
 62
     5
 10
17.24151414953813
 20
62.8539373642285
 30
0.0
  0
VERTEX
  5
33F
  8
DEFAULT
 62
     5
 10
17.21720822310357
 20
63.39830466584002
 30
0.0
  0
VERTEX
  5
340
  8
DEFAULT
 62
     5
 10
17.21720822310357
 20
64.67145264915305
 30
0.0
  0
VERTEX
  5
341
  8
DEFAULT
 62
     5
 10
16.8468378527332
 20
64.67145264915305
 30
0.0
  0
VERTEX
  5
342
  8
DEFAULT
 62
     5
 10
16.8468378527332
 20
65.26404524174565
 30
0.0
  0
VERTEX
  5
343
  8
DEFAULT
 62
     5
 10
17.21720822310357
 20
65.26404524174565
 30
0.0
  0
VERTEX
  5
344
  8
DEFAULT
 62
     5
 10
17.21720822310357
 20
65.80725511828886
 30
0.0
  0
VERTEX
  5
345
  8
DEFAULT
 62
     5
 10
17.982640321869
 20
66.25169956273331
 30
0.0
  0
VERTEX
  5
346
  8
DEFAULT
 62
     5
 10
17.982640321869
 20
65.26404524174565
 30
0.0
  0
SEQEND
  5
347
  8
DEFAULT
 62
     5
  0
POLYLINE
  5
348
  8
DEFAULT
 62
     5
 66
     1
 10
0.0
 20
0.0
 30
0.0
 70
     1
  0
VERTEX
  5
349
  8
DEFAULT
 62
     5
 10
16.57523291446159
 20
64.42453906890614
 30
0.0
  0
VERTEX
  5
34A
  8
DEFAULT
 62
     5
 10
15.80980081569616
 20
64.30108227878269
 30
0.0
 42
0.1809968098175197
  0
VERTEX
  5
34B
  8
DEFAULT
 62
     5
 10
15.63889053968683
 20
64.63383708796486
 30
0.0
 42
0.1804760167669738
  0
VERTEX
  5
34C
  8
DEFAULT
 62
     5
 10
15.29321133895816
 20
64.74552672322714
 30
0.0
 42
0.2329674834671427
  0
VERTEX
  5
34D
  8
DEFAULT
 62
     5
 10
14.84220834084293
 20
64.54490958056375
 30
0.0
 42
0.1695179555120431
  0
VERTEX
  5
34E
  8
DEFAULT
 62
     5
 10
14.67399834656036
 20
63.87361340200682
 30
0.0
 42
0.1610966817174958
  0
VERTEX
  5
34F
  8
DEFAULT
 62
     5
 10
14.84625932858202
 20
63.13422280212947
 30
0.0
 42
0.2405540491093996
  0
VERTEX
  5
350
  8
DEFAULT
 62
     5
 10
15.30864367320233
 20
62.91836622939997
 30
0.0
 42
0.1883458441869744
  0
VERTEX
  5
351
  8
DEFAULT
 62
     5
 10
15.66377480188957
 20
63.0406657828381
 30
0.0
 42
0.1622604489947865
  0
VERTEX
  5
352
  8
DEFAULT
 62
     5
 10
15.85918353174554
 20
63.46157610594318
 30
0.0
  0
VERTEX
  5
353
  8
DEFAULT
 62
     5
 10
16.62461563051097
 20
63.36281067384441
 30
0.0
 42
-0.1724509721436031
  0
VERTEX
  5
354
  8
DEFAULT
 62
     5
 10
16.17747071595679
 20
62.56921513023234
 30
0.0
 42
-0.1746967243539365
  0
VERTEX
  5
355
  8
DEFAULT
 62
     5
 10
15.29089686558751
 20
62.30108227878269
 30
0.0
 42
-0.2163976905724275
  0
VERTEX
  5
356
  8
DEFAULT
 62
     5
 10
14.28395212679463
 20
62.70328146176568
 30
0.0
 42
-0.1943870566321053
  0
VERTEX
  5
357
  8
DEFAULT
 62
     5
 10
13.90856624779493
 20
63.81690032719146
 30
0.0
 42
-0.1945054615972602
  0
VERTEX
  5
358
  8
DEFAULT
 62
     5
 10
14.28375922261659
 20
64.93727065046609
 30
0.0
 42
-0.2157801631579845
  0
VERTEX
  5
359
  8
DEFAULT
 62
     5
 10
15.29861265594362
 20
65.33811931581972
 30
0.0
 42
-0.1599423076958013
  0
VERTEX
  5
35A
  8
DEFAULT
 62
     5
 10
16.13117446675624
 20
65.11242500677555
 30
0.0
 42
-0.1682635697126232
  0
SEQEND
  5
35B
  8
DEFAULT
 62
     5
  0
POLYLINE
  5
35C
  8
DEFAULT
 62
     5
 66
     1
 10
0.0
 20
0.0
 30
0.0
 70
     1
  0
VERTEX
  5
35D
  8
DEFAULT
 62
     5
 10
12.72338106260974
 20
64.07886005656047
 30
0.0
 42
0.1931771868552722
  0
VERTEX
  5
35E
  8
DEFAULT
 62
     5
 10
12.5476481821491
 20
64.57558077972507
 30
0.0
 42
0.434436768704822
  0
VERTEX
  5
35F
  8
DEFAULT
 62
     5
 10
11.71643670058285
 20
64.56612885176649
 30
0.0
 42
0.1974850402976646
  0
VERTEX
  5
360
  8
DEFAULT
 62
     5
 10
11.55169916988819
 20
64.07886005656047
 30
0.0
  0
SEQEND
  5
361
  8
DEFAULT
 62
     5
  0
POLYLINE
  5
362
  8
DEFAULT
 62
     5
 66
     1
 10
0.0
 20
0.0
 30
0.0
 70
     1
  0
VERTEX
  5
363
  8
DEFAULT
 62
     5
 10
12.67399834656035
 20
63.28873659977035
 30
0.0
  0
VERTEX
  5
364
  8
DEFAULT
 62
     5
 10
13.43943044532579
 20
63.18997116767158
 30
0.0
 42
-0.1601948643917319
  0
VERTEX
  5
365
  8
DEFAULT
 62
     5
 10
12.97415272641769
 20
62.52832000963426
 30
0.0
 42
-0.1590209405814369
  0
VERTEX
  5
366
  8
DEFAULT
 62
     5
 10
12.17824252105198
 20
62.30108227878269
 30
0.0
 42
-0.2510606897924145
  0
VERTEX
  5
367
  8
DEFAULT
 62
     5
 10
11.05941524281879
 20
62.79645267270093
 30
0.0
 42
-0.1603231689598286
  0
VERTEX
  5
368
  8
DEFAULT
 62
     5
 10
10.77276377865912
 20
63.79761028615222
 30
0.0
 42
-0.1928988919450654
  0
VERTEX
  5
369
  8
DEFAULT
 62
     5
 10
11.15065741197352
 20
64.92916886337089
 30
0.0
 42
-0.218695711049944
  0
VERTEX
  5
36A
  8
DEFAULT
 62
     5
 10
12.10609711199245
 20
65.33811931581974
 30
0.0
 42
-0.2248762650830033
  0
VERTEX
  5
36B
  8
DEFAULT
 62
     5
 10
13.13001704168792
 20
64.91277219661944
 30
0.0
 42
-0.1866850592647419
  0
VERTEX
  5
36C
  8
DEFAULT
 62
     5
 10
13.48881316137517
 20
63.60972425409133
 30
0.0
  0
VERTEX
  5
36D
  8
DEFAULT
 62
     5
 10
11.53819587742455
 20
63.60972425409133
 30
0.0
 42
0.1907233177561238
  0
VERTEX
  5
36E
  8
DEFAULT
 62
     5
 10
11.72704643037572
 20
63.08213942758734
 30
0.0
 42
0.2135192120775254
  0
VERTEX
  5
36F
  8
DEFAULT
 62
     5
 10
12.17708509598367
 20
62.89367487137528
 30
0.0
 42
0.1657236937101108
  0
VERTEX
  5
370
  8
DEFAULT
 62
     5
 10
12.48514817037517
 20
62.98723207904963
 30
0.0
 42
0.1589948514629391
  0
SEQEND
  5
371
  8
DEFAULT
 62
     5
  0
POLYLINE
  5
372
  8
DEFAULT
 62
     5
 66
     1
 10
0.0
 20
0.0
 30
0.0
 70
     1
  0
VERTEX
  5
373
  8
DEFAULT
 62
     5
 10
7.636961309523322
 20
63.18997116767158
 30
0.0
  0
VERTEX
  5
374
  8
DEFAULT
 62
     5
 10
8.40239340828875
 20
63.28873659977035
 30
0.0
 42
0.1817134537413238
  0
VERTEX
  5
375
  8
DEFAULT
 62
     5
 10
8.600503173403425
 20
62.95733230821753
 30
0.0
 42
0.1637490318833129
  0
VERTEX
  5
376
  8
DEFAULT
 62
     5
 10
9.017748693891484
 20
62.8442921553259
 30
0.0
 42
0.1581548590316352
  0
VERTEX
  5
377
  8
DEFAULT
 62
     5
 10
9.462578946692028
 20
62.9550176464639
 30
0.0
 42
0.2454173628752813
  0
VERTEX
  5
378
  8
DEFAULT
 62
     5
 10
9.562887235449244
 20
63.16257952792013
 30
0.0
  0
VERTEX
  5
379
  8
DEFAULT
 62
     5
 10
9.508489387536478
 20
63.30918444264386
 30
0.0
  0
VERTEX
  5
37A
  8
DEFAULT
 62
     5
 10
9.25231640674307
 20
63.41142214994756
 30
0.0
 42
-0.075010197764926
  0
VERTEX
  5
37B
  8
DEFAULT
 62
     5
 10
8.078705472241008
 20
63.78912250231795
 30
0.0
 42
-0.2630575377237062
  0
VERTEX
  5
37C
  8
DEFAULT
 62
     5
 10
7.73572674162209
 20
64.44421529506745
 30
0.0
 42
-0.2278055359033951
  0
VERTEX
  5
37D
  8
DEFAULT
 62
     5
 10
8.032215942096439
 20
65.08040328998487
 30
0.0
 42
-0.1789409577799159
  0
VERTEX
  5
37E
  8
DEFAULT
 62
     5
 10
8.951390410173524
 20
65.33811931581972
 30
0.0
 42
-0.1478680227512882
  0
VERTEX
  5
37F
  8
DEFAULT
 62
     5
 10
9.832563320323315
 20
65.13846669404661
 30
0.0
 42
-0.1798681362132107
  0
VERTEX
  5
380
  8
DEFAULT
 62
     5
 10
10.22955390211591
 20
64.5479958590296
 30
0.0
  0
VERTEX
  5
381
  8
DEFAULT
 62
     5
 10
9.51350451939986
 20
64.42453906890614
 30
0.0
 42
0.1762609448244054
  0
VERTEX
  5
382
  8
DEFAULT
 62
     5
 10
9.338350351473387
 20
64.69942337820464
 30
0.0
 42
0.1598214678236257
  0
VERTEX
  5
383
  8
DEFAULT
 62
     5
 10
8.970294642856649
 20
64.79490943927652
 30
0.0
 42
0.1371855487857945
  0
VERTEX
  5
384
  8
DEFAULT
 62
     5
 10
8.538581874163647
 20
64.70926149128529
 30
0.0
  0
VERTEX
  5
385
  8
DEFAULT
 62
     5
 10
8.451776124338132
 20
64.55146813423454
 30
0.0
  0
VERTEX
  5
386
  8
DEFAULT
 62
     5
 10
8.527779240192729
 20
64.41026453649627
 30
0.0
  0
VERTEX
  5
387
  8
DEFAULT
 62
     5
 10
9.239584919374622
 20
64.19170749365703
 30
0.0
 42
-0.1095214193377374
  0
VERTEX
  5
388
  8
DEFAULT
 62
     5
 10
10.08950772944595
 20
63.84815042726992
 30
0.0
 42
-0.2284114958797649
  0
VERTEX
  5
389
  8
DEFAULT
 62
     5
 10
10.32831933421468
 20
63.27600530078488
 30
0.0
 42
-0.2276229810650908
  0
VERTEX
  5
38A
  8
DEFAULT
 62
     5
 10
9.997300851017963
 20
62.58850517127158
 30
0.0
 42
-0.1809722242825312
  0
VERTEX
  5
38B
  8
DEFAULT
 62
     5
 10
9.017748693891484
 20
62.30108227878268
 30
0.0
 42
-0.1534212868271952
  0
VERTEX
  5
38C
  8
DEFAULT
 62
     5
 10
8.085842550062967
 20
62.54027988029051
 30
0.0
 42
-0.1853542620165941
  0
SEQEND
  5
38D
  8
DEFAULT
 62
     5
  0
POLYLINE
  5
38E
  8
DEFAULT
 62
     5
 66
     1
 10
0.0
 20
0.0
 30
0.0
 70
     1
  0
VERTEX
  5
38F
  8
DEFAULT
 62
     5
 10
4.550541556436897
 20
63.18997116767158
 30
0.0
  0
VERTEX
  5
390
  8
DEFAULT
 62
     5
 10
5.315973655202336
 20
63.28873659977035
 30
0.0
 42
0.181713453741316
  0
VERTEX
  5
391
  8
DEFAULT
 62
     5
 10
5.514083420317008
 20
62.95733230821753
 30
0.0
 42
0.1637490318833122
  0
VERTEX
  5
392
  8
DEFAULT
 62
     5
 10
5.931328940805066
 20
62.8442921553259
 30
0.0
 42
0.1581548590316389
  0
VERTEX
  5
393
  8
DEFAULT
 62
     5
 10
6.376159193605616
 20
62.95501764646389
 30
0.0
 42
0.2454173628752843
  0
VERTEX
  5
394
  8
DEFAULT
 62
     5
 10
6.47646748236283
 20
63.16257952792013
 30
0.0
  0
VERTEX
  5
395
  8
DEFAULT
 62
     5
 10
6.422069634450061
 20
63.30918444264386
 30
0.0
  0
VERTEX
  5
396
  8
DEFAULT
 62
     5
 10
6.165896653656652
 20
63.41142214994756
 30
0.0
 42
-0.075010197764926
  0
VERTEX
  5
397
  8
DEFAULT
 62
     5
 10
4.992285719154594
 20
63.78912250231794
 30
0.0
 42
-0.2630575377237105
  0
VERTEX
  5
398
  8
DEFAULT
 62
     5
 10
4.649306988535668
 20
64.44421529506745
 30
0.0
 42
-0.2278055359034042
  0
VERTEX
  5
399
  8
DEFAULT
 62
     5
 10
4.945796189010019
 20
65.08040328998489
 30
0.0
 42
-0.1789409577799051
  0
VERTEX
  5
39A
  8
DEFAULT
 62
     5
 10
5.864970657087107
 20
65.33811931581972
 30
0.0
 42
-0.1478680227512851
  0
VERTEX
  5
39B
  8
DEFAULT
 62
     5
 10
6.746143567236901
 20
65.13846669404661
 30
0.0
 42
-0.1798681362131976
  0
VERTEX
  5
39C
  8
DEFAULT
 62
     5
 10
7.143134149029491
 20
64.5479958590296
 30
0.0
  0
VERTEX
  5
39D
  8
DEFAULT
 62
     5
 10
6.427084766313436
 20
64.42453906890613
 30
0.0
 42
0.1762609448244297
  0
VERTEX
  5
39E
  8
DEFAULT
 62
     5
 10
6.251930598386958
 20
64.69942337820464
 30
0.0
 42
0.1598214678236385
  0
VERTEX
  5
39F
  8
DEFAULT
 62
     5
 10
5.883874889770233
 20
64.79490943927651
 30
0.0
 42
0.1371855487857848
  0
VERTEX
  5
3A0
  8
DEFAULT
 62
     5
 10
5.452162121077222
 20
64.70926149128529
 30
0.0
  0
VERTEX
  5
3A1
  8
DEFAULT
 62
     5
 10
5.365356371251714
 20
64.55146813423454
 30
0.0
  0
VERTEX
  5
3A2
  8
DEFAULT
 62
     5
 10
5.441359487106311
 20
64.41026453649627
 30
0.0
  0
VERTEX
  5
3A3
  8
DEFAULT
 62
     5
 10
6.153165166288198
 20
64.19170749365703
 30
0.0
 42
-0.1095214193377348
  0
VERTEX
  5
3A4
  8
DEFAULT
 62
     5
 10
7.003087976359526
 20
63.84815042726992
 30
0.0
 42
-0.2284114958797594
  0
VERTEX
  5
3A5
  8
DEFAULT
 62
     5
 10
7.241899581128256
 20
63.27600530078488
 30
0.0
 42
-0.2276229810650936
  0
VERTEX
  5
3A6
  8
DEFAULT
 62
     5
 10
6.910881097931549
 20
62.58850517127158
 30
0.0
 42
-0.1809722242825247
  0
VERTEX
  5
3A7
  8
DEFAULT
 62
     5
 10
5.931328940805066
 20
62.30108227878268
 30
0.0
 42
-0.1534212868271956
  0
VERTEX
  5
3A8
  8
DEFAULT
 62
     5
 10
4.99942279697654
 20
62.54027988029051
 30
0.0
 42
-0.1853542620165929
  0
SEQEND
  5
3A9
  8
DEFAULT
 62
     5
  0
POLYLINE
  5
3AA
  8
DEFAULT
 62
     5
 66
     1
 10
0.0
 20
0.0
 30
0.0
 70
     1
  0
VERTEX
  5
3AB
  8
DEFAULT
 62
     5
 10
3.291282297177638
 20
62.37515635285676
 30
0.0
  0
VERTEX
  5
3AC
  8
DEFAULT
 62
     5
 10
3.291282297177638
 20
65.26404524174565
 30
0.0
  0
VERTEX
  5
3AD
  8
DEFAULT
 62
     5
 10
4.056714395943075
 20
65.26404524174565
 30
0.0
  0
VERTEX
  5
3AE
  8
DEFAULT
 62
     5
 10
4.056714395943075
 20
62.37515635285676
 30
0.0
  0
SEQEND
  5
3AF
  8
DEFAULT
 62
     5
  0
POLYLINE
  5
3B0
  8
DEFAULT
 62
     5
 66
     1
 10
0.0
 20
0.0
 30
0.0
 70
     1
  0
VERTEX
  5
3B1
  8
DEFAULT
 62
     5
 10
3.291282297177638
 20
65.68379832816541
 30
0.0
  0
VERTEX
  5
3B2
  8
DEFAULT
 62
     5
 10
3.291282297177638
 20
66.35046499483207
 30
0.0
  0
VERTEX
  5
3B3
  8
DEFAULT
 62
     5
 10
4.056714395943075
 20
66.35046499483207
 30
0.0
  0
VERTEX
  5
3B4
  8
DEFAULT
 62
     5
 10
4.056714395943075
 20
65.68379832816541
 30
0.0
  0
SEQEND
  5
3B5
  8
DEFAULT
 62
     5
  0
POLYLINE
  5
3B6
  8
DEFAULT
 62
     5
 66
     1
 10
0.0
 20
0.0
 30
0.0
 70
     1
  0
VERTEX
  5
3B7
  8
DEFAULT
 62
     5
 10
0.501158840387518
 20
63.87322759365072
 30
0.0
 42
0.1276841436789561
  0
VERTEX
  5
3B8
  8
DEFAULT
 62
     5
 10
0.6269304806476003
 20
63.19652990972535
 30
0.0
 42
0.5507646698212353
  0
VERTEX
  5
3B9
  8
DEFAULT
 62
     5
 10
1.578319381310426
 20
63.12071969804881
 30
0.0
 42
0.168974232029142
  0
VERTEX
  5
3BA
  8
DEFAULT
 62
     5
 10
1.76041809964678
 20
63.79915351957665
 30
0.0
 42
0.1638068512632702
  0
VERTEX
  5
3BB
  8
DEFAULT
 62
     5
 10
1.583527794117829
 20
64.52407611771712
 30
0.0
 42
0.4979191279739269
  0
VERTEX
  5
3BC
  8
DEFAULT
 62
     5
 10
0.682100322038533
 20
64.52677677620984
 30
0.0
 42
0.1734205701458553
  0
SEQEND
  5
3BD
  8
DEFAULT
 62
     5
  0
POLYLINE
  5
3BE
  8
DEFAULT
 62
     5
 66
     1
 10
0.0
 20
0.0
 30
0.0
 70
     1
  0
VERTEX
  5
3BF
  8
DEFAULT
 62
     5
 10
2.525850198412208
 20
62.37515635285676
 30
0.0
  0
VERTEX
  5
3C0
  8
DEFAULT
 62
     5
 10
1.809800815696157
 20
62.37515635285676
 30
0.0
  0
VERTEX
  5
3C1
  8
DEFAULT
 62
     5
 10
1.809800815696158
 20
62.79645267270093
 30
0.0
 42
-0.1195257890911635
  0
VERTEX
  5
3C2
  8
DEFAULT
 62
     5
 10
1.399500222383941
 20
62.42588939815252
 30
0.0
 42
-0.1234715217774347
  0
VERTEX
  5
3C3
  8
DEFAULT
 62
     5
 10
0.9224551602316848
 20
62.30108227878269
 30
0.0
 42
-0.2283648896821353
  0
VERTEX
  5
3C4
  8
DEFAULT
 62
     5
 10
0.0844922208166015
 20
62.70463179101204
 30
0.0
 42
-0.1826315182993445
  0
VERTEX
  5
3C5
  8
DEFAULT
 62
     5
 10
-0.26427325837791
 20
63.83040361965511
 30
0.0
 42
-0.1842914998158263
  0
VERTEX
  5
3C6
  8
DEFAULT
 62
     5
 10
0.0758117211872443
 20
64.95366731721752
 30
0.0
 42
-0.2252478569575298
  0
VERTEX
  5
3C7
  8
DEFAULT
 62
     5
 10
0.9355726443392245
 20
65.33811931581974
 30
0.0
 42
-0.2270824258515446
  0
VERTEX
  5
3C8
  8
DEFAULT
 62
     5
 10
1.760418099646781
 20
64.9384282639174
 30
0.0
  0
VERTEX
  5
3C9
  8
DEFAULT
 62
     5
 10
1.760418099646778
 20
66.35046499483207
 30
0.0
  0
VERTEX
  5
3CA
  8
DEFAULT
 62
     5
 10
2.525850198412208
 20
66.35046499483207
 30
0.0
  0
SEQEND
  5
3CB
  8
DEFAULT
 62
     5
  0
POLYLINE
  5
3CC
  8
DEFAULT
 62
     5
 66
     1
 10
0.0
 20
0.0
 30
0.0
 70
     1
  0
VERTEX
  5
3CD
  8
DEFAULT
 62
     5
 10
-4.980322641093963
 20
63.18997116767158
 30
0.0
  0
VERTEX
  5
3CE
  8
DEFAULT
 62
     5
 10
-4.214890542328527
 20
63.28873659977035
 30
0.0
 42
0.1817134537413128
  0
VERTEX
  5
3CF
  8
DEFAULT
 62
     5
 10
-4.016780777213863
 20
62.95733230821753
 30
0.0
 42
0.1637490318833053
  0
VERTEX
  5
3D0
  8
DEFAULT
 62
     5
 10
-3.599535256725794
 20
62.8442921553259
 30
0.0
 42
0.158154859031638
  0
VERTEX
  5
3D1
  8
DEFAULT
 62
     5
 10
-3.154705003925256
 20
62.95501764646389
 30
0.0
 42
0.2454173628752865
  0
VERTEX
  5
3D2
  8
DEFAULT
 62
     5
 10
-3.054396715168039
 20
63.16257952792013
 30
0.0
  0
VERTEX
  5
3D3
  8
DEFAULT
 62
     5
 10
-3.108794563080799
 20
63.30918444264386
 30
0.0
  0
VERTEX
  5
3D4
  8
DEFAULT
 62
     5
 10
-3.364967543874214
 20
63.41142214994757
 30
0.0
 42
-0.0750101977649253
  0
VERTEX
  5
3D5
  8
DEFAULT
 62
     5
 10
-4.538578478376277
 20
63.78912250231793
 30
0.0
 42
-0.2630575377237069
  0
VERTEX
  5
3D6
  8
DEFAULT
 62
     5
 10
-4.881557208995202
 20
64.44421529506745
 30
0.0
 42
-0.2278055359034
  0
VERTEX
  5
3D7
  8
DEFAULT
 62
     5
 10
-4.585068008520845
 20
65.08040328998489
 30
0.0
 42
-0.1789409577799062
  0
VERTEX
  5
3D8
  8
DEFAULT
 62
     5
 10
-3.665893540443761
 20
65.33811931581972
 30
0.0
 42
-0.1478680227512867
  0
VERTEX
  5
3D9
  8
DEFAULT
 62
     5
 10
-2.784720630293967
 20
65.13846669404661
 30
0.0
 42
-0.1798681362132101
  0
VERTEX
  5
3DA
  8
DEFAULT
 62
     5
 10
-2.387730048501373
 20
64.5479958590296
 30
0.0
  0
VERTEX
  5
3DB
  8
DEFAULT
 62
     5
 10
-3.103779431217414
 20
64.42453906890614
 30
0.0
 42
0.1762609448243961
  0
VERTEX
  5
3DC
  8
DEFAULT
 62
     5
 10
-3.278933599143897
 20
64.69942337820464
 30
0.0
 42
0.1598214678236326
  0
VERTEX
  5
3DD
  8
DEFAULT
 62
     5
 10
-3.646989307760634
 20
64.79490943927652
 30
0.0
 42
0.1371855487857929
  0
VERTEX
  5
3DE
  8
DEFAULT
 62
     5
 10
-4.078702076453637
 20
64.70926149128529
 30
0.0
  0
VERTEX
  5
3DF
  8
DEFAULT
 62
     5
 10
-4.165507826279146
 20
64.55146813423454
 30
0.0
  0
VERTEX
  5
3E0
  8
DEFAULT
 62
     5
 10
-4.089504710424556
 20
64.41026453649627
 30
0.0
  0
VERTEX
  5
3E1
  8
DEFAULT
 62
     5
 10
-3.377699031242662
 20
64.19170749365703
 30
0.0
 42
-0.1095214193377387
  0
VERTEX
  5
3E2
  8
DEFAULT
 62
     5
 10
-2.527776221171337
 20
63.84815042726993
 30
0.0
 42
-0.2284114958797635
  0
VERTEX
  5
3E3
  8
DEFAULT
 62
     5
 10
-2.288964616402594
 20
63.27600530078488
 30
0.0
 42
-0.2276229810650803
  0
VERTEX
  5
3E4
  8
DEFAULT
 62
     5
 10
-2.619983099599319
 20
62.58850517127158
 30
0.0
 42
-0.1809722242825295
  0
VERTEX
  5
3E5
  8
DEFAULT
 62
     5
 10
-3.599535256725794
 20
62.30108227878269
 30
0.0
 42
-0.1534212868271968
  0
VERTEX
  5
3E6
  8
DEFAULT
 62
     5
 10
-4.53144140055432
 20
62.54027988029051
 30
0.0
 42
-0.1853542620165936
  0
SEQEND
  5
3E7
  8
DEFAULT
 62
     5
  0
POLYLINE
  5
3E8
  8
DEFAULT
 62
     5
 66
     1
 10
0.0
 20
0.0
 30
0.0
 70
     1
  0
VERTEX
  5
3E9
  8
DEFAULT
 62
     5
 10
-7.79513745590878
 20
62.37515635285676
 30
0.0
  0
VERTEX
  5
3EA
  8
DEFAULT
 62
     5
 10
-7.79513745590878
 20
66.35046499483207
 30
0.0
  0
VERTEX
  5
3EB
  8
DEFAULT
 62
     5
 10
-7.029705357143349
 20
66.35046499483207
 30
0.0
  0
VERTEX
  5
3EC
  8
DEFAULT
 62
     5
 10
-7.029705357143349
 20
64.24668443086992
 30
0.0
  0
VERTEX
  5
3ED
  8
DEFAULT
 62
     5
 10
-6.153161958883814
 20
65.26404524174565
 30
0.0
  0
VERTEX
  5
3EE
  8
DEFAULT
 62
     5
 10
-5.214890353945549
 20
65.26404524174565
 30
0.0
  0
VERTEX
  5
3EF
  8
DEFAULT
 62
     5
 10
-6.207945991918656
 20
64.18958554769846
 30
0.0
  0
VERTEX
  5
3F0
  8
DEFAULT
 62
     5
 10
-5.165507637896162
 20
62.37515635285676
 30
0.0
  0
VERTEX
  5
3F1
  8
DEFAULT
 62
     5
 10
-5.980322452710979
 20
62.37515635285676
 30
0.0
  0
VERTEX
  5
3F2
  8
DEFAULT
 62
     5
 10
-6.699072493919758
 20
63.65756411348227
 30
0.0
  0
VERTEX
  5
3F3
  8
DEFAULT
 62
     5
 10
-7.029705357143349
 20
63.29992504209736
 30
0.0
  0
VERTEX
  5
3F4
  8
DEFAULT
 62
     5
 10
-7.029705357143349
 20
62.37515635285676
 30
0.0
  0
SEQEND
  5
3F5
  8
DEFAULT
 62
     5
  0
POLYLINE
  5
3F6
  8
DEFAULT
 62
     5
 66
     1
 10
0.0
 20
0.0
 30
0.0
 70
     1
  0
VERTEX
  5
3F7
  8
DEFAULT
 62
     5
 10
-8.387730048501375
 20
64.42453906890614
 30
0.0
  0
VERTEX
  5
3F8
  8
DEFAULT
 62
     5
 10
-9.153162147266803
 20
64.30108227878269
 30
0.0
 42
0.1809968098175332
  0
VERTEX
  5
3F9
  8
DEFAULT
 62
     5
 10
-9.324072423276133
 20
64.63383708796485
 30
0.0
 42
0.1804760167669944
  0
VERTEX
  5
3FA
  8
DEFAULT
 62
     5
 10
-9.669751624004801
 20
64.74552672322714
 30
0.0
 42
0.2329674834671427
  0
VERTEX
  5
3FB
  8
DEFAULT
 62
     5
 10
-10.12075462212004
 20
64.54490958056375
 30
0.0
 42
0.1695179555120327
  0
VERTEX
  5
3FC
  8
DEFAULT
 62
     5
 10
-10.28896461640261
 20
63.87361340200682
 30
0.0
 42
0.1610966817174933
  0
VERTEX
  5
3FD
  8
DEFAULT
 62
     5
 10
-10.11670363438093
 20
63.13422280212946
 30
0.0
 42
0.2405540491094115
  0
VERTEX
  5
3FE
  8
DEFAULT
 62
     5
 10
-9.654319289760636
 20
62.91836622939997
 30
0.0
 42
0.1883458441869688
  0
VERTEX
  5
3FF
  8
DEFAULT
 62
     5
 10
-9.299188161073392
 20
63.0406657828381
 30
0.0
 42
0.1622604489947868
  0
VERTEX
  5
400
  8
DEFAULT
 62
     5
 10
-9.103779431217417
 20
63.46157610594318
 30
0.0
  0
VERTEX
  5
401
  8
DEFAULT
 62
     5
 10
-8.33834733245199
 20
63.36281067384441
 30
0.0
 42
-0.1724509721436126
  0
VERTEX
  5
402
  8
DEFAULT
 62
     5
 10
-8.785492247006173
 20
62.56921513023234
 30
0.0
 42
-0.1746967243539315
  0
VERTEX
  5
403
  8
DEFAULT
 62
     5
 10
-9.672066097375458
 20
62.30108227878269
 30
0.0
 42
-0.2163976905724318
  0
VERTEX
  5
404
  8
DEFAULT
 62
     5
 10
-10.67901083616831
 20
62.70328146176568
 30
0.0
 42
-0.1943870566321093
  0
VERTEX
  5
405
  8
DEFAULT
 62
     5
 10
-11.05439671516803
 20
63.81690032719145
 30
0.0
 42
-0.1945054615972676
  0
VERTEX
  5
406
  8
DEFAULT
 62
     5
 10
-10.67920374034637
 20
64.93727065046609
 30
0.0
 42
-0.215780163157981
  0
VERTEX
  5
407
  8
DEFAULT
 62
     5
 10
-9.66435030701934
 20
65.33811931581972
 30
0.0
 42
-0.1599423076957934
  0
VERTEX
  5
408
  8
DEFAULT
 62
     5
 10
-8.831788496206732
 20
65.11242500677552
 30
0.0
 42
-0.1682635697126212
  0
SEQEND
  5
409
  8
DEFAULT
 62
     5
  0
POLYLINE
  5
40A
  8
DEFAULT
 62
     5
 66
     1
 10
0.0
 20
0.0
 30
0.0
 70
     1
  0
VERTEX
  5
40B
  8
DEFAULT
 62
     5
 10
-13.67168066578532
 20
63.8196009856842
 30
0.0
 42
0.1807696907208119
  0
VERTEX
  5
40C
  8
DEFAULT
 62
     5
 10
-13.47183495145116
 20
63.1506194688809
 30
0.0
 42
0.4777036397637918
  0
VERTEX
  5
40D
  8
DEFAULT
 62
     5
 10
-12.48745981310741
 20
63.1506194688809
 30
0.0
 42
0.1794408075869692
  0
VERTEX
  5
40E
  8
DEFAULT
 62
     5
 10
-12.28896461640262
 20
63.82500230266966
 30
0.0
 42
0.1800932450793691
  0
VERTEX
  5
40F
  8
DEFAULT
 62
     5
 10
-12.48745981310741
 20
64.4885823141045
 30
0.0
 42
0.4793729384846446
  0
VERTEX
  5
410
  8
DEFAULT
 62
     5
 10
-13.47183495145117
 20
64.4885823141045
 30
0.0
 42
0.1807697890868452
  0
SEQEND
  5
411
  8
DEFAULT
 62
     5
  0
POLYLINE
  5
412
  8
DEFAULT
 62
     5
 66
     1
 10
0.0
 20
0.0
 30
0.0
 70
     1
  0
VERTEX
  5
413
  8
DEFAULT
 62
     5
 10
-14.43711276455075
 20
63.86049591789929
 30
0.0
 42
-0.1222574291832749
  0
VERTEX
  5
414
  8
DEFAULT
 62
     5
 10
-14.2505772501192
 20
64.60200846373522
 30
0.0
 42
-0.1509199207835984
  0
VERTEX
  5
415
  8
DEFAULT
 62
     5
 10
-13.72202771434198
 20
65.14926913963454
 30
0.0
 42
-0.1287246067143843
  0
VERTEX
  5
416
  8
DEFAULT
 62
     5
 10
-12.95833156479603
 20
65.33811931581972
 30
0.0
 42
-0.2109274079128394
  0
VERTEX
  5
417
  8
DEFAULT
 62
     5
 10
-11.8904306128026
 20
64.90987863394867
 30
0.0
 42
-0.2026212639801682
  0
VERTEX
  5
418
  8
DEFAULT
 62
     5
 10
-11.47414980158779
 20
63.82770296116237
 30
0.0
 42
-0.2022295973323157
  0
VERTEX
  5
419
  8
DEFAULT
 62
     5
 10
-11.89448141215871
 20
62.7347242776392
 30
0.0
 42
-0.2115506096600981
  0
VERTEX
  5
41A
  8
DEFAULT
 62
     5
 10
-12.95293062457654
 20
62.30108227878269
 30
0.0
 42
-0.1188796278362304
  0
VERTEX
  5
41B
  8
DEFAULT
 62
     5
 10
-13.70582414015158
 20
62.48163795207761
 30
0.0
 42
-0.1582355798320485
  0
VERTEX
  5
41C
  8
DEFAULT
 62
     5
 10
-14.2505772501192
 20
63.0111520087451
 30
0.0
 42
-0.1239053267140388
  0
SEQEND
  5
41D
  8
DEFAULT
 62
     5
  0
POLYLINE
  5
41E
  8
DEFAULT
 62
     5
 66
     1
 10
0.0
 20
0.0
 30
0.0
 70
     1
  0
VERTEX
  5
41F
  8
DEFAULT
 62
     5
 10
-15.79513745590878
 20
62.37515635285676
 30
0.0
  0
VERTEX
  5
420
  8
DEFAULT
 62
     5
 10
-15.79513745590878
 20
66.35046499483207
 30
0.0
  0
VERTEX
  5
421
  8
DEFAULT
 62
     5
 10
-15.02970535714335
 20
66.35046499483207
 30
0.0
  0
VERTEX
  5
422
  8
DEFAULT
 62
     5
 10
-15.02970535714335
 20
62.37515635285676
 30
0.0
  0
SEQEND
  5
423
  8
DEFAULT
 62
     5
  0
POLYLINE
  5
424
  8
DEFAULT
 62
     5
 66
     1
 10
0.0
 20
0.0
 30
0.0
 70
     1
  0
VERTEX
  5
425
  8
DEFAULT
 62
     5
 10
-18.41242140652606
 20
63.87322759365072
 30
0.0
 42
0.1375284068188374
  0
VERTEX
  5
426
  8
DEFAULT
 62
     5
 10
-18.27314647380233
 20
63.2019312267108
 30
0.0
 42
0.2740108968145712
  0
VERTEX
  5
427
  8
DEFAULT
 62
     5
 10
-17.75347053021551
 20
62.89367487137527
 30
0.0
 42
0.2391215062966236
  0
VERTEX
  5
428
  8
DEFAULT
 62
     5
 10
-17.32870212354938
 20
63.11242500677555
 30
0.0
 42
0.1664742695867958
  0
VERTEX
  5
429
  8
DEFAULT
 62
     5
 10
-17.1531621472668
 20
63.80185417806938
 30
0.0
 42
0.1640109831052181
  0
VERTEX
  5
42A
  8
DEFAULT
 62
     5
 10
-17.33005245279575
 20
64.52407611771712
 30
0.0
 42
0.4960567659548318
  0
VERTEX
  5
42B
  8
DEFAULT
 62
     5
 10
-18.23283025412139
 20
64.52947743470259
 30
0.0
 42
0.1733692477042387
  0
SEQEND
  5
42C
  8
DEFAULT
 62
     5
  0
POLYLINE
  5
42D
  8
DEFAULT
 62
     5
 66
     1
 10
0.0
 20
0.0
 30
0.0
 70
     1
  0
VERTEX
  5
42E
  8
DEFAULT
 62
     5
 10
-19.17785350529149
 20
62.37515635285676
 30
0.0
  0
VERTEX
  5
42F
  8
DEFAULT
 62
     5
 10
-19.17785350529149
 20
66.35046499483207
 30
0.0
  0
VERTEX
  5
430
  8
DEFAULT
 62
     5
 10
-18.41242140652606
 20
66.35046499483207
 30
0.0
  0
VERTEX
  5
431
  8
DEFAULT
 62
     5
 10
-18.41242140652606
 20
64.93842826391739
 30
0.0
 42
-0.227082259688268
  0
VERTEX
  5
432
  8
DEFAULT
 62
     5
 10
-17.58757557445254
 20
65.33811931581972
 30
0.0
 42
-0.2252479393351529
  0
VERTEX
  5
433
  8
DEFAULT
 62
     5
 10
-16.72781483968355
 20
64.95366731721752
 30
0.0
 42
-0.1849988564295996
  0
VERTEX
  5
434
  8
DEFAULT
 62
     5
 10
-16.38773004850137
 20
63.84969366069434
 30
0.0
 42
-0.18117890104226
  0
VERTEX
  5
435
  8
DEFAULT
 62
     5
 10
-16.73379468082017
 20
62.70328146176568
 30
0.0
 42
-0.2291506328684787
  0
VERTEX
  5
436
  8
DEFAULT
 62
     5
 10
-17.574458090345
 20
62.30108227878269
 30
0.0
 42
-0.125859037226108
  0
VERTEX
  5
437
  8
DEFAULT
 62
     5
 10
-18.054203622607
 20
62.42859005664523
 30
0.0
 42
-0.1164914631293712
  0
VERTEX
  5
438
  8
DEFAULT
 62
     5
 10
-18.46180412257544
 20
62.79645267270093
 30
0.0
  0
VERTEX
  5
439
  8
DEFAULT
 62
     5
 10
-18.46180412257544
 20
62.37515635285676
 30
0.0
  0
SEQEND
  5
43A
  8
DEFAULT
 62
     5
  0
POLYLINE
  5
43B
  8
DEFAULT
 62
     5
 66
     1
 10
0.0
 20
0.0
 30
0.0
 70
     1
  0
VERTEX
  5
43C
  8
DEFAULT
 62
     5
 10
-21.30131029541495
 20
64.42453906890614
 30
0.0
  0
VERTEX
  5
43D
  8
DEFAULT
 62
     5
 10
-22.06674239418038
 20
64.30108227878269
 30
0.0
 42
0.1809968098175217
  0
VERTEX
  5
43E
  8
DEFAULT
 62
     5
 10
-22.23765267018972
 20
64.63383708796485
 30
0.0
 42
0.1804760167669985
  0
VERTEX
  5
43F
  8
DEFAULT
 62
     5
 10
-22.58333187091838
 20
64.74552672322714
 30
0.0
 42
0.2329674834671407
  0
VERTEX
  5
440
  8
DEFAULT
 62
     5
 10
-23.03433486903361
 20
64.54490958056375
 30
0.0
 42
0.169517955512036
  0
VERTEX
  5
441
  8
DEFAULT
 62
     5
 10
-23.20254486331619
 20
63.87361340200684
 30
0.0
 42
0.1610966817174937
  0
VERTEX
  5
442
  8
DEFAULT
 62
     5
 10
-23.03028388129452
 20
63.13422280212946
 30
0.0
 42
0.2405540491093873
  0
VERTEX
  5
443
  8
DEFAULT
 62
     5
 10
-22.56789953667421
 20
62.91836622939998
 30
0.0
 42
0.1883458441869849
  0
VERTEX
  5
444
  8
DEFAULT
 62
     5
 10
-22.21276840798697
 20
63.0406657828381
 30
0.0
 42
0.1622604489947869
  0
VERTEX
  5
445
  8
DEFAULT
 62
     5
 10
-22.017359678131
 20
63.46157610594318
 30
0.0
  0
VERTEX
  5
446
  8
DEFAULT
 62
     5
 10
-21.25192757936556
 20
63.36281067384441
 30
0.0
 42
-0.1724509721436119
  0
VERTEX
  5
447
  8
DEFAULT
 62
     5
 10
-21.69907249391975
 20
62.56921513023235
 30
0.0
 42
-0.1746967243539429
  0
VERTEX
  5
448
  8
DEFAULT
 62
     5
 10
-22.58564634428903
 20
62.30108227878268
 30
0.0
 42
-0.2163976905724321
  0
VERTEX
  5
449
  8
DEFAULT
 62
     5
 10
-23.59259108308189
 20
62.70328146176568
 30
0.0
 42
-0.1943870566321091
  0
VERTEX
  5
44A
  8
DEFAULT
 62
     5
 10
-23.96797696208161
 20
63.81690032719146
 30
0.0
 42
-0.1945054615972593
  0
VERTEX
  5
44B
  8
DEFAULT
 62
     5
 10
-23.59278398725995
 20
64.93727065046609
 30
0.0
 42
-0.2157801631579855
  0
VERTEX
  5
44C
  8
DEFAULT
 62
     5
 10
-22.57793055393292
 20
65.33811931581972
 30
0.0
 42
-0.1599423076957992
  0
VERTEX
  5
44D
  8
DEFAULT
 62
     5
 10
-21.74536874312031
 20
65.11242500677557
 30
0.0
 42
-0.1682635697126327
  0
SEQEND
  5
44E
  8
DEFAULT
 62
     5
  0
POLYLINE
  5
44F
  8
DEFAULT
 62
     5
 66
     1
 10
0.0
 20
0.0
 30
0.0
 70
     1
  0
VERTEX
  5
450
  8
DEFAULT
 62
     5
 10
-25.32600165343964
 20
62.37515635285676
 30
0.0
  0
VERTEX
  5
451
  8
DEFAULT
 62
     5
 10
-25.32600165343964
 20
65.26404524174565
 30
0.0
  0
VERTEX
  5
452
  8
DEFAULT
 62
     5
 10
-24.56056955467421
 20
65.26404524174565
 30
0.0
  0
VERTEX
  5
453
  8
DEFAULT
 62
     5
 10
-24.56056955467421
 20
62.37515635285676
 30
0.0
  0
SEQEND
  5
454
  8
DEFAULT
 62
     5
  0
POLYLINE
  5
455
  8
DEFAULT
 62
     5
 66
     1
 10
0.0
 20
0.0
 30
0.0
 70
     1
  0
VERTEX
  5
456
  8
DEFAULT
 62
     5
 10
-25.32600165343964
 20
65.68379832816541
 30
0.0
  0
VERTEX
  5
457
  8
DEFAULT
 62
     5
 10
-25.32600165343964
 20
66.35046499483207
 30
0.0
  0
VERTEX
  5
458
  8
DEFAULT
 62
     5
 10
-24.56056955467421
 20
66.35046499483207
 30
0.0
  0
VERTEX
  5
459
  8
DEFAULT
 62
     5
 10
-24.56056955467421
 20
65.68379832816541
 30
0.0
  0
SEQEND
  5
45A
  8
DEFAULT
 62
     5
  0
POLYLINE
  5
45B
  8
DEFAULT
 62
     5
 66
     1
 10
0.0
 20
0.0
 30
0.0
 70
     1
  0
VERTEX
  5
45C
  8
DEFAULT
 62
     5
 10
-27.94328560405692
 20
63.87322759365072
 30
0.0
 42
0.1375284068188374
  0
VERTEX
  5
45D
  8
DEFAULT
 62
     5
 10
-27.8040106713332
 20
63.2019312267108
 30
0.0
 42
0.2740108968145644
  0
VERTEX
  5
45E
  8
DEFAULT
 62
     5
 10
-27.28433472774637
 20
62.89367487137528
 30
0.0
 42
0.2391215062966335
  0
VERTEX
  5
45F
  8
DEFAULT
 62
     5
 10
-26.85956632108025
 20
63.11242500677555
 30
0.0
 42
0.1664742695868061
  0
VERTEX
  5
460
  8
DEFAULT
 62
     5
 10
-26.68402634479766
 20
63.80185417806938
 30
0.0
 42
0.1640109831052171
  0
VERTEX
  5
461
  8
DEFAULT
 62
     5
 10
-26.8609166503266
 20
64.52407611771712
 30
0.0
 42
0.4960567659548366
  0
VERTEX
  5
462
  8
DEFAULT
 62
     5
 10
-27.76369445165226
 20
64.52947743470259
 30
0.0
 42
0.1733692477042279
  0
SEQEND
  5
463
  8
DEFAULT
 62
     5
  0
POLYLINE
  5
464
  8
DEFAULT
 62
     5
 66
     1
 10
0.0
 20
0.0
 30
0.0
 70
     1
  0
VERTEX
  5
465
  8
DEFAULT
 62
     5
 10
-28.70871770282236
 20
62.37515635285676
 30
0.0
  0
VERTEX
  5
466
  8
DEFAULT
 62
     5
 10
-28.70871770282236
 20
66.35046499483207
 30
0.0
  0
VERTEX
  5
467
  8
DEFAULT
 62
     5
 10
-27.94328560405692
 20
66.35046499483207
 30
0.0
  0
VERTEX
  5
468
  8
DEFAULT
 62
     5
 10
-27.94328560405693
 20
64.93842826391739
 30
0.0
 42
-0.2270822596882694
  0
VERTEX
  5
469
  8
DEFAULT
 62
     5
 10
-27.1184397719834
 20
65.33811931581972
 30
0.0
 42
-0.2252479393351597
  0
VERTEX
  5
46A
  8
DEFAULT
 62
     5
 10
-26.2586790372144
 20
64.95366731721752
 30
0.0
 42
-0.1849988564295994
  0
VERTEX
  5
46B
  8
DEFAULT
 62
     5
 10
-25.91859424603223
 20
63.84969366069434
 30
0.0
 42
-0.1811789010422654
  0
VERTEX
  5
46C
  8
DEFAULT
 62
     5
 10
-26.26465887835102
 20
62.70328146176568
 30
0.0
 42
-0.2291506328684801
  0
VERTEX
  5
46D
  8
DEFAULT
 62
     5
 10
-27.10532228787586
 20
62.30108227878269
 30
0.0
 42
-0.1258590372261099
  0
VERTEX
  5
46E
  8
DEFAULT
 62
     5
 10
-27.58506782013786
 20
62.42859005664525
 30
0.0
 42
-0.1164914631293813
  0
VERTEX
  5
46F
  8
DEFAULT
 62
     5
 10
-27.9926683201063
 20
62.79645267270093
 30
0.0
  0
VERTEX
  5
470
  8
DEFAULT
 62
     5
 10
-27.99266832010631
 20
62.37515635285676
 30
0.0
  0
SEQEND
  5
471
  8
DEFAULT
 62
     5
  0
POLYLINE
  5
472
  8
DEFAULT
 62
     5
 66
     1
 10
0.0
 20
0.0
 30
0.0
 70
     1
  0
VERTEX
  5
473
  8
DEFAULT
 62
     5
 10
-33.69637202381001
 20
65.26404524174565
 30
0.0
  0
VERTEX
  5
474
  8
DEFAULT
 62
     5
 10
-33.00501399911865
 20
65.26404524174565
 30
0.0
  0
VERTEX
  5
475
  8
DEFAULT
 62
     5
 10
-33.00501399911865
 20
64.87245578855553
 30
0.0
 42
-0.2373869490350091
  0
VERTEX
  5
476
  8
DEFAULT
 62
     5
 10
-32.10647990132716
 20
65.33811931581972
 30
0.0
 42
-0.1315120310734423
  0
VERTEX
  5
477
  8
DEFAULT
 62
     5
 10
-31.62634874909205
 20
65.22237869281835
 30
0.0
 42
-0.1393853272244852
  0
VERTEX
  5
478
  8
DEFAULT
 62
     5
 10
-31.29243670322456
 20
64.87245578855553
 30
0.0
 42
-0.1018343532165737
  0
VERTEX
  5
479
  8
DEFAULT
 62
     5
 10
-30.88387187074883
 20
65.22237869281835
 30
0.0
 42
-0.1239296679570996
  0
VERTEX
  5
47A
  8
DEFAULT
 62
     5
 10
-30.41589330496502
 20
65.33811931581971
 30
0.0
 42
-0.1355305589142
  0
VERTEX
  5
47B
  8
DEFAULT
 62
     5
 10
-29.8800137871878
 20
65.20848978038158
 30
0.0
 42
-0.1623661969580773
  0
VERTEX
  5
47C
  8
DEFAULT
 62
     5
 10
-29.55246739081303
 20
64.8280885811355
 30
0.0
 42
-0.0915442810314367
  0
VERTEX
  5
47D
  8
DEFAULT
 62
     5
 10
-29.47414980158779
 20
64.22777982142082
 30
0.0
  0
VERTEX
  5
47E
  8
DEFAULT
 62
     5
 10
-29.47414980158779
 20
62.37515635285676
 30
0.0
  0
VERTEX
  5
47F
  8
DEFAULT
 62
     5
 10
-30.23958190035322
 20
62.37515635285676
 30
0.0
  0
VERTEX
  5
480
  8
DEFAULT
 62
     5
 10
-30.23958190035322
 20
64.02716286714043
 30
0.0
 42
0.1141470137910672
  0
VERTEX
  5
481
  8
DEFAULT
 62
     5
 10
-30.31751368122237
 20
64.58233242595688
 30
0.0
 42
0.2721000606533533
  0
VERTEX
  5
482
  8
DEFAULT
 62
     5
 10
-30.64043037732387
 20
64.74552672322712
 30
0.0
  0
VERTEX
  5
483
  8
DEFAULT
 62
     5
 10
-30.93884880796172
 20
64.64753290784056
 30
0.0
 42
0.1657627374474058
  0
VERTEX
  5
484
  8
DEFAULT
 62
     5
 10
-31.14062356407641
 20
64.36049601209078
 30
0.0
  0
VERTEX
  5
485
  8
DEFAULT
 62
     5
 10
-31.20254486331618
 20
63.76327371922493
 30
0.0
  0
VERTEX
  5
486
  8
DEFAULT
 62
     5
 10
-31.20254486331618
 20
62.37515635285676
 30
0.0
  0
VERTEX
  5
487
  8
DEFAULT
 62
     5
 10
-31.96797696208161
 20
62.37515635285676
 30
0.0
  0
VERTEX
  5
488
  8
DEFAULT
 62
     5
 10
-31.96797696208161
 20
63.95887554164194
 30
0.0
  0
VERTEX
  5
489
  8
DEFAULT
 62
     5
 10
-32.00790737340645
 20
64.50343574743152
 30
0.0
  0
VERTEX
  5
48A
  8
DEFAULT
 62
     5
 10
-32.13194268768108
 20
64.68572736994592
 30
0.0
  0
VERTEX
  5
48B
  8
DEFAULT
 62
     5
 10
-32.35995222362784
 20
64.74552672322714
 30
0.0
 42
0.3306618495400637
  0
VERTEX
  5
48C
  8
DEFAULT
 62
     5
 10
-32.87094747920234
 20
64.3753494454178
 30
0.0
  0
VERTEX
  5
48D
  8
DEFAULT
 62
     5
 10
-32.93093992504458
 20
63.77947767018131
 30
0.0
  0
VERTEX
  5
48E
  8
DEFAULT
 62
     5
 10
-32.93093992504458
 20
62.37515635285676
 30
0.0
  0
VERTEX
  5
48F
  8
DEFAULT
 62
     5
 10
-33.69637202381001
 20
62.37515635285676
 30
0.0
  0
SEQEND
  5
490
  8
DEFAULT
 62
     5
  0
POLYLINE
  5
491
  8
DEFAULT
 62
     5
 66
     1
 10
0.0
 20
0.0
 30
0.0
 70
     1
  0
VERTEX
  5
492
  8
DEFAULT
 62
     5
 10
-36.41242140652606
 20
63.8196009856842
 30
0.0
 42
0.1807696907208172
  0
VERTEX
  5
493
  8
DEFAULT
 62
     5
 10
-36.2125756921919
 20
63.1506194688809
 30
0.0
 42
0.4777036397637735
  0
VERTEX
  5
494
  8
DEFAULT
 62
     5
 10
-35.22820055384817
 20
63.1506194688809
 30
0.0
 42
0.1794408075869814
  0
VERTEX
  5
495
  8
DEFAULT
 62
     5
 10
-35.02970535714335
 20
63.82500230266965
 30
0.0
 42
0.180093245079372
  0
VERTEX
  5
496
  8
DEFAULT
 62
     5
 10
-35.22820055384815
 20
64.4885823141045
 30
0.0
 42
0.4793729384846155
  0
VERTEX
  5
497
  8
DEFAULT
 62
     5
 10
-36.21257569219191
 20
64.4885823141045
 30
0.0
 42
0.1807697890868435
  0
SEQEND
  5
498
  8
DEFAULT
 62
     5
  0
POLYLINE
  5
499
  8
DEFAULT
 62
     5
 66
     1
 10
0.0
 20
0.0
 30
0.0
 70
     1
  0
VERTEX
  5
49A
  8
DEFAULT
 62
     5
 10
-37.17785350529149
 20
63.86049591789929
 30
0.0
 42
-0.1222574291832724
  0
VERTEX
  5
49B
  8
DEFAULT
 62
     5
 10
-36.99131799085993
 20
64.60200846373522
 30
0.0
 42
-0.1509199207835979
  0
VERTEX
  5
49C
  8
DEFAULT
 62
     5
 10
-36.46276845508272
 20
65.14926913963454
 30
0.0
 42
-0.1287246067143771
  0
VERTEX
  5
49D
  8
DEFAULT
 62
     5
 10
-35.69907230553677
 20
65.33811931581971
 30
0.0
 42
-0.2109274079128496
  0
VERTEX
  5
49E
  8
DEFAULT
 62
     5
 10
-34.63117135354334
 20
64.90987863394867
 30
0.0
 42
-0.202621263980172
  0
VERTEX
  5
49F
  8
DEFAULT
 62
     5
 10
-34.21489054232853
 20
63.82770296116237
 30
0.0
 42
-0.202229597332319
  0
VERTEX
  5
4A0
  8
DEFAULT
 62
     5
 10
-34.63522215289945
 20
62.7347242776392
 30
0.0
 42
-0.2115506096601013
  0
VERTEX
  5
4A1
  8
DEFAULT
 62
     5
 10
-35.69367136531729
 20
62.3010822787827
 30
0.0
 42
-0.1188796278362403
  0
VERTEX
  5
4A2
  8
DEFAULT
 62
     5
 10
-36.44656488089232
 20
62.48163795207761
 30
0.0
 42
-0.1582355798320481
  0
VERTEX
  5
4A3
  8
DEFAULT
 62
     5
 10
-36.99131799085994
 20
63.0111520087451
 30
0.0
 42
-0.123905326714035
  0
SEQEND
  5
4A4
  8
DEFAULT
 62
     5
  0
POLYLINE
  5
4A5
  8
DEFAULT
 62
     5
 66
     1
 10
0.0
 20
0.0
 30
0.0
 70
     1
  0
VERTEX
  5
4A6
  8
DEFAULT
 62
     5
 10
-39.62229794973594
 20
66.35046499483207
 30
0.0
  0
VERTEX
  5
4A7
  8
DEFAULT
 62
     5
 10
-39.62229794973594
 20
64.90872139726335
 30
0.0
 42
-0.3460002902828369
  0
VERTEX
  5
4A8
  8
DEFAULT
 62
     5
 10
-38.27256794965116
 20
65.23993259625512
 30
0.0
 42
-0.1329990183627741
  0
VERTEX
  5
4A9
  8
DEFAULT
 62
     5
 10
-37.95543819050823
 20
64.9889682166521
 30
0.0
  0
VERTEX
  5
4AA
  8
DEFAULT
 62
     5
 10
-37.80960489249671
 20
64.6506195630724
 30
0.0
  0
VERTEX
  5
4AB
  8
DEFAULT
 62
     5
 10
-37.77044609788409
 20
64.0750023497654
 30
0.0
  0
VERTEX
  5
4AC
  8
DEFAULT
 62
     5
 10
-37.77044609788409
 20
62.37515635285676
 30
0.0
  0
VERTEX
  5
4AD
  8
DEFAULT
 62
     5
 10
-38.53587819664952
 20
62.37515635285676
 30
0.0
  0
VERTEX
  5
4AE
  8
DEFAULT
 62
     5
 10
-38.53587819664952
 20
63.90177703523646
 30
0.0
  0
VERTEX
  5
4AF
  8
DEFAULT
 62
     5
 10
-38.57870217064513
 20
64.47874438940683
 30
0.0
  0
VERTEX
  5
4B0
  8
DEFAULT
 62
     5
 10
-38.73032240561523
 20
64.67338169093358
 30
0.0
  0
VERTEX
  5
4B1
  8
DEFAULT
 62
     5
 10
-39.00269914898203
 20
64.74552672322713
 30
0.0
 42
0.143866384454339
  0
VERTEX
  5
4B2
  8
DEFAULT
 62
     5
 10
-39.3379613357129
 20
64.65293422482604
 30
0.0
 42
0.1700128950902269
  0
VERTEX
  5
4B3
  8
DEFAULT
 62
     5
 10
-39.55381790844238
 20
64.37399911617143
 30
0.0
  0
VERTEX
  5
4B4
  8
DEFAULT
 62
     5
 10
-39.62229794973594
 20
63.82307326088913
 30
0.0
  0
VERTEX
  5
4B5
  8
DEFAULT
 62
     5
 10
-39.62229794973594
 20
62.37515635285676
 30
0.0
  0
VERTEX
  5
4B6
  8
DEFAULT
 62
     5
 10
-40.38773004850137
 20
62.37515635285676
 30
0.0
  0
VERTEX
  5
4B7
  8
DEFAULT
 62
     5
 10
-40.38773004850137
 20
66.35046499483207
 30
0.0
  0
SEQEND
  5
4B8
  8
DEFAULT
 62
     5
  0
POLYLINE
  5
4B9
  8
DEFAULT
 62
     5
 66
     1
 10
0.0
 20
0.0
 30
0.0
 70
     1
  0
VERTEX
  5
4BA
  8
DEFAULT
 62
     5
 10
-43.57291523368656
 20
64.67145264915305
 30
0.0
  0
VERTEX
  5
4BB
  8
DEFAULT
 62
     5
 10
-42.98533777295734
 20
64.67145264915305
 30
0.0
  0
VERTEX
  5
4BC
  8
DEFAULT
 62
     5
 10
-42.27121743202181
 20
64.72044974522933
 30
0.0
  0
VERTEX
  5
4BD
  8
DEFAULT
 62
     5
 10
-42.04841668564842
 20
64.88923845204606
 30
0.0
  0
VERTEX
  5
4BE
  8
DEFAULT
 62
     5
 10
-41.96797696208161
 20
65.18842831101314
 30
0.0
 42
0.3913794758406601
  0
VERTEX
  5
4BF
  8
DEFAULT
 62
     5
 10
-42.37306933096941
 20
65.67029541246772
 30
0.0
  0
VERTEX
  5
4C0
  8
DEFAULT
 62
     5
 10
-42.95293062457654
 20
65.68379832816541
 30
0.0
  0
VERTEX
  5
4C1
  8
DEFAULT
 62
     5
 10
-43.57291523368656
 20
65.68379832816541
 30
0.0
  0
SEQEND
  5
4C2
  8
DEFAULT
 62
     5
  0
POLYLINE
  5
4C3
  8
DEFAULT
 62
     5
 66
     1
 10
0.0
 20
0.0
 30
0.0
 70
     1
  0
VERTEX
  5
4C4
  8
DEFAULT
 62
     5
 10
-44.38773004850137
 20
62.37515635285676
 30
0.0
  0
VERTEX
  5
4C5
  8
DEFAULT
 62
     5
 10
-44.38773004850137
 20
66.35046499483207
 30
0.0
  0
VERTEX
  5
4C6
  8
DEFAULT
 62
     5
 10
-42.70717446939794
 20
66.35046499483207
 30
0.0
 42
-0.0816429574391919
  0
VERTEX
  5
4C7
  8
DEFAULT
 62
     5
 10
-41.78568515118423
 20
66.24321196728201
 30
0.0
 42
-0.1689196668005365
  0
VERTEX
  5
4C8
  8
DEFAULT
 62
     5
 10
-41.32580874926159
 20
65.86146043878955
 30
0.0
 42
-0.1439595890209331
  0
VERTEX
  5
4C9
  8
DEFAULT
 62
     5
 10
-41.1531621472668
 20
65.23395294350148
 30
0.0
 42
-0.1890561361375884
  0
VERTEX
  5
4CA
  8
DEFAULT
 62
     5
 10
-41.41222850234801
 20
64.49359801111684
 30
0.0
 42
-0.1790794822377471
  0
VERTEX
  5
4CB
  8
DEFAULT
 62
     5
 10
-42.1867269090989
 20
64.12554249088309
 30
0.0
  0
VERTEX
  5
4CC
  8
DEFAULT
 62
     5
 10
-41.76272993076201
 20
63.79278768170093
 30
0.0
  0
VERTEX
  5
4CD
  8
DEFAULT
 62
     5
 10
-41.31211255261989
 20
63.14907623545648
 30
0.0
  0
VERTEX
  5
4CE
  8
DEFAULT
 62
     5
 10
-40.83217449294581
 20
62.37515635285676
 30
0.0
  0
VERTEX
  5
4CF
  8
DEFAULT
 62
     5
 10
-41.78703548043059
 20
62.37515635285676
 30
0.0
  0
VERTEX
  5
4D0
  8
DEFAULT
 62
     5
 10
-42.35262186486187
 20
63.23819683541862
 30
0.0
  0
VERTEX
  5
4D1
  8
DEFAULT
 62
     5
 10
-42.77179623874746
 20
63.82017969821835
 30
0.0
  0
VERTEX
  5
4D2
  8
DEFAULT
 62
     5
 10
-43.0109936518723
 20
63.98491722891301
 30
0.0
  0
VERTEX
  5
4D3
  8
DEFAULT
 62
     5
 10
-43.41164960143087
 20
64.02947734051108
 30
0.0
  0
VERTEX
  5
4D4
  8
DEFAULT
 62
     5
 10
-43.57291523368656
 20
64.02947734051108
 30
0.0
  0
VERTEX
  5
4D5
  8
DEFAULT
 62
     5
 10
-43.57291523368656
 20
62.37515635285676
 30
0.0
  0
SEQEND
  5
4D6
  8
DEFAULT
 62
     5
  0
ENDSEC
  0
EOF
