999
dxfrw 0.6.3
  0
SECTION
  2
HEADER
  9
$ACADVER
  1
AC1021
  9
$DWGCODEPAGE
  3
ANSI_1252
  9
$INSBASE
 10
0
 20
0
 30
0
  9
$EXTMIN
 10
355.4517709039616
 20
780.3472880811424
 30
0
  9
$EXTMAX
 10
834.4995397928506
 20
800.3472880811424
 30
0
  9
$LIMMIN
 10
0
 20
0
  9
$LIMMAX
 10
1189
 20
841
  9
$ORTHOMODE
 70
    0
  9
$REGENMODE
 70
    1
  9
$FILLMODE
 70
    1
  9
$QTEXTMODE
 70
    0
  9
$MIRRTEXT
 70
    1
  9
$LTSCALE
 40
1
  9
$ATTMODE
 70
    1
  9
$TEXTSIZE
 40
2.5
  9
$TRACEWID
 40
1
  9
$TEXTSTYLE
  7
STANDARD
  9
$CLAYER
  8
0
  9
$CELTYPE
  6
BYLAYER
  9
$CECOLOR
 62
  256
  9
$CELTSCALE
 40
1
  9
$DISPSILH
 70
    0
  9
$DIMSCALE
 40
1
  9
$DIMASZ
 40
2.5
  9
$DIMEXO
 40
0.625
  9
$DIMDLI
 40
3.75
  9
$DIMRND
 40
0
  9
$DIMDLE
 40
0
  9
$DIMEXE
 40
1.25
  9
$DIMTP
 40
0
  9
$DIMTM
 40
0
  9
$DIMTXT
 40
2.5
  9
$DIMCEN
 40
2.5
  9
$DIMTSZ
 40
0
  9
$DIMTOL
 70
    0
  9
$DIMLIM
 70
    0
  9
$DIMTIH
 70
    0
  9
$DIMTOH
 70
    0
  9
$DIMSE1
 70
    0
  9
$DIMSE2
 70
    0
  9
$DIMTAD
 70
    1
  9
$DIMZIN
 70
    8
  9
$DIMBLK
  1

  9
$DIMASO
 70
    1
  9
$DIMSHO
 70
    1
  9
$DIMPOST
  1

  9
$DIMAPOST
  1

  9
$DIMALT
 70
    0
  9
$DIMALTD
 70
    3
  9
$DIMALTF
 40
0.0393700787
  9
$DIMLFAC
 40
1
  9
$DIMTOFL
 70
    1
  9
$DIMTVP
 40
0
  9
$DIMTIX
 70
    0
  9
$DIMSOXD
 70
    0
  9
$DIMSAH
 70
    0
  9
$DIMBLK1
  1

  9
$DIMBLK2
  1

  9
$DIMSTYLE
  2
ISO-25
  9
$DIMCLRD
 70
    0
  9
$DIMCLRE
 70
    0
  9
$DIMCLRT
 70
    0
  9
$DIMTFAC
 40
1
  9
$DIMGAP
 40
0.625
  9
$DIMJUST
 70
    0
  9
$DIMSD1
 70
    0
  9
$DIMSD2
 70
    0
  9
$DIMTOLJ
 70
    0
  9
$DIMTZIN
 70
    8
  9
$DIMALTZ
 70
    0
  9
$DIMALTTZ
 70
    0
  9
$DIMUPT
 70
    0
  9
$DIMDEC
 70
    2
  9
$DIMTDEC
 70
    2
  9
$DIMALTU
 70
    2
  9
$DIMALTTD
 70
    3
  9
$DIMTXSTY
  7
STANDARD
  9
$DIMAUNIT
 70
    0
  9
$DIMADEC
 70
    0
  9
$DIMALTRND
 40
0
  9
$DIMAZIN
 70
    0
  9
$DIMDSEP
 70
   44
  9
$DIMATFIT
 70
    3
  9
$DIMFRAC
 70
    0
  9
$DIMLDRBLK
  1
STANDARD
  9
$DIMLUNIT
 70
    2
  9
$DIMLWD
 70
   -2
  9
$DIMLWE
 70
   -2
  9
$DIMTMOVE
 70
    0
  9
$DIMFXL
 40
1
  9
$DIMFXLON
 70
    0
  9
$DIMJOGANG
 40
0.7854
  9
$DIMTFILL
 70
    0
  9
$DIMTFILLCLR
 70
    0
  9
$DIMARCSYM
 70
    0
  9
$DIMLTYPE
  6

  9
$DIMLTEX1
  6

  9
$DIMLTEX2
  6

  9
$LUNITS
 70
    2
  9
$LUPREC
 70
    4
  9
$SKETCHINC
 40
1
  9
$FILLETRAD
 40
10
  9
$AUNITS
 70
    0
  9
$AUPREC
 70
    0
  9
$MENU
  1
.
  9
$ELEVATION
 40
0
  9
$PELEVATION
 40
0
  9
$THICKNESS
 40
0
  9
$LIMCHECK
 70
    0
  9
$CHAMFERA
 40
10
  9
$CHAMFERB
 40
10
  9
$CHAMFERC
 40
20
  9
$CHAMFERD
 40
0
  9
$SKPOLY
 70
    0
  9
$USRTIMER
 70
    1
  9
$ANGBASE
 50
0
  9
$ANGDIR
 70
    0
  9
$PDMODE
 70
    0
  9
$PDSIZE
 40
0
  9
$PLINEWID
 40
0
  9
$SPLFRAME
 70
    0
  9
$SPLINETYPE
 70
    6
  9
$SPLINESEGS
 70
    8
  9
$HANDSEED
  5
20000
  9
$SURFTAB1
 70
    6
  9
$SURFTAB2
 70
    6
  9
$SURFTYPE
 70
    6
  9
$SURFU
 70
    6
  9
$SURFV
 70
    6
  9
$UCSBASE
  2

  9
$UCSNAME
  2

  9
$UCSORG
 10
0
 20
0
 30
0
  9
$UCSXDIR
 10
1
 20
0
 30
0
  9
$UCSYDIR
 10
0
 20
1
 30
0
  9
$UCSORTHOREF
  2

  9
$UCSORTHOVIEW
 70
    0
  9
$UCSORGTOP
 10
0
 20
0
 30
0
  9
$UCSORGBOTTOM
 10
0
 20
0
 30
0
  9
$UCSORGLEFT
 10
0
 20
0
 30
0
  9
$UCSORGRIGHT
 10
0
 20
0
 30
0
  9
$UCSORGFRONT
 10
0
 20
0
 30
0
  9
$UCSORGBACK
 10
0
 20
0
 30
0
  9
$PUCSBASE
  2

  9
$PUCSNAME
  2

  9
$PUCSORG
 10
0
 20
0
 30
0
  9
$PUCSXDIR
 10
1
 20
0
 30
0
  9
$PUCSYDIR
 10
0
 20
1
 30
0
  9
$PUCSORTHOREF
  2

  9
$PUCSORTHOVIEW
 70
    0
  9
$PUCSORGTOP
 10
0
 20
0
 30
0
  9
$PUCSORGBOTTOM
 10
0
 20
0
 30
0
  9
$PUCSORGLEFT
 10
0
 20
0
 30
0
  9
$PUCSORGRIGHT
 10
0
 20
0
 30
0
  9
$PUCSORGFRONT
 10
0
 20
0
 30
0
  9
$PUCSORGBACK
 10
0
 20
0
 30
0
  9
$USERI1
 70
    0
  9
$USERI2
 70
    0
  9
$USERI3
 70
    0
  9
$USERI4
 70
    0
  9
$USERI5
 70
    0
  9
$USERR1
 40
0
  9
$USERR2
 40
0
  9
$USERR3
 40
0
  9
$USERR4
 40
0
  9
$USERR5
 40
0
  9
$WORLDVIEW
 70
    1
  9
$SHADEDGE
 70
    3
  9
$SHADEDIF
 70
   70
  9
$TILEMODE
 70
    1
  9
$MAXACTVP
 70
   64
  9
$PINSBASE
 10
0
 20
0
 30
0
  9
$PLIMCHECK
 70
    0
  9
$PEXTMIN
 10
0
 20
0
 30
0
  9
$PEXTMAX
 10
1189
 20
841
 30
0
  9
$GRIDMODE
 70
    0
  9
$SNAPSTYLE
 70
    0
  9
$PLIMMIN
 10
0
 20
0
  9
$PLIMMAX
 10
1189
 20
841
  9
$UNITMODE
 70
    0
  9
$VISRETAIN
 70
    1
  9
$PLINEGEN
 70
    0
  9
$PSLTSCALE
 70
    1
  9
$TREEDEPTH
 70
 3020
  9
$CMLSTYLE
  2
STANDARD
  9
$CMLJUST
 70
    0
  9
$CMLSCALE
 40
20
  9
$PROXYGRAPHICS
 70
    1
  9
$MEASUREMENT
 70
    1
  9
$CELWEIGHT
370
   -1
  9
$ENDCAPS
280
    0
  9
$JOINSTYLE
280
    0
  9
$LWDISPLAY
290
    0
  9
$INSUNITS
 70
    4
  9
$HYPERLINKBASE
  1

  9
$STYLESHEET
  1

  9
$XEDIT
290
    1
  9
$CEPSNTYPE
380
    0
  9
$PSTYLEMODE
290
    1
  9
$EXTNAMES
290
    1
  9
$PSVPSCALE
 40
1
  9
$OLESTARTUP
290
    0
  9
$SORTENTS
280
  127
  9
$INDEXCTL
280
    0
  9
$HIDETEXT
280
    1
  9
$XCLIPFRAME
290
    0
  9
$HALOGAP
280
    0
  9
$OBSCOLOR
 70
  257
  9
$OBSLTYPE
280
    0
  9
$INTERSECTIONDISPLAY
280
    0
  9
$INTERSECTIONCOLOR
 70
  257
  9
$DIMASSOC
280
    1
  9
$PROJECTNAME
  1

  9
$CAMERADISPLAY
290
    0
  9
$LENSLENGTH
 40
50
  9
$CAMERAHEIGHT
 40
0
  9
$STEPSPERSEC
 40
2
  9
$STEPSIZE
 40
50
  9
$3DDWFPREC
 40
2
  9
$PSOLWIDTH
 40
5
  9
$PSOLHEIGHT
 40
80
  9
$LOFTANG1
 40
1.570796326794897
  9
$LOFTANG2
 40
1.570796326794897
  9
$LOFTMAG1
 40
0
  9
$LOFTMAG2
 40
0
  9
$LOFTPARAM
 70
    7
  9
$LOFTNORMALS
280
    1
  9
$LATITUDE
 40
1
  9
$LONGITUDE
 40
1
  9
$NORTHDIRECTION
 40
0
  9
$TIMEZONE
 70
-8000
  9
$LIGHTGLYPHDISPLAY
280
    1
  9
$TILEMODELIGHTSYNCH
280
    1
  9
$SOLIDHIST
280
    1
  9
$SHOWHIST
280
    1
  9
$DWFFRAME
280
    2
  9
$DGNFRAME
280
    0
  9
$REALWORLDSCALE
290
    1
  9
$INTERFERECOLOR
 62
    1
  9
$CSHADOW
280
    0
  9
$SHADOWPLANELOCATION
 40
0
  0
ENDSEC
  0
SECTION
  2
CLASSES
  0
ENDSEC
  0
SECTION
  2
TABLES
  0
TABLE
  2
VPORT
  5
8
330
0
100
AcDbSymbolTable
 70
    1
  0
VPORT
  5
31
330
2
100
AcDbSymbolTableRecord
100
AcDbViewportTableRecord
  2
*ACTIVE
 70
    0
 10
0
 20
0
 11
1
 21
1
 12
683.4785806437948
 22
446.4576079840633
 13
0
 23
0
 14
10
 24
10
 15
10
 25
10
 16
0
 26
0
 36
1
 17
0
 27
0
 37
0
 40
867.3741628797934
 41
1.886925795053004
 42
50
 43
0
 44
0
 50
0
 51
0
 71
    0
 72
  100
 73
    1
 74
    3
 75
    0
 76
    0
 77
    0
 78
    0
281
    0
 65
    1
110
0
120
0
130
0
111
1
121
0
131
0
112
0
122
1
132
0
 79
    0
146
0
348
10020
 60
    7
 61
    5
292
1
282
    1
141
0
142
0
 63
  250
421
3358443
  0
ENDTAB
  0
TABLE
  2
LTYPE
  5
5
330
0
100
AcDbSymbolTable
 70
    4
  0
LTYPE
  5
14
330
5
100
AcDbSymbolTableRecord
100
AcDbLinetypeTableRecord
  2
ByBlock
 70
    0
  3

 72
   65
 73
    0
 40
0
  0
LTYPE
  5
15
330
5
100
AcDbSymbolTableRecord
100
AcDbLinetypeTableRecord
  2
ByLayer
 70
    0
  3

 72
   65
 73
    0
 40
0
  0
LTYPE
  5
16
330
5
100
AcDbSymbolTableRecord
100
AcDbLinetypeTableRecord
  2
Continuous
 70
    0
  3
Solid line
 72
   65
 73
    0
 40
0
  0
LTYPE
  5
32
330
5
100
AcDbSymbolTableRecord
100
AcDbLinetypeTableRecord
  2
DOT
 70
    0
  3
Dot . . . . . . . . . . . . . . . . . . . . . .
 72
   65
 73
    2
 40
6.35
 49
0
 74
    0
 49
-6.35
 74
    0
  0
LTYPE
  5
33
330
5
100
AcDbSymbolTableRecord
100
AcDbLinetypeTableRecord
  2
DOTTINY
 70
    0
  3
Dot (.15x) .....................................
 72
   65
 73
    2
 40
0.9525
 49
0
 74
    0
 49
-0.9525
 74
    0
  0
LTYPE
  5
34
330
5
100
AcDbSymbolTableRecord
100
AcDbLinetypeTableRecord
  2
DOT2
 70
    0
  3
Dot (.5x) .....................................
 72
   65
 73
    2
 40
3.175
 49
0
 74
    0
 49
-3.175
 74
    0
  0
LTYPE
  5
35
330
5
100
AcDbSymbolTableRecord
100
AcDbLinetypeTableRecord
  2
DOTX2
 70
    0
  3
Dot (2x) .  .  .  .  .  .  .  .  .  .  .  .  .
 72
   65
 73
    2
 40
12.7
 49
0
 74
    0
 49
-12.7
 74
    0
  0
LTYPE
  5
36
330
5
100
AcDbSymbolTableRecord
100
AcDbLinetypeTableRecord
  2
DASHED
 70
    0
  3
Dashed _ _ _ _ _ _ _ _ _ _ _ _ _ _ _ _ _
 72
   65
 73
    2
 40
19.05
 49
12.7
 74
    0
 49
-6.35
 74
    0
  0
LTYPE
  5
37
330
5
100
AcDbSymbolTableRecord
100
AcDbLinetypeTableRecord
  2
DASHEDTINY
 70
    0
  3
Dashed (.15x) _ _ _ _ _ _ _ _ _ _ _ _ _ _ _ _ _
 72
   65
 73
    2
 40
2.8575
 49
1.905
 74
    0
 49
-0.9525
 74
    0
  0
LTYPE
  5
38
330
5
100
AcDbSymbolTableRecord
100
AcDbLinetypeTableRecord
  2
DASHED2
 70
    0
  3
Dashed (.5x) _ _ _ _ _ _ _ _ _ _ _ _ _ _ _ _ _
 72
   65
 73
    2
 40
9.524999999999999
 49
6.35
 74
    0
 49
-3.175
 74
    0
  0
LTYPE
  5
39
330
5
100
AcDbSymbolTableRecord
100
AcDbLinetypeTableRecord
  2
DASHEDX2
 70
    0
  3
Dashed (2x) ____  ____  ____  ____  ____  ___
 72
   65
 73
    2
 40
38.09999999999999
 49
25.4
 74
    0
 49
-12.7
 74
    0
  0
LTYPE
  5
3A
330
5
100
AcDbSymbolTableRecord
100
AcDbLinetypeTableRecord
  2
DASHDOT
 70
    0
  3
Dash dot __ . __ . __ . __ . __ . __ . __ . __
 72
   65
 73
    4
 40
25.4
 49
12.7
 74
    0
 49
-6.35
 74
    0
 49
0
 74
    0
 49
-6.35
 74
    0
  0
LTYPE
  5
3B
330
5
100
AcDbSymbolTableRecord
100
AcDbLinetypeTableRecord
  2
DASHDOTTINY
 70
    0
  3
Dash dot (.15x) _._._._._._._._._._._._._._._.
 72
   65
 73
    4
 40
3.81
 49
1.905
 74
    0
 49
-0.9525
 74
    0
 49
0
 74
    0
 49
-0.9525
 74
    0
  0
LTYPE
  5
3C
330
5
100
AcDbSymbolTableRecord
100
AcDbLinetypeTableRecord
  2
DASHDOT2
 70
    0
  3
Dash dot (.5x) _._._._._._._._._._._._._._._.
 72
   65
 73
    4
 40
12.7
 49
6.35
 74
    0
 49
-3.175
 74
    0
 49
0
 74
    0
 49
-3.175
 74
    0
  0
LTYPE
  5
3D
330
5
100
AcDbSymbolTableRecord
100
AcDbLinetypeTableRecord
  2
DASHDOTX2
 70
    0
  3
Dash dot (2x) ____  .  ____  .  ____  .  ___
 72
   65
 73
    4
 40
50.8
 49
25.4
 74
    0
 49
-12.7
 74
    0
 49
0
 74
    0
 49
-12.7
 74
    0
  0
LTYPE
  5
3E
330
5
100
AcDbSymbolTableRecord
100
AcDbLinetypeTableRecord
  2
DIVIDE
 70
    0
  3
Divide ____ . . ____ . . ____ . . ____ . . ____
 72
   65
 73
    6
 40
31.75
 49
12.7
 74
    0
 49
-6.35
 74
    0
 49
0
 74
    0
 49
-6.35
 74
    0
 49
0
 74
    0
 49
-6.35
 74
    0
  0
LTYPE
  5
3F
330
5
100
AcDbSymbolTableRecord
100
AcDbLinetypeTableRecord
  2
DIVIDETINY
 70
    0
  3
Divide (.15x) __..__..__..__..__..__..__..__.._
 72
   65
 73
    6
 40
4.7625
 49
1.905
 74
    0
 49
-0.9525
 74
    0
 49
0
 74
    0
 49
-0.9525
 74
    0
 49
0
 74
    0
 49
-0.9525
 74
    0
  0
LTYPE
  5
40
330
5
100
AcDbSymbolTableRecord
100
AcDbLinetypeTableRecord
  2
DIVIDE2
 70
    0
  3
Divide (.5x) __..__..__..__..__..__..__..__.._
 72
   65
 73
    6
 40
15.875
 49
6.35
 74
    0
 49
-3.175
 74
    0
 49
0
 74
    0
 49
-3.175
 74
    0
 49
0
 74
    0
 49
-3.175
 74
    0
  0
LTYPE
  5
41
330
5
100
AcDbSymbolTableRecord
100
AcDbLinetypeTableRecord
  2
DIVIDEX2
 70
    0
  3
Divide (2x) ________  .  .  ________  .  .  _
 72
   65
 73
    6
 40
63.5
 49
25.4
 74
    0
 49
-12.7
 74
    0
 49
0
 74
    0
 49
-12.7
 74
    0
 49
0
 74
    0
 49
-12.7
 74
    0
  0
LTYPE
  5
42
330
5
100
AcDbSymbolTableRecord
100
AcDbLinetypeTableRecord
  2
BORDER
 70
    0
  3
Border __ __ . __ __ . __ __ . __ __ . __ __ .
 72
   65
 73
    6
 40
44.45
 49
12.7
 74
    0
 49
-6.35
 74
    0
 49
12.7
 74
    0
 49
-6.35
 74
    0
 49
0
 74
    0
 49
-6.35
 74
    0
  0
LTYPE
  5
43
330
5
100
AcDbSymbolTableRecord
100
AcDbLinetypeTableRecord
  2
BORDERTINY
 70
    0
  3
Border (.15x) __.__.__.__.__.__.__.__.__.__.__.
 72
   65
 73
    6
 40
6.6675
 49
1.905
 74
    0
 49
-0.9525
 74
    0
 49
1.905
 74
    0
 49
-0.9525
 74
    0
 49
0
 74
    0
 49
-0.9525
 74
    0
  0
LTYPE
  5
44
330
5
100
AcDbSymbolTableRecord
100
AcDbLinetypeTableRecord
  2
BORDER2
 70
    0
  3
Border (.5x) __.__.__.__.__.__.__.__.__.__.__.
 72
   65
 73
    6
 40
22.225
 49
6.35
 74
    0
 49
-3.175
 74
    0
 49
6.35
 74
    0
 49
-3.175
 74
    0
 49
0
 74
    0
 49
-3.175
 74
    0
  0
LTYPE
  5
45
330
5
100
AcDbSymbolTableRecord
100
AcDbLinetypeTableRecord
  2
BORDERX2
 70
    0
  3
Border (2x) ____  ____  .  ____  ____  .  ___
 72
   65
 73
    6
 40
88.89999999999999
 49
25.4
 74
    0
 49
-12.7
 74
    0
 49
25.4
 74
    0
 49
-12.7
 74
    0
 49
0
 74
    0
 49
-12.7
 74
    0
  0
LTYPE
  5
46
330
5
100
AcDbSymbolTableRecord
100
AcDbLinetypeTableRecord
  2
CENTER
 70
    0
  3
Center ____ _ ____ _ ____ _ ____ _ ____ _ ____
 72
   65
 73
    4
 40
50.8
 49
31.75
 74
    0
 49
-6.35
 74
    0
 49
6.35
 74
    0
 49
-6.35
 74
    0
  0
LTYPE
  5
47
330
5
100
AcDbSymbolTableRecord
100
AcDbLinetypeTableRecord
  2
CENTERTINY
 70
    0
  3
Center (.15x) ___ _ ___ _ ___ _ ___ _ ___ _ ___
 72
   65
 73
    4
 40
7.62
 49
4.7625
 74
    0
 49
-0.9525
 74
    0
 49
0.9525
 74
    0
 49
-0.9525
 74
    0
  0
LTYPE
  5
48
330
5
100
AcDbSymbolTableRecord
100
AcDbLinetypeTableRecord
  2
CENTER2
 70
    0
  3
Center (.5x) ___ _ ___ _ ___ _ ___ _ ___ _ ___
 72
   65
 73
    4
 40
28.575
 49
19.05
 74
    0
 49
-3.175
 74
    0
 49
3.175
 74
    0
 49
-3.175
 74
    0
  0
LTYPE
  5
49
330
5
100
AcDbSymbolTableRecord
100
AcDbLinetypeTableRecord
  2
CENTERX2
 70
    0
  3
Center (2x) ________  __  ________  __  _____
 72
   65
 73
    4
 40
101.6
 49
63.5
 74
    0
 49
-12.7
 74
    0
 49
12.7
 74
    0
 49
-12.7
 74
    0
  0
ENDTAB
  0
TABLE
  2
LAYER
  5
2
330
0
100
AcDbSymbolTable
 70
    1
  0
LAYER
  5
10
330
2
100
AcDbSymbolTableRecord
100
AcDbLayerTableRecord
  2
0
 70
    0
 62
    7
  6
CONTINUOUS
370
   -3
390
F
  0
LAYER
  5
4A
330
2
100
AcDbSymbolTableRecord
100
AcDbLayerTableRecord
  2
1
 70
    0
 62
    7
  6
CONTINUOUS
370
   -3
390
F
  0
LAYER
  5
4B
330
2
100
AcDbSymbolTableRecord
100
AcDbLayerTableRecord
  2
10
 70
    0
 62
    7
  6
CONTINUOUS
370
   -3
390
F
  0
LAYER
  5
4C
330
2
100
AcDbSymbolTableRecord
100
AcDbLayerTableRecord
  2
2
 70
    0
 62
    7
  6
CONTINUOUS
370
   -3
390
F
  0
LAYER
  5
4D
330
2
100
AcDbSymbolTableRecord
100
AcDbLayerTableRecord
  2
3
 70
    0
 62
    7
  6
CONTINUOUS
370
   -3
390
F
  0
LAYER
  5
4E
330
2
100
AcDbSymbolTableRecord
100
AcDbLayerTableRecord
  2
4
 70
    0
 62
    7
  6
CONTINUOUS
370
   -3
390
F
  0
LAYER
  5
4F
330
2
100
AcDbSymbolTableRecord
100
AcDbLayerTableRecord
  2
5
 70
    0
 62
    7
  6
CONTINUOUS
370
   -3
390
F
  0
LAYER
  5
50
330
2
100
AcDbSymbolTableRecord
100
AcDbLayerTableRecord
  2
6
 70
    0
 62
    7
  6
CONTINUOUS
370
   -3
390
F
  0
LAYER
  5
51
330
2
100
AcDbSymbolTableRecord
100
AcDbLayerTableRecord
  2
6-2
 70
    0
 62
    7
  6
CONTINUOUS
370
   -3
390
F
  0
LAYER
  5
52
330
2
100
AcDbSymbolTableRecord
100
AcDbLayerTableRecord
  2
7
 70
    0
 62
    7
  6
CONTINUOUS
370
   -3
390
F
  0
LAYER
  5
53
330
2
100
AcDbSymbolTableRecord
100
AcDbLayerTableRecord
  2
8
 70
    0
 62
    7
  6
CONTINUOUS
370
   -3
390
F
  0
LAYER
  5
54
330
2
100
AcDbSymbolTableRecord
100
AcDbLayerTableRecord
  2
9
 70
    0
 62
    7
  6
CONTINUOUS
370
   -3
390
F
  0
LAYER
  5
55
330
2
100
AcDbSymbolTableRecord
100
AcDbLayerTableRecord
  2
DEFAULT
 70
    0
 62
    7
  6
CONTINUOUS
370
   -3
390
F
  0
ENDTAB
  0
TABLE
  2
STYLE
  5
3
330
0
100
AcDbSymbolTable
 70
    3
  0
STYLE
  5
56
330
2
100
AcDbSymbolTableRecord
100
AcDbTextStyleTableRecord
  2
romanc
 70
    0
 40
0
 41
1
 50
0
 71
    0
 42
1
  3
romanc
  4

  0
STYLE
  5
57
330
2
100
AcDbSymbolTableRecord
100
AcDbTextStyleTableRecord
  2
Standard
 70
    0
 40
0
 41
1
 50
0
 71
    0
 42
1
  3
txt
  4

  0
ENDTAB
  0
TABLE
  2
VIEW
  5
6
330
0
100
AcDbSymbolTable
 70
    0
  0
ENDTAB
  0
TABLE
  2
UCS
  5
7
330
0
100
AcDbSymbolTable
 70
    0
  0
ENDTAB
  0
TABLE
  2
APPID
  5
9
330
0
100
AcDbSymbolTable
 70
    1
  0
APPID
  5
12
330
9
100
AcDbSymbolTableRecord
100
AcDbRegAppTableRecord
  2
ACAD
 70
    0
  0
APPID
  5
58
330
9
100
AcDbSymbolTableRecord
100
AcDbRegAppTableRecord
  2
LibreCad
 70
    0
  0
ENDTAB
  0
TABLE
  2
DIMSTYLE
  5
A
330
0
100
AcDbSymbolTable
 70
    1
100
AcDbDimStyleTable
 71
    1
  0
DIMSTYLE
105
59
330
A
100
AcDbSymbolTableRecord
100
AcDbDimStyleTableRecord
  2
Standard
 70
    0
 40
1
 41
2.5
 42
0.625
 43
0.38
 44
1.25
 45
0
 46
0
 47
0
 48
0
 49
1
140
2.5
141
0.09
142
0
143
25.4
144
1
145
0
146
1
147
0.625
148
0
 71
    0
 72
    0
 73
    0
 74
    1
 75
    0
 76
    0
 77
    0
 78
    8
 79
    0
170
    0
171
    2
172
    0
173
    0
174
    0
175
    0
176
    0
177
    0
178
    0
179
    0
271
    2
272
    4
273
    2
274
    2
275
    0
276
    0
277
    2
278
    0
279
    0
280
    0
281
    0
282
    0
283
    1
284
    0
285
    0
286
    0
288
    0
289
    3
340
STANDARD
341

371
   -2
372
   -2
  0
ENDTAB
  0
TABLE
  2
BLOCK_RECORD
  5
1
330
0
100
AcDbSymbolTable
 70
    2
  0
BLOCK_RECORD
  5
1F
330
1
100
AcDbSymbolTableRecord
100
AcDbBlockTableRecord
  2
*Model_Space
 70
    0
280
    1
281
    0
  0
BLOCK_RECORD
  5
1E
330
1
100
AcDbSymbolTableRecord
100
AcDbBlockTableRecord
  2
*Paper_Space
 70
    0
280
    1
281
    0
  0
BLOCK_RECORD
  5
5A
330
1
100
AcDbSymbolTableRecord
100
AcDbBlockTableRecord
  2
SE
 70
    0
280
    1
281
    0
  0
BLOCK_RECORD
  5
5D
330
1
100
AcDbSymbolTableRecord
100
AcDbBlockTableRecord
  2
SE1
 70
    0
280
    1
281
    0
  0
BLOCK_RECORD
  5
60
330
1
100
AcDbSymbolTableRecord
100
AcDbBlockTableRecord
  2
SE2
 70
    0
280
    1
281
    0
  0
BLOCK_RECORD
  5
63
330
1
100
AcDbSymbolTableRecord
100
AcDbBlockTableRecord
  2
SE3
 70
    0
280
    1
281
    0
  0
BLOCK_RECORD
  5
66
330
1
100
AcDbSymbolTableRecord
100
AcDbBlockTableRecord
  2
SE4
 70
    0
280
    1
281
    0
  0
BLOCK_RECORD
  5
69
330
1
100
AcDbSymbolTableRecord
100
AcDbBlockTableRecord
  2
SE5
 70
    0
280
    1
281
    0
  0
BLOCK_RECORD
  5
6C
330
1
100
AcDbSymbolTableRecord
100
AcDbBlockTableRecord
  2
SE6
 70
    0
280
    1
281
    0
  0
BLOCK_RECORD
  5
6F
330
1
100
AcDbSymbolTableRecord
100
AcDbBlockTableRecord
  2
SE7
 70
    0
280
    1
281
    0
  0
BLOCK_RECORD
  5
72
330
1
100
AcDbSymbolTableRecord
100
AcDbBlockTableRecord
  2
SE8
 70
    0
280
    1
281
    0
  0
BLOCK_RECORD
  5
75
330
1
100
AcDbSymbolTableRecord
100
AcDbBlockTableRecord
  2
SE9
 70
    0
280
    1
281
    0
  0
BLOCK_RECORD
  5
78
330
1
100
AcDbSymbolTableRecord
100
AcDbBlockTableRecord
  2
SE10
 70
    0
280
    1
281
    0
  0
ENDTAB
  0
ENDSEC
  0
SECTION
  2
BLOCKS
  0
BLOCK
  5
20
330
1F
100
AcDbEntity
  8
0
100
AcDbBlockBegin
  2
*Model_Space
 70
    0
 10
0
 20
0
 30
0
  3
*Model_Space
  1

  0
ENDBLK
  5
21
330
1F
100
AcDbEntity
  8
0
100
AcDbBlockEnd
  0
BLOCK
  5
1C
330
1B
100
AcDbEntity
  8
0
100
AcDbBlockBegin
  2
*Paper_Space
 70
    0
 10
0
 20
0
 30
0
  3
*Paper_Space
  1

  0
ENDBLK
  5
1D
330
1F
100
AcDbEntity
  8
0
100
AcDbBlockEnd
  0
BLOCK
  5
5B
330
5A
100
AcDbEntity
  8
0
100
AcDbBlockBegin
  2
SE
 70
    0
 10
0
 20
0
  3
SE
  1

  0
LINE
  5
7B
100
AcDbEntity
  8
1
  6
CONTINUOUS
 62
    7
370
   -1
100
AcDbLine
 10
28.7906521179
 20
633.9502411981
 11
57.2906521179
 21
633.9502411981
  0
LINE
  5
7C
100
AcDbEntity
  8
1
  6
CONTINUOUS
 62
    7
370
   -1
100
AcDbLine
 10
428.7906521179
 20
633.9502411981
 11
428.7906521179
 21
690.9502411981
  0
LINE
  5
7D
100
AcDbEntity
  8
1
  6
CONTINUOUS
 62
    7
370
   -1
100
AcDbLine
 10
282.7906521179
 20
814.9502411981
 11
274.2906521179
 21
814.9502411981
  0
LINE
  5
7E
100
AcDbEntity
  8
1
  6
CONTINUOUS
 62
    7
370
   -1
100
AcDbLine
 10
261.2906521179
 20
814.9502411981
 11
248.2906521179
 21
814.9502411981
  0
LINE
  5
7F
100
AcDbEntity
  8
1
  6
CONTINUOUS
 62
    7
370
   -1
100
AcDbLine
 10
235.2906521179
 20
814.9502411981
 11
222.2906521179
 21
814.9502411981
  0
LINE
  5
80
100
AcDbEntity
  8
1
  6
CONTINUOUS
 62
    7
370
   -1
100
AcDbLine
 10
209.2906521179
 20
814.9502411981
 11
196.2906521179
 21
814.9502411981
  0
LINE
  5
81
100
AcDbEntity
  8
1
  6
CONTINUOUS
 62
    7
370
   -1
100
AcDbLine
 10
183.2906521179
 20
814.9502411981
 11
174.7906521179
 21
814.9502411981
  0
LINE
  5
82
100
AcDbEntity
  8
1
  6
CONTINUOUS
 62
    7
370
   -1
100
AcDbLine
 10
28.7906521179
 20
690.9502411981
 11
28.7906521179
 21
633.9502411981
  0
LINE
  5
83
100
AcDbEntity
  8
1
  6
CONTINUOUS
 62
    7
370
   -1
100
AcDbLine
 10
419.2906521179
 20
700.4502411981
 11
428.7906521179
 21
690.9502411981
  0
LINE
  5
84
100
AcDbEntity
  8
1
  6
CONTINUOUS
 62
    7
370
   -1
100
AcDbLine
 10
282.7906521179
 20
814.9502411981
 11
282.7906521179
 21
792.9502411981
  0
LINE
  5
85
100
AcDbEntity
  8
1
  6
CONTINUOUS
 62
    7
370
   -1
100
AcDbLine
 10
282.7906521179
 20
792.9502411981
 11
278.5006521179
 21
776.9502411981
  0
LINE
  5
86
100
AcDbEntity
  8
1
  6
CONTINUOUS
 62
    7
370
   -1
100
AcDbLine
 10
278.5006521179
 20
776.9502411981
 11
282.7850265229
 21
760.9502411981
  0
LINE
  5
87
100
AcDbEntity
  8
1
  6
CONTINUOUS
 62
    7
370
   -1
100
AcDbLine
 10
282.7850265229
 20
760.9502411981
 11
293.2906521179
 21
760.9502411981
  0
LINE
  5
88
100
AcDbEntity
  8
1
  6
CONTINUOUS
 62
    7
370
   -1
100
AcDbLine
 10
293.2906521179
 20
760.9502411981
 11
293.2906521179
 21
747.9502411981
  0
LINE
  5
89
100
AcDbEntity
  8
1
  6
CONTINUOUS
 62
    7
370
   -1
100
AcDbLine
 10
293.2906521179
 20
747.9502411981
 11
306.2906521179
 21
747.9502411981
  0
LINE
  5
8A
100
AcDbEntity
  8
1
  6
CONTINUOUS
 62
    7
370
   -1
100
AcDbLine
 10
306.2906521179
 20
747.9502411981
 11
306.2906521179
 21
760.9502411981
  0
LINE
  5
8B
100
AcDbEntity
  8
1
  6
CONTINUOUS
 62
    7
370
   -1
100
AcDbLine
 10
306.2906521179
 20
760.9502411981
 11
319.2906521179
 21
760.9502411981
  0
LINE
  5
8C
100
AcDbEntity
  8
1
  6
CONTINUOUS
 62
    7
370
   -1
100
AcDbLine
 10
319.2906521179
 20
760.9502411981
 11
319.2906521179
 21
747.9502411981
  0
LINE
  5
8D
100
AcDbEntity
  8
1
  6
CONTINUOUS
 62
    7
370
   -1
100
AcDbLine
 10
319.2906521179
 20
747.9502411981
 11
332.2906521179
 21
747.9502411981
  0
LINE
  5
8E
100
AcDbEntity
  8
1
  6
CONTINUOUS
 62
    7
370
   -1
100
AcDbLine
 10
332.2906521179
 20
747.9502411981
 11
332.2906521179
 21
760.9502411981
  0
LINE
  5
8F
100
AcDbEntity
  8
1
  6
CONTINUOUS
 62
    7
370
   -1
100
AcDbLine
 10
332.2906521179
 20
760.9502411981
 11
345.2906521179
 21
760.9502411981
  0
LINE
  5
90
100
AcDbEntity
  8
1
  6
CONTINUOUS
 62
    7
370
   -1
100
AcDbLine
 10
345.2906521179
 20
760.9502411981
 11
345.2906521179
 21
747.9502411981
  0
LINE
  5
91
100
AcDbEntity
  8
1
  6
CONTINUOUS
 62
    7
370
   -1
100
AcDbLine
 10
345.2906521179
 20
747.9502411981
 11
358.2906521179
 21
747.9502411981
  0
LINE
  5
92
100
AcDbEntity
  8
1
  6
CONTINUOUS
 62
    7
370
   -1
100
AcDbLine
 10
358.2906521179
 20
747.9502411981
 11
358.2906521179
 21
760.9502411981
  0
LINE
  5
93
100
AcDbEntity
  8
1
  6
CONTINUOUS
 62
    7
370
   -1
100
AcDbLine
 10
358.2906521179
 20
760.9502411981
 11
371.2906521179
 21
760.9502411981
  0
LINE
  5
94
100
AcDbEntity
  8
1
  6
CONTINUOUS
 62
    7
370
   -1
100
AcDbLine
 10
371.2906521179
 20
760.9502411981
 11
371.2906521179
 21
747.9502411981
  0
LINE
  5
95
100
AcDbEntity
  8
1
  6
CONTINUOUS
 62
    7
370
   -1
100
AcDbLine
 10
371.2906521179
 20
747.9502411981
 11
384.2906521179
 21
747.9502411981
  0
LINE
  5
96
100
AcDbEntity
  8
1
  6
CONTINUOUS
 62
    7
370
   -1
100
AcDbLine
 10
384.2906521179
 20
747.9502411981
 11
384.2906521179
 21
760.9502411981
  0
LINE
  5
97
100
AcDbEntity
  8
1
  6
CONTINUOUS
 62
    7
370
   -1
100
AcDbLine
 10
384.2906521179
 20
760.9502411981
 11
419.2906521179
 21
760.9502411981
  0
LINE
  5
98
100
AcDbEntity
  8
1
  6
CONTINUOUS
 62
    7
370
   -1
100
AcDbLine
 10
419.2906521179
 20
760.9502411981
 11
419.2906521179
 21
700.4502411981
  0
LINE
  5
99
100
AcDbEntity
  8
1
  6
CONTINUOUS
 62
    7
370
   -1
100
AcDbLine
 10
274.2906521179
 20
801.9502411981
 11
274.2906521179
 21
814.9502411981
  0
LINE
  5
9A
100
AcDbEntity
  8
1
  6
CONTINUOUS
 62
    7
370
   -1
100
AcDbLine
 10
261.2906521179
 20
814.9502411981
 11
261.2906521179
 21
801.9502411981
  0
LINE
  5
9B
100
AcDbEntity
  8
1
  6
CONTINUOUS
 62
    7
370
   -1
100
AcDbLine
 10
261.2906521179
 20
801.9502411981
 11
263.7906521179
 21
801.9502411981
  0
LINE
  5
9C
100
AcDbEntity
  8
1
  6
CONTINUOUS
 62
    7
370
   -1
100
AcDbLine
 10
248.2906521179
 20
801.9502411981
 11
248.2906521179
 21
814.9502411981
  0
LINE
  5
9D
100
AcDbEntity
  8
1
  6
CONTINUOUS
 62
    7
370
   -1
100
AcDbLine
 10
235.2906521179
 20
814.9502411981
 11
235.2906521179
 21
801.9502411981
  0
LINE
  5
9E
100
AcDbEntity
  8
1
  6
CONTINUOUS
 62
    7
370
   -1
100
AcDbLine
 10
235.2906521179
 20
801.9502411981
 11
248.2906521179
 21
801.9502411981
  0
LINE
  5
9F
100
AcDbEntity
  8
1
  6
CONTINUOUS
 62
    7
370
   -1
100
AcDbLine
 10
222.2906521179
 20
801.9502411981
 11
222.2906521179
 21
814.9502411981
  0
LINE
  5
A0
100
AcDbEntity
  8
1
  6
CONTINUOUS
 62
    7
370
   -1
100
AcDbLine
 10
209.2906521179
 20
814.9502411981
 11
209.2906521179
 21
801.9502411981
  0
LINE
  5
A1
100
AcDbEntity
  8
1
  6
CONTINUOUS
 62
    7
370
   -1
100
AcDbLine
 10
209.2906521179
 20
801.9502411981
 11
222.2906521179
 21
801.9502411981
  0
LINE
  5
A2
100
AcDbEntity
  8
1
  6
CONTINUOUS
 62
    7
370
   -1
100
AcDbLine
 10
196.2906521179
 20
801.9502411981
 11
196.2906521179
 21
814.9502411981
  0
LINE
  5
A3
100
AcDbEntity
  8
1
  6
CONTINUOUS
 62
    7
370
   -1
100
AcDbLine
 10
183.2906521179
 20
814.9502411981
 11
183.2906521179
 21
801.9502411981
  0
LINE
  5
A4
100
AcDbEntity
  8
1
  6
CONTINUOUS
 62
    7
370
   -1
100
AcDbLine
 10
183.2906521179
 20
801.9502411981
 11
188.7906521179
 21
801.9502411981
  0
LINE
  5
A5
100
AcDbEntity
  8
1
  6
CONTINUOUS
 62
    7
370
   -1
100
AcDbLine
 10
174.7906521179
 20
792.9502411981
 11
174.7906521179
 21
814.9502411981
  0
LINE
  5
A6
100
AcDbEntity
  8
1
  6
CONTINUOUS
 62
    7
370
   -1
100
AcDbLine
 10
28.7906521179
 20
690.9502411981
 11
38.2906521179
 21
700.4502411981
  0
LINE
  5
A7
100
AcDbEntity
  8
1
  6
CONTINUOUS
 62
    7
370
   -1
100
AcDbLine
 10
38.2906521179
 20
700.4502411981
 11
38.2906521179
 21
760.9502411981
  0
LINE
  5
A8
100
AcDbEntity
  8
1
  6
CONTINUOUS
 62
    7
370
   -1
100
AcDbLine
 10
38.2906521179
 20
760.9502411981
 11
73.2906521179
 21
760.9502411981
  0
LINE
  5
A9
100
AcDbEntity
  8
1
  6
CONTINUOUS
 62
    7
370
   -1
100
AcDbLine
 10
73.2906521179
 20
760.9502411981
 11
73.2906521179
 21
747.9502411981
  0
LINE
  5
AA
100
AcDbEntity
  8
1
  6
CONTINUOUS
 62
    7
370
   -1
100
AcDbLine
 10
73.2906521179
 20
747.9502411981
 11
86.2906521179
 21
747.9502411981
  0
LINE
  5
AB
100
AcDbEntity
  8
1
  6
CONTINUOUS
 62
    7
370
   -1
100
AcDbLine
 10
86.2906521179
 20
747.9502411981
 11
86.2906521179
 21
760.9502411981
  0
LINE
  5
AC
100
AcDbEntity
  8
1
  6
CONTINUOUS
 62
    7
370
   -1
100
AcDbLine
 10
86.2906521179
 20
760.9502411981
 11
99.2906521179
 21
760.9502411981
  0
LINE
  5
AD
100
AcDbEntity
  8
1
  6
CONTINUOUS
 62
    7
370
   -1
100
AcDbLine
 10
99.2906521179
 20
760.9502411981
 11
99.2906521179
 21
747.9502411981
  0
LINE
  5
AE
100
AcDbEntity
  8
1
  6
CONTINUOUS
 62
    7
370
   -1
100
AcDbLine
 10
99.2906521179
 20
747.9502411981
 11
112.2906521179
 21
747.9502411981
  0
LINE
  5
AF
100
AcDbEntity
  8
1
  6
CONTINUOUS
 62
    7
370
   -1
100
AcDbLine
 10
112.2906521179
 20
747.9502411981
 11
112.2906521179
 21
760.9502411981
  0
LINE
  5
B0
100
AcDbEntity
  8
1
  6
CONTINUOUS
 62
    7
370
   -1
100
AcDbLine
 10
112.2906521179
 20
760.9502411981
 11
125.2906521179
 21
760.9502411981
  0
LINE
  5
B1
100
AcDbEntity
  8
1
  6
CONTINUOUS
 62
    7
370
   -1
100
AcDbLine
 10
125.2906521179
 20
760.9502411981
 11
125.2906521179
 21
747.9502411981
  0
LINE
  5
B2
100
AcDbEntity
  8
1
  6
CONTINUOUS
 62
    7
370
   -1
100
AcDbLine
 10
125.2906521179
 20
747.9502411981
 11
138.2906521179
 21
747.9502411981
  0
LINE
  5
B3
100
AcDbEntity
  8
1
  6
CONTINUOUS
 62
    7
370
   -1
100
AcDbLine
 10
138.2906521179
 20
747.9502411981
 11
138.2906521179
 21
760.9502411981
  0
LINE
  5
B4
100
AcDbEntity
  8
1
  6
CONTINUOUS
 62
    7
370
   -1
100
AcDbLine
 10
138.2906521179
 20
760.9502411981
 11
151.2906521179
 21
760.9502411981
  0
LINE
  5
B5
100
AcDbEntity
  8
1
  6
CONTINUOUS
 62
    7
370
   -1
100
AcDbLine
 10
151.2906521179
 20
760.9502411981
 11
151.2906521179
 21
747.9502411981
  0
LINE
  5
B6
100
AcDbEntity
  8
1
  6
CONTINUOUS
 62
    7
370
   -1
100
AcDbLine
 10
151.2906521179
 20
747.9502411981
 11
164.2906521179
 21
747.9502411981
  0
LINE
  5
B7
100
AcDbEntity
  8
1
  6
CONTINUOUS
 62
    7
370
   -1
100
AcDbLine
 10
164.2906521179
 20
747.9502411981
 11
164.2906521179
 21
760.9502411981
  0
LINE
  5
B8
100
AcDbEntity
  8
1
  6
CONTINUOUS
 62
    7
370
   -1
100
AcDbLine
 10
164.2906521179
 20
760.9502411981
 11
174.7906521179
 21
760.9502411981
  0
LINE
  5
B9
100
AcDbEntity
  8
1
  6
CONTINUOUS
 62
    7
370
   -1
100
AcDbLine
 10
174.7906521179
 20
760.9502411981
 11
179.0778391968
 21
776.9502411981
  0
LINE
  5
BA
100
AcDbEntity
  8
1
  6
CONTINUOUS
 62
    7
370
   -1
100
AcDbLine
 10
179.0778391968
 20
776.9502411981
 11
174.7906521179
 21
792.9502411981
  0
LINE
  5
BB
100
AcDbEntity
  8
1
  6
CONTINUOUS
 62
    7
370
   -1
100
AcDbLine
 10
268.7906521179
 20
801.9502411981
 11
274.2906521179
 21
801.9502411981
  0
LINE
  5
BC
100
AcDbEntity
  8
1
  6
CONTINUOUS
 62
    7
370
   -1
100
AcDbLine
 10
268.7906521179
 20
741.9502411981
 11
263.7906521179
 21
741.9502411981
  0
LINE
  5
BD
100
AcDbEntity
  8
1
  6
CONTINUOUS
 62
    7
370
   -1
100
AcDbLine
 10
263.7906521179
 20
741.9502411981
 11
263.7906521179
 21
801.9502411981
  0
LINE
  5
BE
100
AcDbEntity
  8
1
  6
CONTINUOUS
 62
    7
370
   -1
100
AcDbLine
 10
268.7906521179
 20
801.9502411981
 11
268.7906521179
 21
741.9502411981
  0
LINE
  5
BF
100
AcDbEntity
  8
1
  6
CONTINUOUS
 62
    7
370
   -1
100
AcDbLine
 10
62.2906521179
 20
633.9502411981
 11
395.2906521179
 21
633.9502411981
  0
LINE
  5
C0
100
AcDbEntity
  8
1
  6
CONTINUOUS
 62
    7
370
   -1
100
AcDbLine
 10
57.2906521179
 20
697.4502411981
 11
57.2906521179
 21
633.9502411981
  0
LINE
  5
C1
100
AcDbEntity
  8
1
  6
CONTINUOUS
 62
    7
370
   -1
100
AcDbLine
 10
62.2906521179
 20
633.9502411981
 11
62.2906521179
 21
697.4502411981
  0
LINE
  5
C2
100
AcDbEntity
  8
1
  6
CONTINUOUS
 62
    7
370
   -1
100
AcDbLine
 10
62.2906521179
 20
697.4502411981
 11
57.2906521179
 21
697.4502411981
  0
LINE
  5
C3
100
AcDbEntity
  8
1
  6
CONTINUOUS
 62
    7
370
   -1
100
AcDbLine
 10
400.2906521179
 20
633.9502411981
 11
428.7906521179
 21
633.9502411981
  0
LINE
  5
C4
100
AcDbEntity
  8
1
  6
CONTINUOUS
 62
    7
370
   -1
100
AcDbLine
 10
395.2906521179
 20
697.4502411981
 11
395.2906521179
 21
633.9502411981
  0
LINE
  5
C5
100
AcDbEntity
  8
1
  6
CONTINUOUS
 62
    7
370
   -1
100
AcDbLine
 10
400.2906521179
 20
633.9502411981
 11
400.2906521179
 21
697.4502411981
  0
LINE
  5
C6
100
AcDbEntity
  8
1
  6
CONTINUOUS
 62
    7
370
   -1
100
AcDbLine
 10
400.2906521179
 20
697.4502411981
 11
395.2906521179
 21
697.4502411981
  0
LINE
  5
C7
100
AcDbEntity
  8
1
  6
CONTINUOUS
 62
    7
370
   -1
100
AcDbLine
 10
193.7906521179
 20
801.9502411981
 11
196.2906521179
 21
801.9502411981
  0
LINE
  5
C8
100
AcDbEntity
  8
1
  6
CONTINUOUS
 62
    7
370
   -1
100
AcDbLine
 10
193.7906521179
 20
741.9502411981
 11
188.7906521179
 21
741.9502411981
  0
LINE
  5
C9
100
AcDbEntity
  8
1
  6
CONTINUOUS
 62
    7
370
   -1
100
AcDbLine
 10
188.7906521179
 20
741.9502411981
 11
188.7906521179
 21
801.9502411981
  0
LINE
  5
CA
100
AcDbEntity
  8
1
  6
CONTINUOUS
 62
    7
370
   -1
100
AcDbLine
 10
193.7906521179
 20
801.9502411981
 11
193.7906521179
 21
741.9502411981
  0
LINE
  5
CB
100
AcDbEntity
  8
1
  6
CONTINUOUS
 62
    7
370
   -1
100
AcDbLine
 10
212.7906521179
 20
746.9502411981
 11
212.7906521179
 21
700.9502411981
  0
LINE
  5
CC
100
AcDbEntity
  8
1
  6
CONTINUOUS
 62
    7
370
   -1
100
AcDbLine
 10
212.7906521179
 20
700.9502411981
 11
244.7906521179
 21
700.9502411981
  0
LINE
  5
CD
100
AcDbEntity
  8
1
  6
CONTINUOUS
 62
    7
370
   -1
100
AcDbLine
 10
244.7906521179
 20
700.9502411981
 11
244.7906521179
 21
746.9502411981
  0
ARC
  5
CE
100
AcDbEntity
  8
1
  6
CONTINUOUS
 62
    7
370
   -1
100
AcDbCircle
 10
228.7906521179
 20
746.9502411981
 40
16
100
AcDbArc
 50
0
 51
180
  0
CIRCLE
  5
CF
100
AcDbEntity
  8
1
  6
CONTINUOUS
 62
    7
370
   -1
100
AcDbCircle
 10
200.7906521179
 20
789.4502411981
 40
1.5
  0
CIRCLE
  5
D0
100
AcDbEntity
  8
1
  6
CONTINUOUS
 62
    7
370
   -1
100
AcDbCircle
 10
256.7906521179
 20
789.4502411981
 40
1.5
  0
ENDBLK
  5
5C
330
5A
100
AcDbEntity
  8
0
100
AcDbBlockEnd
  0
BLOCK
  5
5E
330
5D
100
AcDbEntity
  8
0
100
AcDbBlockBegin
  2
SE1
 70
    0
 10
0
 20
0
  3
SE1
  1

  0
LINE
  5
D1
100
AcDbEntity
  8
3
  6
CONTINUOUS
 62
    7
370
   -1
100
AcDbLine
 10
445.7165307503
 20
634.8308401017
 11
845.7165307503
 21
634.8308401017
  0
LINE
  5
D2
100
AcDbEntity
  8
3
  6
CONTINUOUS
 62
    7
370
   -1
100
AcDbLine
 10
845.7165307503
 20
634.8308401017
 11
845.7165307503
 21
691.8308401017
  0
LINE
  5
D3
100
AcDbEntity
  8
3
  6
CONTINUOUS
 62
    7
370
   -1
100
AcDbLine
 10
836.2165307503
 20
761.8308401017
 11
817.2165307503
 21
761.8308401017
  0
LINE
  5
D4
100
AcDbEntity
  8
3
  6
CONTINUOUS
 62
    7
370
   -1
100
AcDbLine
 10
812.2165307503
 20
761.8308401017
 11
752.2165307503
 21
761.8308401017
  0
LINE
  5
D5
100
AcDbEntity
  8
3
  6
CONTINUOUS
 62
    7
370
   -1
100
AcDbLine
 10
698.2165307503
 20
761.8308401017
 11
685.2165307503
 21
761.8308401017
  0
LINE
  5
D6
100
AcDbEntity
  8
3
  6
CONTINUOUS
 62
    7
370
   -1
100
AcDbLine
 10
672.2165307503
 20
761.8308401017
 11
659.2165307503
 21
761.8308401017
  0
LINE
  5
D7
100
AcDbEntity
  8
3
  6
CONTINUOUS
 62
    7
370
   -1
100
AcDbLine
 10
646.2165307503
 20
761.8308401017
 11
633.2165307503
 21
761.8308401017
  0
LINE
  5
D8
100
AcDbEntity
  8
3
  6
CONTINUOUS
 62
    7
370
   -1
100
AcDbLine
 10
620.2165307503
 20
761.8308401017
 11
607.2165307503
 21
761.8308401017
  0
LINE
  5
D9
100
AcDbEntity
  8
3
  6
CONTINUOUS
 62
    7
370
   -1
100
AcDbLine
 10
594.2165307503
 20
761.8308401017
 11
581.2165307503
 21
761.8308401017
  0
LINE
  5
DA
100
AcDbEntity
  8
3
  6
CONTINUOUS
 62
    7
370
   -1
100
AcDbLine
 10
568.2165307503
 20
761.8308401017
 11
555.2165307503
 21
761.8308401017
  0
LINE
  5
DB
100
AcDbEntity
  8
3
  6
CONTINUOUS
 62
    7
370
   -1
100
AcDbLine
 10
542.2165307503
 20
761.8308401017
 11
529.2165307503
 21
761.8308401017
  0
LINE
  5
DC
100
AcDbEntity
  8
3
  6
CONTINUOUS
 62
    7
370
   -1
100
AcDbLine
 10
516.2165307503
 20
761.8308401017
 11
503.2165307503
 21
761.8308401017
  0
LINE
  5
DD
100
AcDbEntity
  8
3
  6
CONTINUOUS
 62
    7
370
   -1
100
AcDbLine
 10
490.2165307503
 20
761.8308401017
 11
479.2165307503
 21
761.8308401017
  0
LINE
  5
DE
100
AcDbEntity
  8
3
  6
CONTINUOUS
 62
    7
370
   -1
100
AcDbLine
 10
474.2165307503
 20
761.8308401017
 11
455.2165307503
 21
761.8308401017
  0
LINE
  5
DF
100
AcDbEntity
  8
3
  6
CONTINUOUS
 62
    7
370
   -1
100
AcDbLine
 10
445.7165307503
 20
691.8308401017
 11
445.7165307503
 21
634.8308401017
  0
LINE
  5
E0
100
AcDbEntity
  8
3
  6
CONTINUOUS
 62
    7
370
   -1
100
AcDbLine
 10
474.2165307503
 20
761.8308401017
 11
474.2165307503
 21
698.3308401017
  0
LINE
  5
E1
100
AcDbEntity
  8
3
  6
CONTINUOUS
 62
    7
370
   -1
100
AcDbLine
 10
474.2165307503
 20
698.3308401017
 11
479.2165307503
 21
698.3308401017
  0
LINE
  5
E2
100
AcDbEntity
  8
3
  6
CONTINUOUS
 62
    7
370
   -1
100
AcDbLine
 10
479.2165307503
 20
698.3308401017
 11
479.2165307503
 21
761.8308401017
  0
LINE
  5
E3
100
AcDbEntity
  8
3
  6
CONTINUOUS
 62
    7
370
   -1
100
AcDbLine
 10
490.2165307503
 20
761.8308401017
 11
490.2165307503
 21
748.8308401017
  0
LINE
  5
E4
100
AcDbEntity
  8
3
  6
CONTINUOUS
 62
    7
370
   -1
100
AcDbLine
 10
490.2165307503
 20
748.8308401017
 11
503.2165307503
 21
748.8308401017
  0
LINE
  5
E5
100
AcDbEntity
  8
3
  6
CONTINUOUS
 62
    7
370
   -1
100
AcDbLine
 10
503.2165307503
 20
748.8308401017
 11
503.2165307503
 21
761.8308401017
  0
LINE
  5
E6
100
AcDbEntity
  8
3
  6
CONTINUOUS
 62
    7
370
   -1
100
AcDbLine
 10
516.2165307503
 20
761.8308401017
 11
516.2165307503
 21
748.8308401017
  0
LINE
  5
E7
100
AcDbEntity
  8
3
  6
CONTINUOUS
 62
    7
370
   -1
100
AcDbLine
 10
516.2165307503
 20
748.8308401017
 11
529.2165307503
 21
748.8308401017
  0
LINE
  5
E8
100
AcDbEntity
  8
3
  6
CONTINUOUS
 62
    7
370
   -1
100
AcDbLine
 10
529.2165307503
 20
748.8308401017
 11
529.2165307503
 21
761.8308401017
  0
LINE
  5
E9
100
AcDbEntity
  8
3
  6
CONTINUOUS
 62
    7
370
   -1
100
AcDbLine
 10
542.2165307503
 20
761.8308401017
 11
542.2165307503
 21
748.8308401017
  0
LINE
  5
EA
100
AcDbEntity
  8
3
  6
CONTINUOUS
 62
    7
370
   -1
100
AcDbLine
 10
542.2165307503
 20
748.8308401017
 11
555.2165307503
 21
748.8308401017
  0
LINE
  5
EB
100
AcDbEntity
  8
3
  6
CONTINUOUS
 62
    7
370
   -1
100
AcDbLine
 10
555.2165307503
 20
748.8308401017
 11
555.2165307503
 21
761.8308401017
  0
LINE
  5
EC
100
AcDbEntity
  8
3
  6
CONTINUOUS
 62
    7
370
   -1
100
AcDbLine
 10
568.2165307503
 20
761.8308401017
 11
568.2165307503
 21
748.8308401017
  0
LINE
  5
ED
100
AcDbEntity
  8
3
  6
CONTINUOUS
 62
    7
370
   -1
100
AcDbLine
 10
568.2165307503
 20
748.8308401017
 11
581.2165307503
 21
748.8308401017
  0
LINE
  5
EE
100
AcDbEntity
  8
3
  6
CONTINUOUS
 62
    7
370
   -1
100
AcDbLine
 10
581.2165307503
 20
748.8308401017
 11
581.2165307503
 21
761.8308401017
  0
LINE
  5
EF
100
AcDbEntity
  8
3
  6
CONTINUOUS
 62
    7
370
   -1
100
AcDbLine
 10
594.2165307503
 20
761.8308401017
 11
594.2165307503
 21
748.8308401017
  0
LINE
  5
F0
100
AcDbEntity
  8
3
  6
CONTINUOUS
 62
    7
370
   -1
100
AcDbLine
 10
594.2165307503
 20
748.8308401017
 11
607.2165307503
 21
748.8308401017
  0
LINE
  5
F1
100
AcDbEntity
  8
3
  6
CONTINUOUS
 62
    7
370
   -1
100
AcDbLine
 10
607.2165307503
 20
748.8308401017
 11
607.2165307503
 21
761.8308401017
  0
LINE
  5
F2
100
AcDbEntity
  8
3
  6
CONTINUOUS
 62
    7
370
   -1
100
AcDbLine
 10
620.2165307503
 20
761.8308401017
 11
620.2165307503
 21
748.8308401017
  0
LINE
  5
F3
100
AcDbEntity
  8
3
  6
CONTINUOUS
 62
    7
370
   -1
100
AcDbLine
 10
620.2165307503
 20
748.8308401017
 11
633.2165307503
 21
748.8308401017
  0
LINE
  5
F4
100
AcDbEntity
  8
3
  6
CONTINUOUS
 62
    7
370
   -1
100
AcDbLine
 10
633.2165307503
 20
748.8308401017
 11
633.2165307503
 21
761.8308401017
  0
LINE
  5
F5
100
AcDbEntity
  8
3
  6
CONTINUOUS
 62
    7
370
   -1
100
AcDbLine
 10
646.2165307503
 20
761.8308401017
 11
646.2165307503
 21
748.8308401017
  0
LINE
  5
F6
100
AcDbEntity
  8
3
  6
CONTINUOUS
 62
    7
370
   -1
100
AcDbLine
 10
646.2165307503
 20
748.8308401017
 11
659.2165307503
 21
748.8308401017
  0
LINE
  5
F7
100
AcDbEntity
  8
3
  6
CONTINUOUS
 62
    7
370
   -1
100
AcDbLine
 10
659.2165307503
 20
748.8308401017
 11
659.2165307503
 21
761.8308401017
  0
LINE
  5
F8
100
AcDbEntity
  8
3
  6
CONTINUOUS
 62
    7
370
   -1
100
AcDbLine
 10
672.2165307503
 20
761.8308401017
 11
672.2165307503
 21
748.8308401017
  0
LINE
  5
F9
100
AcDbEntity
  8
3
  6
CONTINUOUS
 62
    7
370
   -1
100
AcDbLine
 10
672.2165307503
 20
748.8308401017
 11
685.2165307503
 21
748.8308401017
  0
LINE
  5
FA
100
AcDbEntity
  8
3
  6
CONTINUOUS
 62
    7
370
   -1
100
AcDbLine
 10
685.2165307503
 20
748.8308401017
 11
685.2165307503
 21
761.8308401017
  0
LINE
  5
FB
100
AcDbEntity
  8
3
  6
CONTINUOUS
 62
    7
370
   -1
100
AcDbLine
 10
698.2165307503
 20
761.8308401017
 11
698.2165307503
 21
748.8308401017
  0
LINE
  5
FC
100
AcDbEntity
  8
3
  6
CONTINUOUS
 62
    7
370
   -1
100
AcDbLine
 10
698.2165307503
 20
748.8308401017
 11
711.2165307503
 21
748.8308401017
  0
LINE
  5
FD
100
AcDbEntity
  8
3
  6
CONTINUOUS
 62
    7
370
   -1
100
AcDbLine
 10
711.2165307503
 20
748.8308401017
 11
711.2165307503
 21
761.8308401017
  0
LINE
  5
FE
100
AcDbEntity
  8
3
  6
CONTINUOUS
 62
    7
370
   -1
100
AcDbLine
 10
812.2165307503
 20
761.8308401017
 11
812.2165307503
 21
698.3308401017
  0
LINE
  5
FF
100
AcDbEntity
  8
3
  6
CONTINUOUS
 62
    7
370
   -1
100
AcDbLine
 10
812.2165307503
 20
698.3308401017
 11
817.2165307503
 21
698.3308401017
  0
LINE
  5
100
100
AcDbEntity
  8
3
  6
CONTINUOUS
 62
    7
370
   -1
100
AcDbLine
 10
817.2165307503
 20
698.3308401017
 11
817.2165307503
 21
761.8308401017
  0
LINE
  5
101
100
AcDbEntity
  8
3
  6
CONTINUOUS
 62
    7
370
   -1
100
AcDbLine
 10
836.2165307503
 20
761.8308401017
 11
836.2165307503
 21
701.3308401017
  0
LINE
  5
102
100
AcDbEntity
  8
3
  6
CONTINUOUS
 62
    7
370
   -1
100
AcDbLine
 10
836.2165307503
 20
701.3308401017
 11
845.7165307503
 21
691.8308401017
  0
LINE
  5
103
100
AcDbEntity
  8
3
  6
CONTINUOUS
 62
    7
370
   -1
100
AcDbLine
 10
445.7165307503
 20
691.8308401017
 11
455.2165307503
 21
701.3308401017
  0
LINE
  5
104
100
AcDbEntity
  8
3
  6
CONTINUOUS
 62
    7
370
   -1
100
AcDbLine
 10
455.2165307503
 20
701.3308401017
 11
455.2165307503
 21
761.8308401017
  0
LINE
  5
105
100
AcDbEntity
  8
3
  6
CONTINUOUS
 62
    7
370
   -1
100
AcDbLine
 10
747.2116340295
 20
761.8308401017
 11
711.2165307503
 21
761.8308401017
  0
LINE
  5
106
100
AcDbEntity
  8
3
  6
CONTINUOUS
 62
    7
370
   -1
100
AcDbLine
 10
752.2165307503
 20
731.8308401017
 11
747.2116340295
 21
731.8308401017
  0
LINE
  5
107
100
AcDbEntity
  8
3
  6
CONTINUOUS
 62
    7
370
   -1
100
AcDbLine
 10
747.2116340295
 20
731.8308401017
 11
747.2116340295
 21
761.8308401017
  0
LINE
  5
108
100
AcDbEntity
  8
3
  6
CONTINUOUS
 62
    7
370
   -1
100
AcDbLine
 10
752.2165307503
 20
761.8308401017
 11
752.2165307503
 21
731.8308401017
  0
LINE
  5
109
100
AcDbEntity
  8
3
  6
CONTINUOUS
 62
    7
370
   -1
100
AcDbLine
 10
549.2165307503
 20
696.8308401017
 11
549.2165307503
 21
701.8308401017
  0
LINE
  5
10A
100
AcDbEntity
  8
3
  6
CONTINUOUS
 62
    7
370
   -1
100
AcDbLine
 10
549.2165307503
 20
701.8308401017
 11
600.2165307503
 21
701.8308401017
  0
LINE
  5
10B
100
AcDbEntity
  8
3
  6
CONTINUOUS
 62
    7
370
   -1
100
AcDbLine
 10
600.2165307503
 20
701.8308401017
 11
600.2165307503
 21
696.8308401017
  0
LINE
  5
10C
100
AcDbEntity
  8
3
  6
CONTINUOUS
 62
    7
370
   -1
100
AcDbLine
 10
600.2165307503
 20
696.8308401017
 11
549.2165307503
 21
696.8308401017
  0
LINE
  5
10D
100
AcDbEntity
  8
3
  6
CONTINUOUS
 62
    7
370
   -1
100
AcDbLine
 10
691.2165307503
 20
696.8308401017
 11
691.2165307503
 21
701.8308401017
  0
LINE
  5
10E
100
AcDbEntity
  8
3
  6
CONTINUOUS
 62
    7
370
   -1
100
AcDbLine
 10
691.2165307503
 20
701.8308401017
 11
742.2165307503
 21
701.8308401017
  0
LINE
  5
10F
100
AcDbEntity
  8
3
  6
CONTINUOUS
 62
    7
370
   -1
100
AcDbLine
 10
742.2165307503
 20
701.8308401017
 11
742.2165307503
 21
696.8308401017
  0
LINE
  5
110
100
AcDbEntity
  8
3
  6
CONTINUOUS
 62
    7
370
   -1
100
AcDbLine
 10
742.2165307503
 20
696.8308401017
 11
691.2165307503
 21
696.8308401017
  0
ENDBLK
  5
5F
330
5D
100
AcDbEntity
  8
0
100
AcDbBlockEnd
  0
BLOCK
  5
61
330
60
100
AcDbEntity
  8
0
100
AcDbBlockBegin
  2
SE2
 70
    0
 10
0
 20
0
  3
SE2
  1

  0
LINE
  5
111
100
AcDbEntity
  8
5
  6
CONTINUOUS
 62
    7
370
   -1
100
AcDbLine
 10
1053.3714369903
 20
635.8471218453
 11
1053.3714369903
 21
686.8471218453
  0
LINE
  5
112
100
AcDbEntity
  8
5
  6
CONTINUOUS
 62
    7
370
   -1
100
AcDbLine
 10
945.3714369903
 20
686.8471218453
 11
1053.3714369903
 21
686.8471218453
  0
LINE
  5
113
100
AcDbEntity
  8
5
  6
CONTINUOUS
 62
    7
370
   -1
100
AcDbLine
 10
986.3714369903
 20
721.8471218453
 11
986.3714369903
 21
691.8471218453
  0
LINE
  5
114
100
AcDbEntity
  8
5
  6
CONTINUOUS
 62
    7
370
   -1
100
AcDbLine
 10
945.3714369903
 20
691.8471218453
 11
986.3714369903
 21
691.8471218453
  0
LINE
  5
115
100
AcDbEntity
  8
5
  6
CONTINUOUS
 62
    7
370
   -1
100
AcDbLine
 10
945.3714369903
 20
686.8471218453
 11
945.3714369903
 21
691.8471218453
  0
LINE
  5
116
100
AcDbEntity
  8
5
  6
CONTINUOUS
 62
    7
370
   -1
100
AcDbLine
 10
996.3714369903
 20
635.8471218453
 11
1053.3714369903
 21
635.8471218453
  0
LINE
  5
117
100
AcDbEntity
  8
5
  6
CONTINUOUS
 62
    7
370
   -1
100
AcDbLine
 10
872.3714369903
 20
706.8471218453
 11
872.3714369903
 21
695.8471218453
  0
LINE
  5
118
100
AcDbEntity
  8
5
  6
CONTINUOUS
 62
    7
370
   -1
100
AcDbLine
 10
986.8714369903
 20
645.3471218453
 11
996.3714369903
 21
635.8471218453
  0
LINE
  5
119
100
AcDbEntity
  8
5
  6
CONTINUOUS
 62
    7
370
   -1
100
AcDbLine
 10
949.5238851783
 20
645.3471218453
 11
986.8714369903
 21
645.3471218453
  0
LINE
  5
11A
100
AcDbEntity
  8
5
  6
CONTINUOUS
 62
    7
370
   -1
100
AcDbLine
 10
925.8650731731
 20
672.3319494026
 11
949.5238851783
 21
645.3471218453
  0
LINE
  5
11B
100
AcDbEntity
  8
5
  6
CONTINUOUS
 62
    7
370
   -1
100
AcDbLine
 10
900.8714369903
 20
672.3319494026
 11
925.8650731731
 21
672.3319494026
  0
LINE
  5
11C
100
AcDbEntity
  8
5
  6
CONTINUOUS
 62
    7
370
   -1
100
AcDbLine
 10
891.3714369903
 20
666.8471218453
 11
900.8714369903
 21
672.3319494026
  0
LINE
  5
11D
100
AcDbEntity
  8
5
  6
CONTINUOUS
 62
    7
370
   -1
100
AcDbLine
 10
872.3714369903
 20
666.8471218453
 11
891.3714369903
 21
666.8471218453
  0
LINE
  5
11E
100
AcDbEntity
  8
5
  6
CONTINUOUS
 62
    7
370
   -1
100
AcDbLine
 10
891.3714369903
 20
706.8471218453
 11
872.3714369903
 21
706.8471218453
  0
LINE
  5
11F
100
AcDbEntity
  8
5
  6
CONTINUOUS
 62
    7
370
   -1
100
AcDbLine
 10
900.8714369903
 20
701.362294288
 11
891.3714369903
 21
706.8471218453
  0
LINE
  5
120
100
AcDbEntity
  8
5
  6
CONTINUOUS
 62
    7
370
   -1
100
AcDbLine
 10
925.8650731731
 20
708.0593189191
 11
900.8714369903
 21
701.362294288
  0
LINE
  5
121
100
AcDbEntity
  8
5
  6
CONTINUOUS
 62
    7
370
   -1
100
AcDbLine
 10
932.9357368797
 20
716.4858077934
 11
925.8650731731
 21
708.0593189191
  0
LINE
  5
122
100
AcDbEntity
  8
5
  6
CONTINUOUS
 62
    7
370
   -1
100
AcDbLine
 10
986.3714369903
 20
721.8471218453
 11
932.9357368797
 21
716.4858077934
  0
LINE
  5
123
100
AcDbEntity
  8
5
  6
CONTINUOUS
 62
    7
370
   -1
100
AcDbLine
 10
872.3714369903
 20
682.8471218453
 11
872.3714369903
 21
666.8471218453
  0
LINE
  5
124
100
AcDbEntity
  8
5
  6
CONTINUOUS
 62
    7
370
   -1
100
AcDbLine
 10
885.3714369903
 20
682.8471218453
 11
872.3714369903
 21
682.8471218453
  0
LINE
  5
125
100
AcDbEntity
  8
5
  6
CONTINUOUS
 62
    7
370
   -1
100
AcDbLine
 10
885.3714369903
 20
695.8471218453
 11
885.3714369903
 21
682.8471218453
  0
LINE
  5
126
100
AcDbEntity
  8
5
  6
CONTINUOUS
 62
    7
370
   -1
100
AcDbLine
 10
872.3714369903
 20
695.8471218453
 11
885.3714369903
 21
695.8471218453
  0
CIRCLE
  5
127
100
AcDbEntity
  8
5
  6
CONTINUOUS
 62
    7
370
   -1
100
AcDbCircle
 10
988.8714369903
 20
673.8471218453
 40
4
  0
ENDBLK
  5
62
330
60
100
AcDbEntity
  8
0
100
AcDbBlockEnd
  0
BLOCK
  5
64
330
63
100
AcDbEntity
  8
0
100
AcDbBlockBegin
  2
SE3
 70
    0
 10
0
 20
0
  3
SE3
  1

  0
LINE
  5
128
100
AcDbEntity
  8
2
  6
CONTINUOUS
 62
    7
370
   -1
100
AcDbLine
 10
33.0137792128
 20
332.9153617586
 11
61.5137792128
 21
332.9153617586
  0
LINE
  5
129
100
AcDbEntity
  8
2
  6
CONTINUOUS
 62
    7
370
   -1
100
AcDbLine
 10
33.0137792128
 20
599.9153617586001
 11
33.0137792128
 21
561.9153617586001
  0
LINE
  5
12A
100
AcDbEntity
  8
2
  6
CONTINUOUS
 62
    7
370
   -1
100
AcDbLine
 10
433.0137792128
 20
599.9153617586001
 11
408.0137792128
 21
599.9153617586001
  0
LINE
  5
12B
100
AcDbEntity
  8
2
  6
CONTINUOUS
 62
    7
370
   -1
100
AcDbLine
 10
433.0137792128
 20
332.9153617586
 11
433.0137792128
 21
389.9153617586
  0
LINE
  5
12C
100
AcDbEntity
  8
2
  6
CONTINUOUS
 62
    7
370
   -1
100
AcDbLine
 10
33.0137792128
 20
389.9153617586
 11
33.0137792128
 21
332.9153617586
  0
LINE
  5
12D
100
AcDbEntity
  8
2
  6
CONTINUOUS
 62
    7
370
   -1
100
AcDbLine
 10
49.0137792128
 20
405.9153617586
 11
33.0137792128
 21
389.9153617586
  0
LINE
  5
12E
100
AcDbEntity
  8
2
  6
CONTINUOUS
 62
    7
370
   -1
100
AcDbLine
 10
49.0137792128
 20
451.886616629
 11
49.0137792128
 21
405.9153617586
  0
LINE
  5
12F
100
AcDbEntity
  8
2
  6
CONTINUOUS
 62
    7
370
   -1
100
AcDbLine
 10
42.5137792128
 20
458.386616629
 11
49.0137792128
 21
451.886616629
  0
LINE
  5
130
100
AcDbEntity
  8
2
  6
CONTINUOUS
 62
    7
370
   -1
100
AcDbLine
 10
42.5137792128
 20
552.4153617586001
 11
42.5137792128
 21
458.386616629
  0
LINE
  5
131
100
AcDbEntity
  8
2
  6
CONTINUOUS
 62
    7
370
   -1
100
AcDbLine
 10
33.0137792128
 20
561.9153617586001
 11
42.5137792128
 21
552.4153617586001
  0
LINE
  5
132
100
AcDbEntity
  8
2
  6
CONTINUOUS
 62
    7
370
   -1
100
AcDbLine
 10
433.0137792128
 20
561.9153617586001
 11
433.0137792128
 21
599.9153617586001
  0
LINE
  5
133
100
AcDbEntity
  8
2
  6
CONTINUOUS
 62
    7
370
   -1
100
AcDbLine
 10
423.5137792128
 20
552.4153617586001
 11
433.0137792128
 21
561.9153617586001
  0
LINE
  5
134
100
AcDbEntity
  8
2
  6
CONTINUOUS
 62
    7
370
   -1
100
AcDbLine
 10
423.5137792128
 20
458.386616629
 11
423.5137792128
 21
552.4153617586001
  0
LINE
  5
135
100
AcDbEntity
  8
2
  6
CONTINUOUS
 62
    7
370
   -1
100
AcDbLine
 10
417.0137792128
 20
451.886616629
 11
423.5137792128
 21
458.386616629
  0
LINE
  5
136
100
AcDbEntity
  8
2
  6
CONTINUOUS
 62
    7
370
   -1
100
AcDbLine
 10
417.0137792128
 20
405.9153617586
 11
417.0137792128
 21
451.886616629
  0
LINE
  5
137
100
AcDbEntity
  8
2
  6
CONTINUOUS
 62
    7
370
   -1
100
AcDbLine
 10
433.0137792128
 20
389.9153617586
 11
417.0137792128
 21
405.9153617586
  0
LINE
  5
138
100
AcDbEntity
  8
2
  6
CONTINUOUS
 62
    7
370
   -1
100
AcDbLine
 10
160.0137792128
 20
599.9153617586001
 11
135.0137792128
 21
599.9153617586001
  0
LINE
  5
139
100
AcDbEntity
  8
2
  6
CONTINUOUS
 62
    7
370
   -1
100
AcDbLine
 10
160.0137792128
 20
599.9153617586001
 11
160.0137792128
 21
561.9153617586001
  0
LINE
  5
13A
100
AcDbEntity
  8
2
  6
CONTINUOUS
 62
    7
370
   -1
100
AcDbLine
 10
160.0137792128
 20
561.9153617586001
 11
150.5137792128
 21
552.4153617586001
  0
LINE
  5
13B
100
AcDbEntity
  8
2
  6
CONTINUOUS
 62
    7
370
   -1
100
AcDbLine
 10
150.5137792128
 20
552.4153617586001
 11
150.5137792128
 21
513.9153617586001
  0
LINE
  5
13C
100
AcDbEntity
  8
2
  6
CONTINUOUS
 62
    7
370
   -1
100
AcDbLine
 10
150.5137792128
 20
513.9153617586001
 11
161.5137792128
 21
513.9153617586001
  0
LINE
  5
13D
100
AcDbEntity
  8
2
  6
CONTINUOUS
 62
    7
370
   -1
100
AcDbLine
 10
315.5137792128
 20
513.9153617586001
 11
315.5137792128
 21
552.4153617586001
  0
LINE
  5
13E
100
AcDbEntity
  8
2
  6
CONTINUOUS
 62
    7
370
   -1
100
AcDbLine
 10
315.5137792128
 20
552.4153617586001
 11
306.0137792128
 21
561.9153617586001
  0
LINE
  5
13F
100
AcDbEntity
  8
2
  6
CONTINUOUS
 62
    7
370
   -1
100
AcDbLine
 10
306.0137792128
 20
561.9153617586001
 11
306.0137792128
 21
599.9153617586001
  0
LINE
  5
140
100
AcDbEntity
  8
2
  6
CONTINUOUS
 62
    7
370
   -1
100
AcDbLine
 10
80.0137792128
 20
599.9153617586001
 11
69.0137792128
 21
599.9153617586001
  0
LINE
  5
141
100
AcDbEntity
  8
2
  6
CONTINUOUS
 62
    7
370
   -1
100
AcDbLine
 10
80.0137792128
 20
588.9153617586001
 11
80.0137792128
 21
599.9153617586001
  0
LINE
  5
142
100
AcDbEntity
  8
2
  6
CONTINUOUS
 62
    7
370
   -1
100
AcDbLine
 10
91.0137792128
 20
599.9153617586001
 11
91.0137792128
 21
588.9153617586001
  0
LINE
  5
143
100
AcDbEntity
  8
2
  6
CONTINUOUS
 62
    7
370
   -1
100
AcDbLine
 10
91.0137792128
 20
588.9153617586001
 11
80.0137792128
 21
588.9153617586001
  0
LINE
  5
144
100
AcDbEntity
  8
2
  6
CONTINUOUS
 62
    7
370
   -1
100
AcDbLine
 10
102.0137792128
 20
599.9153617586001
 11
91.0137792128
 21
599.9153617586001
  0
LINE
  5
145
100
AcDbEntity
  8
2
  6
CONTINUOUS
 62
    7
370
   -1
100
AcDbLine
 10
102.0137792128
 20
588.9153617586001
 11
102.0137792128
 21
599.9153617586001
  0
LINE
  5
146
100
AcDbEntity
  8
2
  6
CONTINUOUS
 62
    7
370
   -1
100
AcDbLine
 10
113.0137792128
 20
599.9153617586001
 11
113.0137792128
 21
588.9153617586001
  0
LINE
  5
147
100
AcDbEntity
  8
2
  6
CONTINUOUS
 62
    7
370
   -1
100
AcDbLine
 10
113.0137792128
 20
588.9153617586001
 11
102.0137792128
 21
588.9153617586001
  0
LINE
  5
148
100
AcDbEntity
  8
2
  6
CONTINUOUS
 62
    7
370
   -1
100
AcDbLine
 10
124.0137792128
 20
599.9153617586001
 11
113.0137792128
 21
599.9153617586001
  0
LINE
  5
149
100
AcDbEntity
  8
2
  6
CONTINUOUS
 62
    7
370
   -1
100
AcDbLine
 10
124.0137792128
 20
588.9153617586001
 11
124.0137792128
 21
599.9153617586001
  0
LINE
  5
14A
100
AcDbEntity
  8
2
  6
CONTINUOUS
 62
    7
370
   -1
100
AcDbLine
 10
135.0137792128
 20
599.9153617586001
 11
135.0137792128
 21
588.9153617586001
  0
LINE
  5
14B
100
AcDbEntity
  8
2
  6
CONTINUOUS
 62
    7
370
   -1
100
AcDbLine
 10
135.0137792128
 20
588.9153617586001
 11
131.5137792128
 21
588.9153617586001
  0
LINE
  5
14C
100
AcDbEntity
  8
2
  6
CONTINUOUS
 62
    7
370
   -1
100
AcDbLine
 10
58.0137792128
 20
599.9153617586001
 11
33.0137792128
 21
599.9153617586001
  0
LINE
  5
14D
100
AcDbEntity
  8
2
  6
CONTINUOUS
 62
    7
370
   -1
100
AcDbLine
 10
69.0137792128
 20
588.9153617586001
 11
69.0137792128
 21
599.9153617586001
  0
LINE
  5
14E
100
AcDbEntity
  8
2
  6
CONTINUOUS
 62
    7
370
   -1
100
AcDbLine
 10
58.0137792128
 20
599.9153617586001
 11
58.0137792128
 21
588.9153617586001
  0
LINE
  5
14F
100
AcDbEntity
  8
2
  6
CONTINUOUS
 62
    7
370
   -1
100
AcDbLine
 10
58.0137792128
 20
588.9153617586001
 11
61.5137792128
 21
588.9153617586001
  0
LINE
  5
150
100
AcDbEntity
  8
2
  6
CONTINUOUS
 62
    7
370
   -1
100
AcDbLine
 10
126.5137792128
 20
588.9153617586001
 11
124.0137792128
 21
588.9153617586001
  0
LINE
  5
151
100
AcDbEntity
  8
2
  6
CONTINUOUS
 62
    7
370
   -1
100
AcDbLine
 10
131.5137792128
 20
548.9153617586001
 11
126.5137792128
 21
548.9153617586001
  0
LINE
  5
152
100
AcDbEntity
  8
2
  6
CONTINUOUS
 62
    7
370
   -1
100
AcDbLine
 10
126.5137792128
 20
548.9153617586001
 11
126.5137792128
 21
588.9153617586001
  0
LINE
  5
153
100
AcDbEntity
  8
2
  6
CONTINUOUS
 62
    7
370
   -1
100
AcDbLine
 10
131.5137792128
 20
588.9153617586001
 11
131.5137792128
 21
548.9153617586001
  0
LINE
  5
154
100
AcDbEntity
  8
2
  6
CONTINUOUS
 62
    7
370
   -1
100
AcDbLine
 10
66.5137792128
 20
588.9153617586001
 11
69.0137792128
 21
588.9153617586001
  0
LINE
  5
155
100
AcDbEntity
  8
2
  6
CONTINUOUS
 62
    7
370
   -1
100
AcDbLine
 10
66.5137792128
 20
548.9153617586001
 11
66.5137792128
 21
588.9153617586001
  0
LINE
  5
156
100
AcDbEntity
  8
2
  6
CONTINUOUS
 62
    7
370
   -1
100
AcDbLine
 10
61.5137792128
 20
548.9153617586001
 11
66.5137792128
 21
548.9153617586001
  0
LINE
  5
157
100
AcDbEntity
  8
2
  6
CONTINUOUS
 62
    7
370
   -1
100
AcDbLine
 10
61.5137792128
 20
588.9153617586001
 11
61.5137792128
 21
548.9153617586001
  0
LINE
  5
158
100
AcDbEntity
  8
2
  6
CONTINUOUS
 62
    7
370
   -1
100
AcDbLine
 10
375.0137792128
 20
599.9153617586001
 11
364.0137792128
 21
599.9153617586001
  0
LINE
  5
159
100
AcDbEntity
  8
2
  6
CONTINUOUS
 62
    7
370
   -1
100
AcDbLine
 10
386.0137792128
 20
588.9153617586001
 11
375.0137792128
 21
588.9153617586001
  0
LINE
  5
15A
100
AcDbEntity
  8
2
  6
CONTINUOUS
 62
    7
370
   -1
100
AcDbLine
 10
386.0137792128
 20
599.9153617586001
 11
386.0137792128
 21
588.9153617586001
  0
LINE
  5
15B
100
AcDbEntity
  8
2
  6
CONTINUOUS
 62
    7
370
   -1
100
AcDbLine
 10
375.0137792128
 20
588.9153617586001
 11
375.0137792128
 21
599.9153617586001
  0
LINE
  5
15C
100
AcDbEntity
  8
2
  6
CONTINUOUS
 62
    7
370
   -1
100
AcDbLine
 10
353.0137792128
 20
599.9153617586001
 11
342.0137792128
 21
599.9153617586001
  0
LINE
  5
15D
100
AcDbEntity
  8
2
  6
CONTINUOUS
 62
    7
370
   -1
100
AcDbLine
 10
364.0137792128
 20
588.9153617586001
 11
353.0137792128
 21
588.9153617586001
  0
LINE
  5
15E
100
AcDbEntity
  8
2
  6
CONTINUOUS
 62
    7
370
   -1
100
AcDbLine
 10
364.0137792128
 20
599.9153617586001
 11
364.0137792128
 21
588.9153617586001
  0
LINE
  5
15F
100
AcDbEntity
  8
2
  6
CONTINUOUS
 62
    7
370
   -1
100
AcDbLine
 10
353.0137792128
 20
588.9153617586001
 11
353.0137792128
 21
599.9153617586001
  0
LINE
  5
160
100
AcDbEntity
  8
2
  6
CONTINUOUS
 62
    7
370
   -1
100
AcDbLine
 10
331.0137792128
 20
599.9153617586001
 11
306.0137792128
 21
599.9153617586001
  0
LINE
  5
161
100
AcDbEntity
  8
2
  6
CONTINUOUS
 62
    7
370
   -1
100
AcDbLine
 10
342.0137792128
 20
588.9153617586001
 11
339.5137792128
 21
588.9153617586001
  0
LINE
  5
162
100
AcDbEntity
  8
2
  6
CONTINUOUS
 62
    7
370
   -1
100
AcDbLine
 10
342.0137792128
 20
599.9153617586001
 11
342.0137792128
 21
588.9153617586001
  0
LINE
  5
163
100
AcDbEntity
  8
2
  6
CONTINUOUS
 62
    7
370
   -1
100
AcDbLine
 10
331.0137792128
 20
588.9153617586001
 11
331.0137792128
 21
599.9153617586001
  0
LINE
  5
164
100
AcDbEntity
  8
2
  6
CONTINUOUS
 62
    7
370
   -1
100
AcDbLine
 10
397.0137792128
 20
599.9153617586001
 11
386.0137792128
 21
599.9153617586001
  0
LINE
  5
165
100
AcDbEntity
  8
2
  6
CONTINUOUS
 62
    7
370
   -1
100
AcDbLine
 10
397.0137792128
 20
599.9153617586001
 11
397.0137792128
 21
588.9153617586001
  0
LINE
  5
166
100
AcDbEntity
  8
2
  6
CONTINUOUS
 62
    7
370
   -1
100
AcDbLine
 10
397.0137792128
 20
588.9153617586001
 11
399.5137792128
 21
588.9153617586001
  0
LINE
  5
167
100
AcDbEntity
  8
2
  6
CONTINUOUS
 62
    7
370
   -1
100
AcDbLine
 10
408.0137792128
 20
588.9153617586001
 11
408.0137792128
 21
599.9153617586001
  0
LINE
  5
168
100
AcDbEntity
  8
2
  6
CONTINUOUS
 62
    7
370
   -1
100
AcDbLine
 10
334.5137792128
 20
588.9153617586001
 11
331.0137792128
 21
588.9153617586001
  0
LINE
  5
169
100
AcDbEntity
  8
2
  6
CONTINUOUS
 62
    7
370
   -1
100
AcDbLine
 10
339.5137792128
 20
548.9153617586001
 11
334.5137792128
 21
548.9153617586001
  0
LINE
  5
16A
100
AcDbEntity
  8
2
  6
CONTINUOUS
 62
    7
370
   -1
100
AcDbLine
 10
334.5137792128
 20
548.9153617586001
 11
334.5137792128
 21
588.9153617586001
  0
LINE
  5
16B
100
AcDbEntity
  8
2
  6
CONTINUOUS
 62
    7
370
   -1
100
AcDbLine
 10
339.5137792128
 20
588.9153617586001
 11
339.5137792128
 21
548.9153617586001
  0
LINE
  5
16C
100
AcDbEntity
  8
2
  6
CONTINUOUS
 62
    7
370
   -1
100
AcDbLine
 10
404.5137792128
 20
588.9153617586001
 11
408.0137792128
 21
588.9153617586001
  0
LINE
  5
16D
100
AcDbEntity
  8
2
  6
CONTINUOUS
 62
    7
370
   -1
100
AcDbLine
 10
404.5137792128
 20
548.9153617586001
 11
404.5137792128
 21
588.9153617586001
  0
LINE
  5
16E
100
AcDbEntity
  8
2
  6
CONTINUOUS
 62
    7
370
   -1
100
AcDbLine
 10
399.5137792128
 20
548.9153617586001
 11
404.5137792128
 21
548.9153617586001
  0
LINE
  5
16F
100
AcDbEntity
  8
2
  6
CONTINUOUS
 62
    7
370
   -1
100
AcDbLine
 10
399.5137792128
 20
588.9153617586001
 11
399.5137792128
 21
548.9153617586001
  0
LINE
  5
170
100
AcDbEntity
  8
2
  6
CONTINUOUS
 62
    7
370
   -1
100
AcDbLine
 10
174.5137792128
 20
513.9153617586001
 11
187.5137792128
 21
513.9153617586001
  0
LINE
  5
171
100
AcDbEntity
  8
2
  6
CONTINUOUS
 62
    7
370
   -1
100
AcDbLine
 10
200.5137792128
 20
513.9153617586001
 11
213.5137792128
 21
513.9153617586001
  0
LINE
  5
172
100
AcDbEntity
  8
2
  6
CONTINUOUS
 62
    7
370
   -1
100
AcDbLine
 10
226.5137792128
 20
513.9153617586001
 11
239.5137792128
 21
513.9153617586001
  0
LINE
  5
173
100
AcDbEntity
  8
2
  6
CONTINUOUS
 62
    7
370
   -1
100
AcDbLine
 10
226.5137792128
 20
500.9153617586
 11
226.5137792128
 21
513.9153617586001
  0
LINE
  5
174
100
AcDbEntity
  8
2
  6
CONTINUOUS
 62
    7
370
   -1
100
AcDbLine
 10
213.5137792128
 20
513.9153617586001
 11
213.5137792128
 21
500.9153617586
  0
LINE
  5
175
100
AcDbEntity
  8
2
  6
CONTINUOUS
 62
    7
370
   -1
100
AcDbLine
 10
213.5137792128
 20
500.9153617586
 11
226.5137792128
 21
500.9153617586
  0
LINE
  5
176
100
AcDbEntity
  8
2
  6
CONTINUOUS
 62
    7
370
   -1
100
AcDbLine
 10
200.5137792128
 20
500.9153617586
 11
200.5137792128
 21
513.9153617586001
  0
LINE
  5
177
100
AcDbEntity
  8
2
  6
CONTINUOUS
 62
    7
370
   -1
100
AcDbLine
 10
187.5137792128
 20
513.9153617586001
 11
187.5137792128
 21
500.9153617586
  0
LINE
  5
178
100
AcDbEntity
  8
2
  6
CONTINUOUS
 62
    7
370
   -1
100
AcDbLine
 10
187.5137792128
 20
500.9153617586
 11
200.5137792128
 21
500.9153617586
  0
LINE
  5
179
100
AcDbEntity
  8
2
  6
CONTINUOUS
 62
    7
370
   -1
100
AcDbLine
 10
174.5137792128
 20
500.9153617586
 11
174.5137792128
 21
513.9153617586001
  0
LINE
  5
17A
100
AcDbEntity
  8
2
  6
CONTINUOUS
 62
    7
370
   -1
100
AcDbLine
 10
161.5137792128
 20
513.9153617586001
 11
161.5137792128
 21
500.9153617586
  0
LINE
  5
17B
100
AcDbEntity
  8
2
  6
CONTINUOUS
 62
    7
370
   -1
100
AcDbLine
 10
161.5137792128
 20
500.9153617586
 11
174.5137792128
 21
500.9153617586
  0
LINE
  5
17C
100
AcDbEntity
  8
2
  6
CONTINUOUS
 62
    7
370
   -1
100
AcDbLine
 10
252.5137792128
 20
513.9153617586001
 11
265.5137792128
 21
513.9153617586001
  0
LINE
  5
17D
100
AcDbEntity
  8
2
  6
CONTINUOUS
 62
    7
370
   -1
100
AcDbLine
 10
278.5137792128
 20
513.9153617586001
 11
291.5137792128
 21
513.9153617586001
  0
LINE
  5
17E
100
AcDbEntity
  8
2
  6
CONTINUOUS
 62
    7
370
   -1
100
AcDbLine
 10
304.5137792128
 20
513.9153617586001
 11
315.5137792128
 21
513.9153617586001
  0
LINE
  5
17F
100
AcDbEntity
  8
2
  6
CONTINUOUS
 62
    7
370
   -1
100
AcDbLine
 10
304.5137792128
 20
500.9153617586
 11
304.5137792128
 21
513.9153617586001
  0
LINE
  5
180
100
AcDbEntity
  8
2
  6
CONTINUOUS
 62
    7
370
   -1
100
AcDbLine
 10
291.5137792128
 20
513.9153617586001
 11
291.5137792128
 21
500.9153617586
  0
LINE
  5
181
100
AcDbEntity
  8
2
  6
CONTINUOUS
 62
    7
370
   -1
100
AcDbLine
 10
291.5137792128
 20
500.9153617586
 11
304.5137792128
 21
500.9153617586
  0
LINE
  5
182
100
AcDbEntity
  8
2
  6
CONTINUOUS
 62
    7
370
   -1
100
AcDbLine
 10
278.5137792128
 20
500.9153617586
 11
278.5137792128
 21
513.9153617586001
  0
LINE
  5
183
100
AcDbEntity
  8
2
  6
CONTINUOUS
 62
    7
370
   -1
100
AcDbLine
 10
265.5137792128
 20
513.9153617586001
 11
265.5137792128
 21
500.9153617586
  0
LINE
  5
184
100
AcDbEntity
  8
2
  6
CONTINUOUS
 62
    7
370
   -1
100
AcDbLine
 10
265.5137792128
 20
500.9153617586
 11
278.5137792128
 21
500.9153617586
  0
LINE
  5
185
100
AcDbEntity
  8
2
  6
CONTINUOUS
 62
    7
370
   -1
100
AcDbLine
 10
252.5137792128
 20
500.9153617586
 11
252.5137792128
 21
513.9153617586001
  0
LINE
  5
186
100
AcDbEntity
  8
2
  6
CONTINUOUS
 62
    7
370
   -1
100
AcDbLine
 10
239.5137792128
 20
513.9153617586001
 11
239.5137792128
 21
500.9153617586
  0
LINE
  5
187
100
AcDbEntity
  8
2
  6
CONTINUOUS
 62
    7
370
   -1
100
AcDbLine
 10
239.5137792128
 20
500.9153617586
 11
252.5137792128
 21
500.9153617586
  0
LINE
  5
188
100
AcDbEntity
  8
2
  6
CONTINUOUS
 62
    7
370
   -1
100
AcDbLine
 10
66.5137792128
 20
332.9153617586
 11
399.5137792128
 21
332.9153617586
  0
LINE
  5
189
100
AcDbEntity
  8
2
  6
CONTINUOUS
 62
    7
370
   -1
100
AcDbLine
 10
61.5137792128
 20
396.4153617586
 11
61.5137792128
 21
332.9153617586
  0
LINE
  5
18A
100
AcDbEntity
  8
2
  6
CONTINUOUS
 62
    7
370
   -1
100
AcDbLine
 10
66.5137792128
 20
332.9153617586
 11
66.5137792128
 21
396.4153617586
  0
LINE
  5
18B
100
AcDbEntity
  8
2
  6
CONTINUOUS
 62
    7
370
   -1
100
AcDbLine
 10
66.5137792128
 20
396.4153617586
 11
61.5137792128
 21
396.4153617586
  0
LINE
  5
18C
100
AcDbEntity
  8
2
  6
CONTINUOUS
 62
    7
370
   -1
100
AcDbLine
 10
404.5137792128
 20
332.9153617586
 11
433.0137792128
 21
332.9153617586
  0
LINE
  5
18D
100
AcDbEntity
  8
2
  6
CONTINUOUS
 62
    7
370
   -1
100
AcDbLine
 10
399.5137792128
 20
396.4153617586
 11
399.5137792128
 21
332.9153617586
  0
LINE
  5
18E
100
AcDbEntity
  8
2
  6
CONTINUOUS
 62
    7
370
   -1
100
AcDbLine
 10
404.5137792128
 20
332.9153617586
 11
404.5137792128
 21
396.4153617586
  0
LINE
  5
18F
100
AcDbEntity
  8
2
  6
CONTINUOUS
 62
    7
370
   -1
100
AcDbLine
 10
404.5137792128
 20
396.4153617586
 11
399.5137792128
 21
396.4153617586
  0
LINE
  5
190
100
AcDbEntity
  8
2
  6
CONTINUOUS
 62
    7
370
   -1
100
AcDbLine
 10
315.5137792128
 20
476.9153617586
 11
306.0137792128
 21
476.9153617586
  0
LINE
  5
191
100
AcDbEntity
  8
2
  6
CONTINUOUS
 62
    7
370
   -1
100
AcDbLine
 10
306.0137792128
 20
476.9153617586
 11
306.0137792128
 21
481.9153617586
  0
LINE
  5
192
100
AcDbEntity
  8
2
  6
CONTINUOUS
 62
    7
370
   -1
100
AcDbLine
 10
306.0137792128
 20
481.9153617586
 11
315.5137792128
 21
481.9153617586
  0
LINE
  5
193
100
AcDbEntity
  8
2
  6
CONTINUOUS
 62
    7
370
   -1
100
AcDbLine
 10
315.5137792128
 20
481.9153617586
 11
315.5137792128
 21
476.9153617586
  0
LINE
  5
194
100
AcDbEntity
  8
2
  6
CONTINUOUS
 62
    7
370
   -1
100
AcDbLine
 10
160.0137792128
 20
476.9153617586
 11
150.5137792128
 21
476.9153617586
  0
LINE
  5
195
100
AcDbEntity
  8
2
  6
CONTINUOUS
 62
    7
370
   -1
100
AcDbLine
 10
150.5137792128
 20
476.9153617586
 11
150.5137792128
 21
481.9153617586
  0
LINE
  5
196
100
AcDbEntity
  8
2
  6
CONTINUOUS
 62
    7
370
   -1
100
AcDbLine
 10
150.5137792128
 20
481.9153617586
 11
160.0137792128
 21
481.9153617586
  0
LINE
  5
197
100
AcDbEntity
  8
2
  6
CONTINUOUS
 62
    7
370
   -1
100
AcDbLine
 10
160.0137792128
 20
481.9153617586
 11
160.0137792128
 21
476.9153617586
  0
LINE
  5
198
100
AcDbEntity
  8
2
  6
CONTINUOUS
 62
    7
370
   -1
100
AcDbLine
 10
377.7637792128
 20
523.9153617586001
 11
355.7637792128
 21
523.9153617586001
  0
LINE
  5
199
100
AcDbEntity
  8
2
  6
CONTINUOUS
 62
    7
370
   -1
100
AcDbLine
 10
355.7637792128
 20
523.9153617586001
 11
355.7637792128
 21
545.9153617586001
  0
ARC
  5
19A
100
AcDbEntity
  8
2
  6
CONTINUOUS
 62
    7
370
   -1
100
AcDbCircle
 10
366.7637792128
 20
545.9153617586001
 40
11.00000000000001
100
AcDbArc
 50
0
 51
180
  0
LINE
  5
19B
100
AcDbEntity
  8
2
  6
CONTINUOUS
 62
    7
370
   -1
100
AcDbLine
 10
377.7637792128
 20
545.9153617586001
 11
377.7637792128
 21
523.9153617586001
  0
LINE
  5
19C
100
AcDbEntity
  8
2
  6
CONTINUOUS
 62
    7
370
   -1
100
AcDbLine
 10
88.2637792128
 20
523.9153617586001
 11
88.2637792128
 21
545.9153617586001
  0
ARC
  5
19D
100
AcDbEntity
  8
2
  6
CONTINUOUS
 62
    7
370
   -1
100
AcDbCircle
 10
99.2637792128
 20
545.9153617586001
 40
11.00000000000001
100
AcDbArc
 50
0
 51
180
  0
LINE
  5
19E
100
AcDbEntity
  8
2
  6
CONTINUOUS
 62
    7
370
   -1
100
AcDbLine
 10
110.2637792128
 20
545.9153617586001
 11
110.2637792128
 21
523.9153617586001
  0
LINE
  5
19F
100
AcDbEntity
  8
2
  6
CONTINUOUS
 62
    7
370
   -1
100
AcDbLine
 10
110.2637792128
 20
523.9153617586001
 11
88.2637792128
 21
523.9153617586001
  0
ENDBLK
  5
65
330
63
100
AcDbEntity
  8
0
100
AcDbBlockEnd
  0
BLOCK
  5
67
330
66
100
AcDbEntity
  8
0
100
AcDbBlockBegin
  2
SE4
 70
    0
 10
0
 20
0
  3
SE4
  1

  0
LINE
  5
1A0
100
AcDbEntity
  8
6
  6
CONTINUOUS
 62
    7
370
   -1
100
AcDbLine
 10
588.086647998
 20
601.302839241
 11
563.086647998
 21
601.302839241
  0
LINE
  5
1A1
100
AcDbEntity
  8
6
  6
CONTINUOUS
 62
    7
370
   -1
100
AcDbLine
 10
461.086647998
 20
601.302839241
 11
461.086647998
 21
563.302839241
  0
LINE
  5
1A2
100
AcDbEntity
  8
6
  6
CONTINUOUS
 62
    7
370
   -1
100
AcDbLine
 10
588.086647998
 20
563.302839241
 11
588.086647998
 21
601.302839241
  0
LINE
  5
1A3
100
AcDbEntity
  8
6
  6
CONTINUOUS
 62
    7
370
   -1
100
AcDbLine
 10
578.586647998
 20
553.802839241
 11
588.086647998
 21
563.302839241
  0
LINE
  5
1A4
100
AcDbEntity
  8
6
  6
CONTINUOUS
 62
    7
370
   -1
100
AcDbLine
 10
559.586647998
 20
550.302839241
 11
559.586647998
 21
512.302839241
  0
LINE
  5
1A5
100
AcDbEntity
  8
6
  6
CONTINUOUS
 62
    7
370
   -1
100
AcDbLine
 10
554.586647998
 20
550.302839241
 11
559.586647998
 21
550.302839241
  0
LINE
  5
1A6
100
AcDbEntity
  8
6
  6
CONTINUOUS
 62
    7
370
   -1
100
AcDbLine
 10
554.586647998
 20
461.302839241
 11
554.586647998
 21
550.302839241
  0
LINE
  5
1A7
100
AcDbEntity
  8
6
  6
CONTINUOUS
 62
    7
370
   -1
100
AcDbLine
 10
494.586647998
 20
550.302839241
 11
494.586647998
 21
461.302839241
  0
LINE
  5
1A8
100
AcDbEntity
  8
6
  6
CONTINUOUS
 62
    7
370
   -1
100
AcDbLine
 10
489.586647998
 20
550.302839241
 11
494.586647998
 21
550.302839241
  0
LINE
  5
1A9
100
AcDbEntity
  8
6
  6
CONTINUOUS
 62
    7
370
   -1
100
AcDbLine
 10
470.586647998
 20
553.802839241
 11
470.586647998
 21
521.802839241
  0
LINE
  5
1AA
100
AcDbEntity
  8
6
  6
CONTINUOUS
 62
    7
370
   -1
100
AcDbLine
 10
461.086647998
 20
563.302839241
 11
470.586647998
 21
553.802839241
  0
LINE
  5
1AB
100
AcDbEntity
  8
6
  6
CONTINUOUS
 62
    7
370
   -1
100
AcDbLine
 10
508.086647998
 20
601.302839241
 11
497.086647998
 21
601.302839241
  0
LINE
  5
1AC
100
AcDbEntity
  8
6
  6
CONTINUOUS
 62
    7
370
   -1
100
AcDbLine
 10
519.086647998
 20
590.302839241
 11
519.086647998
 21
601.302839241
  0
LINE
  5
1AD
100
AcDbEntity
  8
6
  6
CONTINUOUS
 62
    7
370
   -1
100
AcDbLine
 10
508.086647998
 20
590.302839241
 11
519.086647998
 21
590.302839241
  0
LINE
  5
1AE
100
AcDbEntity
  8
6
  6
CONTINUOUS
 62
    7
370
   -1
100
AcDbLine
 10
508.086647998
 20
601.302839241
 11
508.086647998
 21
590.302839241
  0
LINE
  5
1AF
100
AcDbEntity
  8
6
  6
CONTINUOUS
 62
    7
370
   -1
100
AcDbLine
 10
530.086647998
 20
601.302839241
 11
519.086647998
 21
601.302839241
  0
LINE
  5
1B0
100
AcDbEntity
  8
6
  6
CONTINUOUS
 62
    7
370
   -1
100
AcDbLine
 10
541.086647998
 20
590.302839241
 11
541.086647998
 21
601.302839241
  0
LINE
  5
1B1
100
AcDbEntity
  8
6
  6
CONTINUOUS
 62
    7
370
   -1
100
AcDbLine
 10
530.086647998
 20
590.302839241
 11
541.086647998
 21
590.302839241
  0
LINE
  5
1B2
100
AcDbEntity
  8
6
  6
CONTINUOUS
 62
    7
370
   -1
100
AcDbLine
 10
530.086647998
 20
601.302839241
 11
530.086647998
 21
590.302839241
  0
LINE
  5
1B3
100
AcDbEntity
  8
6
  6
CONTINUOUS
 62
    7
370
   -1
100
AcDbLine
 10
552.086647998
 20
601.302839241
 11
541.086647998
 21
601.302839241
  0
LINE
  5
1B4
100
AcDbEntity
  8
6
  6
CONTINUOUS
 62
    7
370
   -1
100
AcDbLine
 10
563.086647998
 20
590.302839241
 11
563.086647998
 21
601.302839241
  0
LINE
  5
1B5
100
AcDbEntity
  8
6
  6
CONTINUOUS
 62
    7
370
   -1
100
AcDbLine
 10
552.086647998
 20
590.302839241
 11
563.086647998
 21
590.302839241
  0
LINE
  5
1B6
100
AcDbEntity
  8
6
  6
CONTINUOUS
 62
    7
370
   -1
100
AcDbLine
 10
552.086647998
 20
601.302839241
 11
552.086647998
 21
590.302839241
  0
LINE
  5
1B7
100
AcDbEntity
  8
6
  6
CONTINUOUS
 62
    7
370
   -1
100
AcDbLine
 10
486.086647998
 20
601.302839241
 11
461.086647998
 21
601.302839241
  0
LINE
  5
1B8
100
AcDbEntity
  8
6
  6
CONTINUOUS
 62
    7
370
   -1
100
AcDbLine
 10
497.086647998
 20
590.302839241
 11
497.086647998
 21
601.302839241
  0
LINE
  5
1B9
100
AcDbEntity
  8
6
  6
CONTINUOUS
 62
    7
370
   -1
100
AcDbLine
 10
486.086647998
 20
590.302839241
 11
497.086647998
 21
590.302839241
  0
LINE
  5
1BA
100
AcDbEntity
  8
6
  6
CONTINUOUS
 62
    7
370
   -1
100
AcDbLine
 10
486.086647998
 20
601.302839241
 11
486.086647998
 21
590.302839241
  0
LINE
  5
1BB
100
AcDbEntity
  8
6
  6
CONTINUOUS
 62
    7
370
   -1
100
AcDbLine
 10
504.086647998
 20
564.302839241
 11
504.086647998
 21
569.302839241
  0
LINE
  5
1BC
100
AcDbEntity
  8
6
  6
CONTINUOUS
 62
    7
370
   -1
100
AcDbLine
 10
504.086647998
 20
569.302839241
 11
513.586647998
 21
569.302839241
  0
LINE
  5
1BD
100
AcDbEntity
  8
6
  6
CONTINUOUS
 62
    7
370
   -1
100
AcDbLine
 10
513.586647998
 20
569.302839241
 11
513.586647998
 21
564.302839241
  0
LINE
  5
1BE
100
AcDbEntity
  8
6
  6
CONTINUOUS
 62
    7
370
   -1
100
AcDbLine
 10
513.586647998
 20
564.302839241
 11
504.086647998
 21
564.302839241
  0
LINE
  5
1BF
100
AcDbEntity
  8
6
  6
CONTINUOUS
 62
    7
370
   -1
100
AcDbLine
 10
535.586647998
 20
564.302839241
 11
535.586647998
 21
569.302839241
  0
LINE
  5
1C0
100
AcDbEntity
  8
6
  6
CONTINUOUS
 62
    7
370
   -1
100
AcDbLine
 10
535.586647998
 20
569.302839241
 11
545.086647998
 21
569.302839241
  0
LINE
  5
1C1
100
AcDbEntity
  8
6
  6
CONTINUOUS
 62
    7
370
   -1
100
AcDbLine
 10
545.086647998
 20
569.302839241
 11
545.086647998
 21
564.302839241
  0
LINE
  5
1C2
100
AcDbEntity
  8
6
  6
CONTINUOUS
 62
    7
370
   -1
100
AcDbLine
 10
545.086647998
 20
564.302839241
 11
535.586647998
 21
564.302839241
  0
LINE
  5
1C3
100
AcDbEntity
  8
6
  6
CONTINUOUS
 62
    7
370
   -1
100
AcDbLine
 10
489.586647998
 20
512.302839241
 11
489.586647998
 21
550.302839241
  0
LINE
  5
1C4
100
AcDbEntity
  8
6
  6
CONTINUOUS
 62
    7
370
   -1
100
AcDbLine
 10
578.586647998
 20
521.802839241
 11
578.586647998
 21
553.802839241
  0
LINE
  5
1C5
100
AcDbEntity
  8
6
  6
CONTINUOUS
 62
    7
370
   -1
100
AcDbLine
 10
569.086647998
 20
512.302839241
 11
578.586647998
 21
521.802839241
  0
LINE
  5
1C6
100
AcDbEntity
  8
6
  6
CONTINUOUS
 62
    7
370
   -1
100
AcDbLine
 10
559.586647998
 20
512.302839241
 11
569.086647998
 21
512.302839241
  0
LINE
  5
1C7
100
AcDbEntity
  8
6
  6
CONTINUOUS
 62
    7
370
   -1
100
AcDbLine
 10
480.086647998
 20
512.302839241
 11
489.586647998
 21
512.302839241
  0
LINE
  5
1C8
100
AcDbEntity
  8
6
  6
CONTINUOUS
 62
    7
370
   -1
100
AcDbLine
 10
470.586647998
 20
521.802839241
 11
480.086647998
 21
512.302839241
  0
LINE
  5
1C9
100
AcDbEntity
  8
6
  6
CONTINUOUS
 62
    7
370
   -1
100
AcDbLine
 10
494.586647998
 20
461.302839241
 11
554.586647998
 21
461.302839241
  0
LINE
  5
1CA
100
AcDbEntity
  8
6
  6
CONTINUOUS
 62
    7
370
   -1
100
AcDbLine
 10
513.586647998
 20
508.802839241
 11
513.586647998
 21
486.802839241
  0
LINE
  5
1CB
100
AcDbEntity
  8
6
  6
CONTINUOUS
 62
    7
370
   -1
100
AcDbLine
 10
513.586647998
 20
486.802839241
 11
535.586647998
 21
486.802839241
  0
LINE
  5
1CC
100
AcDbEntity
  8
6
  6
CONTINUOUS
 62
    7
370
   -1
100
AcDbLine
 10
535.586647998
 20
486.802839241
 11
535.586647998
 21
508.802839241
  0
ARC
  5
1CD
100
AcDbEntity
  8
6
  6
CONTINUOUS
 62
    7
370
   -1
100
AcDbCircle
 10
524.586647998
 20
508.802839241
 40
11.00000000000001
100
AcDbArc
 50
0
 51
180
  0
ENDBLK
  5
68
330
66
100
AcDbEntity
  8
0
100
AcDbBlockEnd
  0
BLOCK
  5
6A
330
69
100
AcDbEntity
  8
0
100
AcDbBlockBegin
  2
SE5
 70
    0
 10
0
 20
0
  3
SE5
  1

  0
LINE
  5
1CE
100
AcDbEntity
  8
6-2
  6
CONTINUOUS
 62
    7
370
   -1
100
AcDbLine
 10
742.6025405146
 20
602.0386292054
 11
717.6025405146
 21
602.0386292054
  0
LINE
  5
1CF
100
AcDbEntity
  8
6-2
  6
CONTINUOUS
 62
    7
370
   -1
100
AcDbLine
 10
615.6025405146
 20
602.0386292054
 11
615.6025405146
 21
564.0386292054
  0
LINE
  5
1D0
100
AcDbEntity
  8
6-2
  6
CONTINUOUS
 62
    7
370
   -1
100
AcDbLine
 10
742.6025405146
 20
564.0386292054
 11
742.6025405146
 21
602.0386292054
  0
LINE
  5
1D1
100
AcDbEntity
  8
6-2
  6
CONTINUOUS
 62
    7
370
   -1
100
AcDbLine
 10
733.1025405146
 20
554.5386292054
 11
742.6025405146
 21
564.0386292054
  0
LINE
  5
1D2
100
AcDbEntity
  8
6-2
  6
CONTINUOUS
 62
    7
370
   -1
100
AcDbLine
 10
714.1025405146
 20
551.0386292054
 11
714.1025405146
 21
513.0386292054
  0
LINE
  5
1D3
100
AcDbEntity
  8
6-2
  6
CONTINUOUS
 62
    7
370
   -1
100
AcDbLine
 10
709.1025405146
 20
551.0386292054
 11
714.1025405146
 21
551.0386292054
  0
LINE
  5
1D4
100
AcDbEntity
  8
6-2
  6
CONTINUOUS
 62
    7
370
   -1
100
AcDbLine
 10
709.1025405146
 20
462.0386292054
 11
709.1025405146
 21
551.0386292054
  0
LINE
  5
1D5
100
AcDbEntity
  8
6-2
  6
CONTINUOUS
 62
    7
370
   -1
100
AcDbLine
 10
649.1025405146
 20
551.0386292054
 11
649.1025405146
 21
462.0386292054
  0
LINE
  5
1D6
100
AcDbEntity
  8
6-2
  6
CONTINUOUS
 62
    7
370
   -1
100
AcDbLine
 10
644.1025405146
 20
551.0386292054
 11
649.1025405146
 21
551.0386292054
  0
LINE
  5
1D7
100
AcDbEntity
  8
6-2
  6
CONTINUOUS
 62
    7
370
   -1
100
AcDbLine
 10
625.1025405146
 20
554.5386292054
 11
625.1025405146
 21
522.5386292054
  0
LINE
  5
1D8
100
AcDbEntity
  8
6-2
  6
CONTINUOUS
 62
    7
370
   -1
100
AcDbLine
 10
615.6025405146
 20
564.0386292054
 11
625.1025405146
 21
554.5386292054
  0
LINE
  5
1D9
100
AcDbEntity
  8
6-2
  6
CONTINUOUS
 62
    7
370
   -1
100
AcDbLine
 10
662.6025405146
 20
602.0386292054
 11
651.6025405146
 21
602.0386292054
  0
LINE
  5
1DA
100
AcDbEntity
  8
6-2
  6
CONTINUOUS
 62
    7
370
   -1
100
AcDbLine
 10
673.6025405146
 20
591.0386292054
 11
673.6025405146
 21
602.0386292054
  0
LINE
  5
1DB
100
AcDbEntity
  8
6-2
  6
CONTINUOUS
 62
    7
370
   -1
100
AcDbLine
 10
662.6025405146
 20
591.0386292054
 11
673.6025405146
 21
591.0386292054
  0
LINE
  5
1DC
100
AcDbEntity
  8
6-2
  6
CONTINUOUS
 62
    7
370
   -1
100
AcDbLine
 10
662.6025405146
 20
602.0386292054
 11
662.6025405146
 21
591.0386292054
  0
LINE
  5
1DD
100
AcDbEntity
  8
6-2
  6
CONTINUOUS
 62
    7
370
   -1
100
AcDbLine
 10
684.6025405146
 20
602.0386292054
 11
673.6025405146
 21
602.0386292054
  0
LINE
  5
1DE
100
AcDbEntity
  8
6-2
  6
CONTINUOUS
 62
    7
370
   -1
100
AcDbLine
 10
695.6025405146
 20
591.0386292054
 11
695.6025405146
 21
602.0386292054
  0
LINE
  5
1DF
100
AcDbEntity
  8
6-2
  6
CONTINUOUS
 62
    7
370
   -1
100
AcDbLine
 10
684.6025405146
 20
591.0386292054
 11
695.6025405146
 21
591.0386292054
  0
LINE
  5
1E0
100
AcDbEntity
  8
6-2
  6
CONTINUOUS
 62
    7
370
   -1
100
AcDbLine
 10
684.6025405146
 20
602.0386292054
 11
684.6025405146
 21
591.0386292054
  0
LINE
  5
1E1
100
AcDbEntity
  8
6-2
  6
CONTINUOUS
 62
    7
370
   -1
100
AcDbLine
 10
706.6025405146
 20
602.0386292054
 11
695.6025405146
 21
602.0386292054
  0
LINE
  5
1E2
100
AcDbEntity
  8
6-2
  6
CONTINUOUS
 62
    7
370
   -1
100
AcDbLine
 10
717.6025405146
 20
591.0386292054
 11
717.6025405146
 21
602.0386292054
  0
LINE
  5
1E3
100
AcDbEntity
  8
6-2
  6
CONTINUOUS
 62
    7
370
   -1
100
AcDbLine
 10
706.6025405146
 20
591.0386292054
 11
717.6025405146
 21
591.0386292054
  0
LINE
  5
1E4
100
AcDbEntity
  8
6-2
  6
CONTINUOUS
 62
    7
370
   -1
100
AcDbLine
 10
706.6025405146
 20
602.0386292054
 11
706.6025405146
 21
591.0386292054
  0
LINE
  5
1E5
100
AcDbEntity
  8
6-2
  6
CONTINUOUS
 62
    7
370
   -1
100
AcDbLine
 10
640.6025405146
 20
602.0386292054
 11
615.6025405146
 21
602.0386292054
  0
LINE
  5
1E6
100
AcDbEntity
  8
6-2
  6
CONTINUOUS
 62
    7
370
   -1
100
AcDbLine
 10
651.6025405146
 20
591.0386292054
 11
651.6025405146
 21
602.0386292054
  0
LINE
  5
1E7
100
AcDbEntity
  8
6-2
  6
CONTINUOUS
 62
    7
370
   -1
100
AcDbLine
 10
640.6025405146
 20
591.0386292054
 11
651.6025405146
 21
591.0386292054
  0
LINE
  5
1E8
100
AcDbEntity
  8
6-2
  6
CONTINUOUS
 62
    7
370
   -1
100
AcDbLine
 10
640.6025405146
 20
602.0386292054
 11
640.6025405146
 21
591.0386292054
  0
LINE
  5
1E9
100
AcDbEntity
  8
6-2
  6
CONTINUOUS
 62
    7
370
   -1
100
AcDbLine
 10
644.1025405146
 20
513.0386292054
 11
644.1025405146
 21
551.0386292054
  0
LINE
  5
1EA
100
AcDbEntity
  8
6-2
  6
CONTINUOUS
 62
    7
370
   -1
100
AcDbLine
 10
733.1025405146
 20
522.5386292054
 11
733.1025405146
 21
554.5386292054
  0
LINE
  5
1EB
100
AcDbEntity
  8
6-2
  6
CONTINUOUS
 62
    7
370
   -1
100
AcDbLine
 10
723.6025405146
 20
513.0386292054
 11
733.1025405146
 21
522.5386292054
  0
LINE
  5
1EC
100
AcDbEntity
  8
6-2
  6
CONTINUOUS
 62
    7
370
   -1
100
AcDbLine
 10
714.1025405146
 20
513.0386292054
 11
723.6025405146
 21
513.0386292054
  0
LINE
  5
1ED
100
AcDbEntity
  8
6-2
  6
CONTINUOUS
 62
    7
370
   -1
100
AcDbLine
 10
634.6025405146
 20
513.0386292054
 11
644.1025405146
 21
513.0386292054
  0
LINE
  5
1EE
100
AcDbEntity
  8
6-2
  6
CONTINUOUS
 62
    7
370
   -1
100
AcDbLine
 10
625.1025405146
 20
522.5386292054
 11
634.6025405146
 21
513.0386292054
  0
LINE
  5
1EF
100
AcDbEntity
  8
6-2
  6
CONTINUOUS
 62
    7
370
   -1
100
AcDbLine
 10
649.1025405146
 20
462.0386292054
 11
709.1025405146
 21
462.0386292054
  0
LINE
  5
1F0
100
AcDbEntity
  8
6-2
  6
CONTINUOUS
 62
    7
370
   -1
100
AcDbLine
 10
699.6025405146
 20
570.0386292054
 11
699.6025405146
 21
565.0386292054
  0
LINE
  5
1F1
100
AcDbEntity
  8
6-2
  6
CONTINUOUS
 62
    7
370
   -1
100
AcDbLine
 10
690.1025405146
 20
570.0386292054
 11
699.6025405146
 21
570.0386292054
  0
LINE
  5
1F2
100
AcDbEntity
  8
6-2
  6
CONTINUOUS
 62
    7
370
   -1
100
AcDbLine
 10
690.1025405146
 20
565.0386292054
 11
690.1025405146
 21
570.0386292054
  0
LINE
  5
1F3
100
AcDbEntity
  8
6-2
  6
CONTINUOUS
 62
    7
370
   -1
100
AcDbLine
 10
699.6025405146
 20
565.0386292054
 11
690.1025405146
 21
565.0386292054
  0
LINE
  5
1F4
100
AcDbEntity
  8
6-2
  6
CONTINUOUS
 62
    7
370
   -1
100
AcDbLine
 10
668.1025405146
 20
570.0386292054
 11
668.1025405146
 21
565.0386292054
  0
LINE
  5
1F5
100
AcDbEntity
  8
6-2
  6
CONTINUOUS
 62
    7
370
   -1
100
AcDbLine
 10
658.6025405146
 20
570.0386292054
 11
668.1025405146
 21
570.0386292054
  0
LINE
  5
1F6
100
AcDbEntity
  8
6-2
  6
CONTINUOUS
 62
    7
370
   -1
100
AcDbLine
 10
658.6025405146
 20
565.0386292054
 11
658.6025405146
 21
570.0386292054
  0
LINE
  5
1F7
100
AcDbEntity
  8
6-2
  6
CONTINUOUS
 62
    7
370
   -1
100
AcDbLine
 10
668.1025405146
 20
565.0386292054
 11
658.6025405146
 21
565.0386292054
  0
LINE
  5
1F8
100
AcDbEntity
  8
6-2
  6
CONTINUOUS
 62
    7
370
   -1
100
AcDbLine
 10
668.1025405146
 20
484.0386292054
 11
668.1025405146
 21
522.0386292054
  0
LINE
  5
1F9
100
AcDbEntity
  8
6-2
  6
CONTINUOUS
 62
    7
370
   -1
100
AcDbLine
 10
690.1025405146
 20
484.0386292054
 11
668.1025405146
 21
484.0386292054
  0
LINE
  5
1FA
100
AcDbEntity
  8
6-2
  6
CONTINUOUS
 62
    7
370
   -1
100
AcDbLine
 10
690.1025405146
 20
522.0386292054
 11
690.1025405146
 21
484.0386292054
  0
ARC
  5
1FB
100
AcDbEntity
  8
6-2
  6
CONTINUOUS
 62
    7
370
   -1
100
AcDbCircle
 10
679.1025405146
 20
522.0386292054
 40
10.99999999999999
100
AcDbArc
 50
0
 51
180
  0
ENDBLK
  5
6B
330
69
100
AcDbEntity
  8
0
100
AcDbBlockEnd
  0
BLOCK
  5
6D
330
6C
100
AcDbEntity
  8
0
100
AcDbBlockBegin
  2
SE6
 70
    0
 10
0
 20
0
  3
SE6
  1

  0
LINE
  5
1FC
100
AcDbEntity
  8
4
  6
CONTINUOUS
 62
    7
370
   -1
100
AcDbLine
 10
274.3193171075
 20
304.073128914
 11
274.3193171075
 21
266.073128914
  0
LINE
  5
1FD
100
AcDbEntity
  8
4
  6
CONTINUOUS
 62
    7
370
   -1
100
AcDbLine
 10
674.3193171075
 20
304.073128914
 11
649.3193171075
 21
304.073128914
  0
LINE
  5
1FE
100
AcDbEntity
  8
4
  6
CONTINUOUS
 62
    7
370
   -1
100
AcDbLine
 10
550.3193171075
 20
104.073128914
 11
595.3193171075
 21
104.073128914
  0
LINE
  5
1FF
100
AcDbEntity
  8
4
  6
CONTINUOUS
 62
    7
370
   -1
100
AcDbLine
 10
398.3193171075
 20
104.073128914
 11
398.3193171075
 21
129.573128914
  0
LINE
  5
200
100
AcDbEntity
  8
4
  6
CONTINUOUS
 62
    7
370
   -1
100
AcDbLine
 10
353.3193171075
 20
104.073128914
 11
398.3193171075
 21
104.073128914
  0
LINE
  5
201
100
AcDbEntity
  8
4
  6
CONTINUOUS
 62
    7
370
   -1
100
AcDbLine
 10
353.3193171075
 20
142.073128914
 11
353.3193171075
 21
104.073128914
  0
ARC
  5
202
100
AcDbEntity
  8
4
  6
CONTINUOUS
 62
    7
370
   -1
100
AcDbCircle
 10
340.5693171075
 20
142.073128914
 40
12.75000000000001
100
AcDbArc
 50
0
 51
180
  0
LINE
  5
203
100
AcDbEntity
  8
4
  6
CONTINUOUS
 62
    7
370
   -1
100
AcDbLine
 10
327.8193171075
 20
104.073128914
 11
327.8193171075
 21
142.073128914
  0
LINE
  5
204
100
AcDbEntity
  8
4
  6
CONTINUOUS
 62
    7
370
   -1
100
AcDbLine
 10
290.3193171075
 20
189.5443837844
 11
290.3193171075
 21
113.573128914
  0
LINE
  5
205
100
AcDbEntity
  8
4
  6
CONTINUOUS
 62
    7
370
   -1
100
AcDbLine
 10
283.8193171075
 20
196.0443837844
 11
290.3193171075
 21
189.5443837844
  0
LINE
  5
206
100
AcDbEntity
  8
4
  6
CONTINUOUS
 62
    7
370
   -1
100
AcDbLine
 10
283.8193171075
 20
256.573128914
 11
283.8193171075
 21
196.0443837844
  0
LINE
  5
207
100
AcDbEntity
  8
4
  6
CONTINUOUS
 62
    7
370
   -1
100
AcDbLine
 10
274.3193171075
 20
266.073128914
 11
283.8193171075
 21
256.573128914
  0
LINE
  5
208
100
AcDbEntity
  8
4
  6
CONTINUOUS
 62
    7
370
   -1
100
AcDbLine
 10
620.8193171075
 20
104.073128914
 11
640.8193171075
 21
104.073128914
  0
LINE
  5
209
100
AcDbEntity
  8
4
  6
CONTINUOUS
 62
    7
370
   -1
100
AcDbLine
 10
620.8193171075
 20
142.073128914
 11
620.8193171075
 21
104.073128914
  0
ARC
  5
20A
100
AcDbEntity
  8
4
  6
CONTINUOUS
 62
    7
370
   -1
100
AcDbCircle
 10
608.0693171075
 20
142.073128914
 40
12.75000000000001
100
AcDbArc
 50
0
 51
180
  0
LINE
  5
20B
100
AcDbEntity
  8
4
  6
CONTINUOUS
 62
    7
370
   -1
100
AcDbLine
 10
595.3193171075
 20
104.073128914
 11
595.3193171075
 21
142.073128914
  0
LINE
  5
20C
100
AcDbEntity
  8
4
  6
CONTINUOUS
 62
    7
370
   -1
100
AcDbLine
 10
674.3193171075
 20
266.073128914
 11
674.3193171075
 21
304.073128914
  0
LINE
  5
20D
100
AcDbEntity
  8
4
  6
CONTINUOUS
 62
    7
370
   -1
100
AcDbLine
 10
658.3193171075
 20
189.5443837844
 11
658.3193171075
 21
113.573128914
  0
LINE
  5
20E
100
AcDbEntity
  8
4
  6
CONTINUOUS
 62
    7
370
   -1
100
AcDbLine
 10
664.8193171075
 20
256.573128914
 11
674.3193171075
 21
266.073128914
  0
LINE
  5
20F
100
AcDbEntity
  8
4
  6
CONTINUOUS
 62
    7
370
   -1
100
AcDbLine
 10
664.8193171075
 20
196.0443837844
 11
664.8193171075
 21
256.573128914
  0
LINE
  5
210
100
AcDbEntity
  8
4
  6
CONTINUOUS
 62
    7
370
   -1
100
AcDbLine
 10
658.3193171075
 20
189.5443837844
 11
664.8193171075
 21
196.0443837844
  0
LINE
  5
211
100
AcDbEntity
  8
4
  6
CONTINUOUS
 62
    7
370
   -1
100
AcDbLine
 10
401.3193171075
 20
304.073128914
 11
376.3193171075
 21
304.073128914
  0
LINE
  5
212
100
AcDbEntity
  8
4
  6
CONTINUOUS
 62
    7
370
   -1
100
AcDbLine
 10
401.3193171075
 20
304.073128914
 11
401.3193171075
 21
266.073128914
  0
LINE
  5
213
100
AcDbEntity
  8
4
  6
CONTINUOUS
 62
    7
370
   -1
100
AcDbLine
 10
401.3193171075
 20
266.073128914
 11
391.8193171075
 21
256.573128914
  0
LINE
  5
214
100
AcDbEntity
  8
4
  6
CONTINUOUS
 62
    7
370
   -1
100
AcDbLine
 10
391.8193171075
 20
256.573128914
 11
391.8193171075
 21
218.073128914
  0
LINE
  5
215
100
AcDbEntity
  8
4
  6
CONTINUOUS
 62
    7
370
   -1
100
AcDbLine
 10
391.8193171075
 20
218.073128914
 11
402.8193171075
 21
218.073128914
  0
LINE
  5
216
100
AcDbEntity
  8
4
  6
CONTINUOUS
 62
    7
370
   -1
100
AcDbLine
 10
556.8193171075
 20
218.073128914
 11
556.8193171075
 21
256.573128914
  0
LINE
  5
217
100
AcDbEntity
  8
4
  6
CONTINUOUS
 62
    7
370
   -1
100
AcDbLine
 10
556.8193171075
 20
256.573128914
 11
547.3193171075
 21
266.073128914
  0
LINE
  5
218
100
AcDbEntity
  8
4
  6
CONTINUOUS
 62
    7
370
   -1
100
AcDbLine
 10
547.3193171075
 20
266.073128914
 11
547.3193171075
 21
304.073128914
  0
LINE
  5
219
100
AcDbEntity
  8
4
  6
CONTINUOUS
 62
    7
370
   -1
100
AcDbLine
 10
343.3193171075
 20
304.073128914
 11
332.3193171075
 21
304.073128914
  0
LINE
  5
21A
100
AcDbEntity
  8
4
  6
CONTINUOUS
 62
    7
370
   -1
100
AcDbLine
 10
343.3193171075
 20
293.073128914
 11
343.3193171075
 21
304.073128914
  0
LINE
  5
21B
100
AcDbEntity
  8
4
  6
CONTINUOUS
 62
    7
370
   -1
100
AcDbLine
 10
354.3193171075
 20
304.073128914
 11
354.3193171075
 21
293.073128914
  0
LINE
  5
21C
100
AcDbEntity
  8
4
  6
CONTINUOUS
 62
    7
370
   -1
100
AcDbLine
 10
354.3193171075
 20
293.073128914
 11
343.3193171075
 21
293.073128914
  0
LINE
  5
21D
100
AcDbEntity
  8
4
  6
CONTINUOUS
 62
    7
370
   -1
100
AcDbLine
 10
321.3193171075
 20
304.073128914
 11
310.3193171075
 21
304.073128914
  0
LINE
  5
21E
100
AcDbEntity
  8
4
  6
CONTINUOUS
 62
    7
370
   -1
100
AcDbLine
 10
321.3193171075
 20
293.073128914
 11
321.3193171075
 21
304.073128914
  0
LINE
  5
21F
100
AcDbEntity
  8
4
  6
CONTINUOUS
 62
    7
370
   -1
100
AcDbLine
 10
332.3193171075
 20
304.073128914
 11
332.3193171075
 21
293.073128914
  0
LINE
  5
220
100
AcDbEntity
  8
4
  6
CONTINUOUS
 62
    7
370
   -1
100
AcDbLine
 10
332.3193171075
 20
293.073128914
 11
321.3193171075
 21
293.073128914
  0
LINE
  5
221
100
AcDbEntity
  8
4
  6
CONTINUOUS
 62
    7
370
   -1
100
AcDbLine
 10
299.3193171075
 20
304.073128914
 11
274.3193171075
 21
304.073128914
  0
LINE
  5
222
100
AcDbEntity
  8
4
  6
CONTINUOUS
 62
    7
370
   -1
100
AcDbLine
 10
299.3193171075
 20
293.073128914
 11
299.3193171075
 21
304.073128914
  0
LINE
  5
223
100
AcDbEntity
  8
4
  6
CONTINUOUS
 62
    7
370
   -1
100
AcDbLine
 10
310.3193171075
 20
304.073128914
 11
310.3193171075
 21
293.073128914
  0
LINE
  5
224
100
AcDbEntity
  8
4
  6
CONTINUOUS
 62
    7
370
   -1
100
AcDbLine
 10
310.3193171075
 20
293.073128914
 11
307.8193171075
 21
293.073128914
  0
LINE
  5
225
100
AcDbEntity
  8
4
  6
CONTINUOUS
 62
    7
370
   -1
100
AcDbLine
 10
365.3193171075
 20
304.073128914
 11
354.3193171075
 21
304.073128914
  0
LINE
  5
226
100
AcDbEntity
  8
4
  6
CONTINUOUS
 62
    7
370
   -1
100
AcDbLine
 10
376.3193171075
 20
293.073128914
 11
372.8193171075
 21
293.073128914
  0
LINE
  5
227
100
AcDbEntity
  8
4
  6
CONTINUOUS
 62
    7
370
   -1
100
AcDbLine
 10
365.3193171075
 20
293.073128914
 11
365.3193171075
 21
304.073128914
  0
LINE
  5
228
100
AcDbEntity
  8
4
  6
CONTINUOUS
 62
    7
370
   -1
100
AcDbLine
 10
376.3193171075
 20
304.073128914
 11
376.3193171075
 21
293.073128914
  0
LINE
  5
229
100
AcDbEntity
  8
4
  6
CONTINUOUS
 62
    7
370
   -1
100
AcDbLine
 10
367.8193171075
 20
293.073128914
 11
365.3193171075
 21
293.073128914
  0
LINE
  5
22A
100
AcDbEntity
  8
4
  6
CONTINUOUS
 62
    7
370
   -1
100
AcDbLine
 10
372.8193171075
 20
253.073128914
 11
367.8193171075
 21
253.073128914
  0
LINE
  5
22B
100
AcDbEntity
  8
4
  6
CONTINUOUS
 62
    7
370
   -1
100
AcDbLine
 10
367.8193171075
 20
253.073128914
 11
367.8193171075
 21
293.073128914
  0
LINE
  5
22C
100
AcDbEntity
  8
4
  6
CONTINUOUS
 62
    7
370
   -1
100
AcDbLine
 10
372.8193171075
 20
293.073128914
 11
372.8193171075
 21
253.073128914
  0
LINE
  5
22D
100
AcDbEntity
  8
4
  6
CONTINUOUS
 62
    7
370
   -1
100
AcDbLine
 10
302.8193171075
 20
293.073128914
 11
299.3193171075
 21
293.073128914
  0
LINE
  5
22E
100
AcDbEntity
  8
4
  6
CONTINUOUS
 62
    7
370
   -1
100
AcDbLine
 10
302.8193171075
 20
293.073128914
 11
302.8193171075
 21
253.073128914
  0
LINE
  5
22F
100
AcDbEntity
  8
4
  6
CONTINUOUS
 62
    7
370
   -1
100
AcDbLine
 10
302.8193171075
 20
253.073128914
 11
307.8193171075
 21
253.073128914
  0
LINE
  5
230
100
AcDbEntity
  8
4
  6
CONTINUOUS
 62
    7
370
   -1
100
AcDbLine
 10
307.8193171075
 20
253.073128914
 11
307.8193171075
 21
293.073128914
  0
LINE
  5
231
100
AcDbEntity
  8
4
  6
CONTINUOUS
 62
    7
370
   -1
100
AcDbLine
 10
594.3193171075
 20
304.073128914
 11
583.3193171075
 21
304.073128914
  0
LINE
  5
232
100
AcDbEntity
  8
4
  6
CONTINUOUS
 62
    7
370
   -1
100
AcDbLine
 10
605.3193171075
 20
293.073128914
 11
594.3193171075
 21
293.073128914
  0
LINE
  5
233
100
AcDbEntity
  8
4
  6
CONTINUOUS
 62
    7
370
   -1
100
AcDbLine
 10
605.3193171075
 20
304.073128914
 11
605.3193171075
 21
293.073128914
  0
LINE
  5
234
100
AcDbEntity
  8
4
  6
CONTINUOUS
 62
    7
370
   -1
100
AcDbLine
 10
594.3193171075
 20
293.073128914
 11
594.3193171075
 21
304.073128914
  0
LINE
  5
235
100
AcDbEntity
  8
4
  6
CONTINUOUS
 62
    7
370
   -1
100
AcDbLine
 10
616.3193171075
 20
304.073128914
 11
605.3193171075
 21
304.073128914
  0
LINE
  5
236
100
AcDbEntity
  8
4
  6
CONTINUOUS
 62
    7
370
   -1
100
AcDbLine
 10
627.3193171075
 20
293.073128914
 11
616.3193171075
 21
293.073128914
  0
LINE
  5
237
100
AcDbEntity
  8
4
  6
CONTINUOUS
 62
    7
370
   -1
100
AcDbLine
 10
627.3193171075
 20
304.073128914
 11
627.3193171075
 21
293.073128914
  0
LINE
  5
238
100
AcDbEntity
  8
4
  6
CONTINUOUS
 62
    7
370
   -1
100
AcDbLine
 10
616.3193171075
 20
293.073128914
 11
616.3193171075
 21
304.073128914
  0
LINE
  5
239
100
AcDbEntity
  8
4
  6
CONTINUOUS
 62
    7
370
   -1
100
AcDbLine
 10
638.3193171075
 20
304.073128914
 11
627.3193171075
 21
304.073128914
  0
LINE
  5
23A
100
AcDbEntity
  8
4
  6
CONTINUOUS
 62
    7
370
   -1
100
AcDbLine
 10
649.3193171075
 20
293.073128914
 11
645.8193171075
 21
293.073128914
  0
LINE
  5
23B
100
AcDbEntity
  8
4
  6
CONTINUOUS
 62
    7
370
   -1
100
AcDbLine
 10
649.3193171075
 20
304.073128914
 11
649.3193171075
 21
293.073128914
  0
LINE
  5
23C
100
AcDbEntity
  8
4
  6
CONTINUOUS
 62
    7
370
   -1
100
AcDbLine
 10
638.3193171075
 20
293.073128914
 11
638.3193171075
 21
304.073128914
  0
LINE
  5
23D
100
AcDbEntity
  8
4
  6
CONTINUOUS
 62
    7
370
   -1
100
AcDbLine
 10
572.3193171075
 20
304.073128914
 11
547.3193171075
 21
304.073128914
  0
LINE
  5
23E
100
AcDbEntity
  8
4
  6
CONTINUOUS
 62
    7
370
   -1
100
AcDbLine
 10
583.3193171075
 20
293.073128914
 11
580.8193171075
 21
293.073128914
  0
LINE
  5
23F
100
AcDbEntity
  8
4
  6
CONTINUOUS
 62
    7
370
   -1
100
AcDbLine
 10
583.3193171075
 20
304.073128914
 11
583.3193171075
 21
293.073128914
  0
LINE
  5
240
100
AcDbEntity
  8
4
  6
CONTINUOUS
 62
    7
370
   -1
100
AcDbLine
 10
572.3193171075
 20
293.073128914
 11
572.3193171075
 21
304.073128914
  0
LINE
  5
241
100
AcDbEntity
  8
4
  6
CONTINUOUS
 62
    7
370
   -1
100
AcDbLine
 10
575.8193171075
 20
293.073128914
 11
572.3193171075
 21
293.073128914
  0
LINE
  5
242
100
AcDbEntity
  8
4
  6
CONTINUOUS
 62
    7
370
   -1
100
AcDbLine
 10
580.8193171075
 20
253.073128914
 11
575.8193171075
 21
253.073128914
  0
LINE
  5
243
100
AcDbEntity
  8
4
  6
CONTINUOUS
 62
    7
370
   -1
100
AcDbLine
 10
575.8193171075
 20
253.073128914
 11
575.8193171075
 21
293.073128914
  0
LINE
  5
244
100
AcDbEntity
  8
4
  6
CONTINUOUS
 62
    7
370
   -1
100
AcDbLine
 10
580.8193171075
 20
293.073128914
 11
580.8193171075
 21
253.073128914
  0
LINE
  5
245
100
AcDbEntity
  8
4
  6
CONTINUOUS
 62
    7
370
   -1
100
AcDbLine
 10
640.8193171075
 20
293.073128914
 11
638.3193171075
 21
293.073128914
  0
LINE
  5
246
100
AcDbEntity
  8
4
  6
CONTINUOUS
 62
    7
370
   -1
100
AcDbLine
 10
640.8193171075
 20
293.073128914
 11
640.8193171075
 21
253.073128914
  0
LINE
  5
247
100
AcDbEntity
  8
4
  6
CONTINUOUS
 62
    7
370
   -1
100
AcDbLine
 10
640.8193171075
 20
253.073128914
 11
645.8193171075
 21
253.073128914
  0
LINE
  5
248
100
AcDbEntity
  8
4
  6
CONTINUOUS
 62
    7
370
   -1
100
AcDbLine
 10
645.8193171075
 20
253.073128914
 11
645.8193171075
 21
293.073128914
  0
LINE
  5
249
100
AcDbEntity
  8
4
  6
CONTINUOUS
 62
    7
370
   -1
100
AcDbLine
 10
415.8193171075
 20
218.073128914
 11
428.8193171075
 21
218.073128914
  0
LINE
  5
24A
100
AcDbEntity
  8
4
  6
CONTINUOUS
 62
    7
370
   -1
100
AcDbLine
 10
441.8193171075
 20
218.073128914
 11
454.8193171075
 21
218.073128914
  0
LINE
  5
24B
100
AcDbEntity
  8
4
  6
CONTINUOUS
 62
    7
370
   -1
100
AcDbLine
 10
467.8193171075
 20
218.073128914
 11
480.8193171075
 21
218.073128914
  0
LINE
  5
24C
100
AcDbEntity
  8
4
  6
CONTINUOUS
 62
    7
370
   -1
100
AcDbLine
 10
402.8193171075
 20
218.073128914
 11
402.8193171075
 21
205.073128914
  0
LINE
  5
24D
100
AcDbEntity
  8
4
  6
CONTINUOUS
 62
    7
370
   -1
100
AcDbLine
 10
402.8193171075
 20
205.073128914
 11
415.8193171075
 21
205.073128914
  0
LINE
  5
24E
100
AcDbEntity
  8
4
  6
CONTINUOUS
 62
    7
370
   -1
100
AcDbLine
 10
415.8193171075
 20
205.073128914
 11
415.8193171075
 21
218.073128914
  0
LINE
  5
24F
100
AcDbEntity
  8
4
  6
CONTINUOUS
 62
    7
370
   -1
100
AcDbLine
 10
428.8193171075
 20
218.073128914
 11
428.8193171075
 21
205.073128914
  0
LINE
  5
250
100
AcDbEntity
  8
4
  6
CONTINUOUS
 62
    7
370
   -1
100
AcDbLine
 10
428.8193171075
 20
205.073128914
 11
441.8193171075
 21
205.073128914
  0
LINE
  5
251
100
AcDbEntity
  8
4
  6
CONTINUOUS
 62
    7
370
   -1
100
AcDbLine
 10
441.8193171075
 20
205.073128914
 11
441.8193171075
 21
218.073128914
  0
LINE
  5
252
100
AcDbEntity
  8
4
  6
CONTINUOUS
 62
    7
370
   -1
100
AcDbLine
 10
454.8193171075
 20
218.073128914
 11
454.8193171075
 21
205.073128914
  0
LINE
  5
253
100
AcDbEntity
  8
4
  6
CONTINUOUS
 62
    7
370
   -1
100
AcDbLine
 10
454.8193171075
 20
205.073128914
 11
467.8193171075
 21
205.073128914
  0
LINE
  5
254
100
AcDbEntity
  8
4
  6
CONTINUOUS
 62
    7
370
   -1
100
AcDbLine
 10
467.8193171075
 20
205.073128914
 11
467.8193171075
 21
218.073128914
  0
LINE
  5
255
100
AcDbEntity
  8
4
  6
CONTINUOUS
 62
    7
370
   -1
100
AcDbLine
 10
493.8193171075
 20
218.073128914
 11
506.8193171075
 21
218.073128914
  0
LINE
  5
256
100
AcDbEntity
  8
4
  6
CONTINUOUS
 62
    7
370
   -1
100
AcDbLine
 10
519.8193171075
 20
218.073128914
 11
532.8193171075
 21
218.073128914
  0
LINE
  5
257
100
AcDbEntity
  8
4
  6
CONTINUOUS
 62
    7
370
   -1
100
AcDbLine
 10
545.8193171075
 20
218.073128914
 11
556.8193171075
 21
218.073128914
  0
LINE
  5
258
100
AcDbEntity
  8
4
  6
CONTINUOUS
 62
    7
370
   -1
100
AcDbLine
 10
480.8193171075
 20
218.073128914
 11
480.8193171075
 21
205.073128914
  0
LINE
  5
259
100
AcDbEntity
  8
4
  6
CONTINUOUS
 62
    7
370
   -1
100
AcDbLine
 10
480.8193171075
 20
205.073128914
 11
493.8193171075
 21
205.073128914
  0
LINE
  5
25A
100
AcDbEntity
  8
4
  6
CONTINUOUS
 62
    7
370
   -1
100
AcDbLine
 10
493.8193171075
 20
205.073128914
 11
493.8193171075
 21
218.073128914
  0
LINE
  5
25B
100
AcDbEntity
  8
4
  6
CONTINUOUS
 62
    7
370
   -1
100
AcDbLine
 10
506.8193171075
 20
218.073128914
 11
506.8193171075
 21
205.073128914
  0
LINE
  5
25C
100
AcDbEntity
  8
4
  6
CONTINUOUS
 62
    7
370
   -1
100
AcDbLine
 10
506.8193171075
 20
205.073128914
 11
519.8193171075
 21
205.073128914
  0
LINE
  5
25D
100
AcDbEntity
  8
4
  6
CONTINUOUS
 62
    7
370
   -1
100
AcDbLine
 10
519.8193171075
 20
205.073128914
 11
519.8193171075
 21
218.073128914
  0
LINE
  5
25E
100
AcDbEntity
  8
4
  6
CONTINUOUS
 62
    7
370
   -1
100
AcDbLine
 10
532.8193171075
 20
218.073128914
 11
532.8193171075
 21
205.073128914
  0
LINE
  5
25F
100
AcDbEntity
  8
4
  6
CONTINUOUS
 62
    7
370
   -1
100
AcDbLine
 10
532.8193171075
 20
205.073128914
 11
545.8193171075
 21
205.073128914
  0
LINE
  5
260
100
AcDbEntity
  8
4
  6
CONTINUOUS
 62
    7
370
   -1
100
AcDbLine
 10
545.8193171075
 20
205.073128914
 11
545.8193171075
 21
218.073128914
  0
LINE
  5
261
100
AcDbEntity
  8
4
  6
CONTINUOUS
 62
    7
370
   -1
100
AcDbLine
 10
645.8193171075
 20
104.073128914
 11
648.8193171075
 21
104.073128914
  0
LINE
  5
262
100
AcDbEntity
  8
4
  6
CONTINUOUS
 62
    7
370
   -1
100
AcDbLine
 10
640.8193171075
 20
134.073128914
 11
640.8193171075
 21
104.073128914
  0
LINE
  5
263
100
AcDbEntity
  8
4
  6
CONTINUOUS
 62
    7
370
   -1
100
AcDbLine
 10
645.8193171075
 20
104.073128914
 11
645.8193171075
 21
134.073128914
  0
LINE
  5
264
100
AcDbEntity
  8
4
  6
CONTINUOUS
 62
    7
370
   -1
100
AcDbLine
 10
645.8193171075
 20
134.073128914
 11
640.8193171075
 21
134.073128914
  0
LINE
  5
265
100
AcDbEntity
  8
4
  6
CONTINUOUS
 62
    7
370
   -1
100
AcDbLine
 10
307.8193171075
 20
104.073128914
 11
327.8193171075
 21
104.073128914
  0
LINE
  5
266
100
AcDbEntity
  8
4
  6
CONTINUOUS
 62
    7
370
   -1
100
AcDbLine
 10
302.8193171075
 20
134.073128914
 11
307.8193171075
 21
134.073128914
  0
LINE
  5
267
100
AcDbEntity
  8
4
  6
CONTINUOUS
 62
    7
370
   -1
100
AcDbLine
 10
307.8193171075
 20
134.073128914
 11
307.8193171075
 21
104.073128914
  0
LINE
  5
268
100
AcDbEntity
  8
4
  6
CONTINUOUS
 62
    7
370
   -1
100
AcDbLine
 10
302.8193171075
 20
104.073128914
 11
302.8193171075
 21
134.073128914
  0
ARC
  5
269
100
AcDbEntity
  8
4
  6
CONTINUOUS
 62
    7
370
   -1
100
AcDbCircle
 10
608.0693171075
 20
250.073128914
 40
11.00000000000001
100
AcDbArc
 50
0
 51
180
  0
LINE
  5
26A
100
AcDbEntity
  8
4
  6
CONTINUOUS
 62
    7
370
   -1
100
AcDbLine
 10
597.0693171075
 20
250.073128914
 11
597.0693171075
 21
228.073128914
  0
LINE
  5
26B
100
AcDbEntity
  8
4
  6
CONTINUOUS
 62
    7
370
   -1
100
AcDbLine
 10
597.0693171075
 20
228.073128914
 11
619.0693171075
 21
228.073128914
  0
LINE
  5
26C
100
AcDbEntity
  8
4
  6
CONTINUOUS
 62
    7
370
   -1
100
AcDbLine
 10
619.0693171075
 20
228.073128914
 11
619.0693171075
 21
250.073128914
  0
LINE
  5
26D
100
AcDbEntity
  8
4
  6
CONTINUOUS
 62
    7
370
   -1
100
AcDbLine
 10
329.5693171075
 20
250.073128914
 11
329.5693171075
 21
228.073128914
  0
LINE
  5
26E
100
AcDbEntity
  8
4
  6
CONTINUOUS
 62
    7
370
   -1
100
AcDbLine
 10
329.5693171075
 20
228.073128914
 11
351.5693171075
 21
228.073128914
  0
LINE
  5
26F
100
AcDbEntity
  8
4
  6
CONTINUOUS
 62
    7
370
   -1
100
AcDbLine
 10
351.5693171075
 20
228.073128914
 11
351.5693171075
 21
250.073128914
  0
ARC
  5
270
100
AcDbEntity
  8
4
  6
CONTINUOUS
 62
    7
370
   -1
100
AcDbCircle
 10
340.5693171075
 20
250.073128914
 40
10.99999999999998
100
AcDbArc
 50
0
 51
180
  0
LINE
  5
271
100
AcDbEntity
  8
4
  6
CONTINUOUS
 62
    7
370
   -1
100
AcDbLine
 10
299.8193171075
 20
104.073128914
 11
302.8193171075
 21
104.073128914
  0
LINE
  5
272
100
AcDbEntity
  8
4
  6
CONTINUOUS
 62
    7
370
   -1
100
AcDbLine
 10
290.3193171075
 20
113.573128914
 11
299.8193171075
 21
104.073128914
  0
LINE
  5
273
100
AcDbEntity
  8
4
  6
CONTINUOUS
 62
    7
370
   -1
100
AcDbLine
 10
648.8193171075
 20
104.073128914
 11
658.3193171075
 21
113.573128914
  0
LINE
  5
274
100
AcDbEntity
  8
4
  6
CONTINUOUS
 62
    7
370
   -1
100
AcDbLine
 10
547.3193171075
 20
181.073128914
 11
547.3193171075
 21
186.073128914
  0
LINE
  5
275
100
AcDbEntity
  8
4
  6
CONTINUOUS
 62
    7
370
   -1
100
AcDbLine
 10
547.3193171075
 20
186.073128914
 11
556.8193171075
 21
186.073128914
  0
LINE
  5
276
100
AcDbEntity
  8
4
  6
CONTINUOUS
 62
    7
370
   -1
100
AcDbLine
 10
556.8193171075
 20
186.073128914
 11
556.8193171075
 21
181.073128914
  0
LINE
  5
277
100
AcDbEntity
  8
4
  6
CONTINUOUS
 62
    7
370
   -1
100
AcDbLine
 10
556.8193171075
 20
181.073128914
 11
547.3193171075
 21
181.073128914
  0
LINE
  5
278
100
AcDbEntity
  8
4
  6
CONTINUOUS
 62
    7
370
   -1
100
AcDbLine
 10
391.8193171075
 20
181.073128914
 11
391.8193171075
 21
186.073128914
  0
LINE
  5
279
100
AcDbEntity
  8
4
  6
CONTINUOUS
 62
    7
370
   -1
100
AcDbLine
 10
391.8193171075
 20
186.073128914
 11
401.2907293104
 21
186.073128914
  0
LINE
  5
27A
100
AcDbEntity
  8
4
  6
CONTINUOUS
 62
    7
370
   -1
100
AcDbLine
 10
401.2907293104
 20
186.073128914
 11
401.2907293104
 21
181.073128914
  0
LINE
  5
27B
100
AcDbEntity
  8
4
  6
CONTINUOUS
 62
    7
370
   -1
100
AcDbLine
 10
401.2907293104
 20
181.073128914
 11
391.8193171075
 21
181.073128914
  0
LINE
  5
27C
100
AcDbEntity
  8
4
  6
CONTINUOUS
 62
    7
370
   -1
100
AcDbLine
 10
436.3193171075
 20
167.573128914
 11
512.3193171075
 21
167.573128914
  0
ARC
  5
27D
100
AcDbEntity
  8
4
  6
CONTINUOUS
 62
    7
370
   -1
100
AcDbCircle
 10
436.3193171075
 20
129.573128914
 40
38
100
AcDbArc
 50
90
 51
180
  0
LINE
  5
27E
100
AcDbEntity
  8
4
  6
CONTINUOUS
 62
    7
370
   -1
100
AcDbLine
 10
550.3193171075
 20
129.573128914
 11
550.3193171075
 21
104.073128914
  0
ARC
  5
27F
100
AcDbEntity
  8
4
  6
CONTINUOUS
 62
    7
370
   -1
100
AcDbCircle
 10
512.3193171075
 20
129.573128914
 40
38.00000000000001
100
AcDbArc
 50
0
 51
90
  0
ENDBLK
  5
6E
330
6C
100
AcDbEntity
  8
0
100
AcDbBlockEnd
  0
BLOCK
  5
70
330
6F
100
AcDbEntity
  8
0
100
AcDbBlockBegin
  2
SE7
 70
    0
 10
0
 20
0
  3
SE7
  1

  0
LINE
  5
280
100
AcDbEntity
  8
7
  6
CONTINUOUS
 62
    7
370
   -1
100
AcDbLine
 10
492.4289564275
 20
359.5565815559
 11
501.9289564275
 21
359.5565815559
  0
LINE
  5
281
100
AcDbEntity
  8
7
  6
CONTINUOUS
 62
    7
370
   -1
100
AcDbLine
 10
492.4289564275
 20
419.5565815559
 11
492.4289564275
 21
359.5565815559
  0
LINE
  5
282
100
AcDbEntity
  8
7
  6
CONTINUOUS
 62
    7
370
   -1
100
AcDbLine
 10
552.4289564275
 20
419.5565815559
 11
542.9289564275
 21
419.5565815559
  0
LINE
  5
283
100
AcDbEntity
  8
7
  6
CONTINUOUS
 62
    7
370
   -1
100
AcDbLine
 10
552.4289564275
 20
359.5565815559
 11
552.4289564275
 21
419.5565815559
  0
LINE
  5
284
100
AcDbEntity
  8
7
  6
CONTINUOUS
 62
    7
370
   -1
100
AcDbLine
 10
501.9289564275
 20
419.5565815559
 11
492.4289564275
 21
419.5565815559
  0
LINE
  5
285
100
AcDbEntity
  8
7
  6
CONTINUOUS
 62
    7
370
   -1
100
AcDbLine
 10
501.9289564275
 20
424.5565815559
 11
501.9289564275
 21
419.5565815559
  0
LINE
  5
286
100
AcDbEntity
  8
7
  6
CONTINUOUS
 62
    7
370
   -1
100
AcDbLine
 10
511.4289564275
 20
419.5565815559
 11
511.4289564275
 21
424.5565815559
  0
LINE
  5
287
100
AcDbEntity
  8
7
  6
CONTINUOUS
 62
    7
370
   -1
100
AcDbLine
 10
511.4289564275
 20
424.5565815559
 11
501.9289564275
 21
424.5565815559
  0
LINE
  5
288
100
AcDbEntity
  8
7
  6
CONTINUOUS
 62
    7
370
   -1
100
AcDbLine
 10
533.4289564275
 20
419.5565815559
 11
511.4289564275
 21
419.5565815559
  0
LINE
  5
289
100
AcDbEntity
  8
7
  6
CONTINUOUS
 62
    7
370
   -1
100
AcDbLine
 10
533.4289564275
 20
424.5565815559
 11
533.4289564275
 21
419.5565815559
  0
LINE
  5
28A
100
AcDbEntity
  8
7
  6
CONTINUOUS
 62
    7
370
   -1
100
AcDbLine
 10
542.9289564275
 20
419.5565815559
 11
542.9289564275
 21
424.5565815559
  0
LINE
  5
28B
100
AcDbEntity
  8
7
  6
CONTINUOUS
 62
    7
370
   -1
100
AcDbLine
 10
542.9289564275
 20
424.5565815559
 11
533.4289564275
 21
424.5565815559
  0
LINE
  5
28C
100
AcDbEntity
  8
7
  6
CONTINUOUS
 62
    7
370
   -1
100
AcDbLine
 10
511.4289564275
 20
359.5565815559
 11
533.4289564275
 21
359.5565815559
  0
LINE
  5
28D
100
AcDbEntity
  8
7
  6
CONTINUOUS
 62
    7
370
   -1
100
AcDbLine
 10
501.9289564275
 20
354.5565815559
 11
501.9289564275
 21
359.5565815559
  0
LINE
  5
28E
100
AcDbEntity
  8
7
  6
CONTINUOUS
 62
    7
370
   -1
100
AcDbLine
 10
511.4289564275
 20
359.5565815559
 11
511.4289564275
 21
354.5565815559
  0
LINE
  5
28F
100
AcDbEntity
  8
7
  6
CONTINUOUS
 62
    7
370
   -1
100
AcDbLine
 10
511.4289564275
 20
354.5565815559
 11
501.9289564275
 21
354.5565815559
  0
LINE
  5
290
100
AcDbEntity
  8
7
  6
CONTINUOUS
 62
    7
370
   -1
100
AcDbLine
 10
542.9289564275
 20
359.5565815559
 11
552.4289564275
 21
359.5565815559
  0
LINE
  5
291
100
AcDbEntity
  8
7
  6
CONTINUOUS
 62
    7
370
   -1
100
AcDbLine
 10
533.4289564275
 20
354.5565815559
 11
533.4289564275
 21
359.5565815559
  0
LINE
  5
292
100
AcDbEntity
  8
7
  6
CONTINUOUS
 62
    7
370
   -1
100
AcDbLine
 10
542.9289564275
 20
359.5565815559
 11
542.9289564275
 21
354.5565815559
  0
LINE
  5
293
100
AcDbEntity
  8
7
  6
CONTINUOUS
 62
    7
370
   -1
100
AcDbLine
 10
542.9289564275
 20
354.5565815559
 11
533.4289564275
 21
354.5565815559
  0
ENDBLK
  5
71
330
6F
100
AcDbEntity
  8
0
100
AcDbBlockEnd
  0
BLOCK
  5
73
330
72
100
AcDbEntity
  8
0
100
AcDbBlockBegin
  2
SE8
 70
    0
 10
0
 20
0
  3
SE8
  1

  0
LINE
  5
294
100
AcDbEntity
  8
8
  6
CONTINUOUS
 62
    7
370
   -1
100
AcDbLine
 10
725.1856240778
 20
421.717106645
 11
719.1856240778
 21
421.717106645
  0
LINE
  5
295
100
AcDbEntity
  8
8
  6
CONTINUOUS
 62
    7
370
   -1
100
AcDbLine
 10
623.1856240778
 20
421.717106645
 11
623.1856240778
 21
353.717106645
  0
LINE
  5
296
100
AcDbEntity
  8
8
  6
CONTINUOUS
 62
    7
370
   -1
100
AcDbLine
 10
623.1856240778
 20
353.717106645
 11
714.1856240778
 21
353.717106645
  0
LINE
  5
297
100
AcDbEntity
  8
8
  6
CONTINUOUS
 62
    7
370
   -1
100
AcDbLine
 10
725.1856240778
 20
353.717106645
 11
725.1856240778
 21
421.717106645
  0
LINE
  5
298
100
AcDbEntity
  8
8
  6
CONTINUOUS
 62
    7
370
   -1
100
AcDbLine
 10
714.1856240778
 20
421.717106645
 11
623.1856240778
 21
421.717106645
  0
LINE
  5
299
100
AcDbEntity
  8
8
  6
CONTINUOUS
 62
    7
370
   -1
100
AcDbLine
 10
714.1856240778
 20
426.717106645
 11
714.1856240778
 21
421.717106645
  0
LINE
  5
29A
100
AcDbEntity
  8
8
  6
CONTINUOUS
 62
    7
370
   -1
100
AcDbLine
 10
719.1856240778
 20
421.717106645
 11
719.1856240778
 21
426.717106645
  0
LINE
  5
29B
100
AcDbEntity
  8
8
  6
CONTINUOUS
 62
    7
370
   -1
100
AcDbLine
 10
719.1856240778
 20
426.717106645
 11
714.1856240778
 21
426.717106645
  0
LINE
  5
29C
100
AcDbEntity
  8
8
  6
CONTINUOUS
 62
    7
370
   -1
100
AcDbLine
 10
719.1856240778
 20
353.717106645
 11
725.1856240778
 21
353.717106645
  0
LINE
  5
29D
100
AcDbEntity
  8
8
  6
CONTINUOUS
 62
    7
370
   -1
100
AcDbLine
 10
714.1856240778
 20
348.717106645
 11
714.1856240778
 21
353.717106645
  0
LINE
  5
29E
100
AcDbEntity
  8
8
  6
CONTINUOUS
 62
    7
370
   -1
100
AcDbLine
 10
719.1856240778
 20
353.717106645
 11
719.1856240778
 21
348.717106645
  0
LINE
  5
29F
100
AcDbEntity
  8
8
  6
CONTINUOUS
 62
    7
370
   -1
100
AcDbLine
 10
719.1856240778
 20
348.717106645
 11
714.1856240778
 21
348.717106645
  0
CIRCLE
  5
2A0
100
AcDbEntity
  8
8
  6
CONTINUOUS
 62
    7
370
   -1
100
AcDbCircle
 10
632.6856240778
 20
415.717106645
 40
1.5
  0
CIRCLE
  5
2A1
100
AcDbEntity
  8
8
  6
CONTINUOUS
 62
    7
370
   -1
100
AcDbCircle
 10
632.6856240778
 20
359.717106645
 40
1.5
  0
ENDBLK
  5
74
330
72
100
AcDbEntity
  8
0
100
AcDbBlockEnd
  0
BLOCK
  5
76
330
75
100
AcDbEntity
  8
0
100
AcDbBlockBegin
  2
SE9
 70
    0
 10
0
 20
0
  3
SE9
  1

  0
LINE
  5
2A2
100
AcDbEntity
  8
9
  6
CONTINUOUS
 62
    7
370
   -1
100
AcDbLine
 10
237.4718756031
 20
308.8581770758
 11
218.4718756031
 21
308.8581770758
  0
LINE
  5
2A3
100
AcDbEntity
  8
9
  6
CONTINUOUS
 62
    7
370
   -1
100
AcDbLine
 10
34.4718756031
 20
308.8581770758
 11
34.4718756031
 21
248.8581770758
  0
LINE
  5
2A4
100
AcDbEntity
  8
9
  6
CONTINUOUS
 62
    7
370
   -1
100
AcDbLine
 10
34.4718756031
 20
248.8581770758
 11
53.4718756031
 21
248.8581770758
  0
LINE
  5
2A5
100
AcDbEntity
  8
9
  6
CONTINUOUS
 62
    7
370
   -1
100
AcDbLine
 10
237.4718756031
 20
248.8581770758
 11
237.4718756031
 21
308.8581770758
  0
LINE
  5
2A6
100
AcDbEntity
  8
9
  6
CONTINUOUS
 62
    7
370
   -1
100
AcDbLine
 10
53.4718756031
 20
308.8581770758
 11
34.4718756031
 21
308.8581770758
  0
LINE
  5
2A7
100
AcDbEntity
  8
9
  6
CONTINUOUS
 62
    7
370
   -1
100
AcDbLine
 10
53.4718756031
 20
313.8581770758
 11
53.4718756031
 21
308.8581770758
  0
LINE
  5
2A8
100
AcDbEntity
  8
9
  6
CONTINUOUS
 62
    7
370
   -1
100
AcDbLine
 10
62.9718756031
 20
308.8581770758
 11
62.9718756031
 21
313.8581770758
  0
LINE
  5
2A9
100
AcDbEntity
  8
9
  6
CONTINUOUS
 62
    7
370
   -1
100
AcDbLine
 10
62.9718756031
 20
313.8581770758
 11
53.4718756031
 21
313.8581770758
  0
LINE
  5
2AA
100
AcDbEntity
  8
9
  6
CONTINUOUS
 62
    7
370
   -1
100
AcDbLine
 10
208.9718756031
 20
308.8581770758
 11
62.9718756031
 21
308.8581770758
  0
LINE
  5
2AB
100
AcDbEntity
  8
9
  6
CONTINUOUS
 62
    7
370
   -1
100
AcDbLine
 10
208.9718756031
 20
313.8581770758
 11
208.9718756031
 21
308.8581770758
  0
LINE
  5
2AC
100
AcDbEntity
  8
9
  6
CONTINUOUS
 62
    7
370
   -1
100
AcDbLine
 10
218.4718756031
 20
308.8581770758
 11
218.4718756031
 21
313.8581770758
  0
LINE
  5
2AD
100
AcDbEntity
  8
9
  6
CONTINUOUS
 62
    7
370
   -1
100
AcDbLine
 10
218.4718756031
 20
313.8581770758
 11
208.9718756031
 21
313.8581770758
  0
LINE
  5
2AE
100
AcDbEntity
  8
9
  6
CONTINUOUS
 62
    7
370
   -1
100
AcDbLine
 10
218.4718756031
 20
248.8581770758
 11
237.4718756031
 21
248.8581770758
  0
LINE
  5
2AF
100
AcDbEntity
  8
9
  6
CONTINUOUS
 62
    7
370
   -1
100
AcDbLine
 10
208.9718756031
 20
243.8581770758
 11
208.9718756031
 21
248.8581770758
  0
LINE
  5
2B0
100
AcDbEntity
  8
9
  6
CONTINUOUS
 62
    7
370
   -1
100
AcDbLine
 10
218.4718756031
 20
248.8581770758
 11
218.4718756031
 21
243.8581770758
  0
LINE
  5
2B1
100
AcDbEntity
  8
9
  6
CONTINUOUS
 62
    7
370
   -1
100
AcDbLine
 10
218.4718756031
 20
243.8581770758
 11
208.9718756031
 21
243.8581770758
  0
LINE
  5
2B2
100
AcDbEntity
  8
9
  6
CONTINUOUS
 62
    7
370
   -1
100
AcDbLine
 10
62.9718756031
 20
248.8581770758
 11
208.9718756031
 21
248.8581770758
  0
LINE
  5
2B3
100
AcDbEntity
  8
9
  6
CONTINUOUS
 62
    7
370
   -1
100
AcDbLine
 10
53.4718756031
 20
243.8581770758
 11
53.4718756031
 21
248.8581770758
  0
LINE
  5
2B4
100
AcDbEntity
  8
9
  6
CONTINUOUS
 62
    7
370
   -1
100
AcDbLine
 10
62.9718756031
 20
248.8581770758
 11
62.9718756031
 21
243.8581770758
  0
LINE
  5
2B5
100
AcDbEntity
  8
9
  6
CONTINUOUS
 62
    7
370
   -1
100
AcDbLine
 10
62.9718756031
 20
243.8581770758
 11
53.4718756031
 21
243.8581770758
  0
ENDBLK
  5
77
330
75
100
AcDbEntity
  8
0
100
AcDbBlockEnd
  0
BLOCK
  5
79
330
78
100
AcDbEntity
  8
0
100
AcDbBlockBegin
  2
SE10
 70
    0
 10
0
 20
0
  3
SE10
  1

  0
LINE
  5
2B6
100
AcDbEntity
  8
10
  6
CONTINUOUS
 62
    7
370
   -1
100
AcDbLine
 10
764.415431719
 20
268.2300500198
 11
834.415431719
 21
268.2300500198
  0
LINE
  5
2B7
100
AcDbEntity
  8
10
  6
CONTINUOUS
 62
    7
370
   -1
100
AcDbLine
 10
764.415431719
 20
601.2300500198
 11
764.415431719
 21
268.2300500198
  0
LINE
  5
2B8
100
AcDbEntity
  8
10
  6
CONTINUOUS
 62
    7
370
   -1
100
AcDbLine
 10
1097.415431719
 20
601.2300500198
 11
1027.415431719
 21
601.2300500198
  0
LINE
  5
2B9
100
AcDbEntity
  8
10
  6
CONTINUOUS
 62
    7
370
   -1
100
AcDbLine
 10
1097.415431719
 20
268.2300500198
 11
1097.415431719
 21
601.2300500198
  0
LINE
  5
2BA
100
AcDbEntity
  8
10
  6
CONTINUOUS
 62
    7
370
   -1
100
AcDbLine
 10
976.415431719
 20
601.2300500198
 11
885.415431719
 21
601.2300500198
  0
LINE
  5
2BB
100
AcDbEntity
  8
10
  6
CONTINUOUS
 62
    7
370
   -1
100
AcDbLine
 10
1027.415431719
 20
601.2300500198
 11
1027.415431719
 21
606.2300500198
  0
LINE
  5
2BC
100
AcDbEntity
  8
10
  6
CONTINUOUS
 62
    7
370
   -1
100
AcDbLine
 10
1027.415431719
 20
606.2300500198
 11
976.415431719
 21
606.2300500198
  0
LINE
  5
2BD
100
AcDbEntity
  8
10
  6
CONTINUOUS
 62
    7
370
   -1
100
AcDbLine
 10
976.415431719
 20
606.2300500198
 11
976.415431719
 21
601.2300500198
  0
LINE
  5
2BE
100
AcDbEntity
  8
10
  6
CONTINUOUS
 62
    7
370
   -1
100
AcDbLine
 10
834.415431719
 20
601.2300500198
 11
764.415431719
 21
601.2300500198
  0
LINE
  5
2BF
100
AcDbEntity
  8
10
  6
CONTINUOUS
 62
    7
370
   -1
100
AcDbLine
 10
885.415431719
 20
601.2300500198
 11
885.415431719
 21
606.2300500198
  0
LINE
  5
2C0
100
AcDbEntity
  8
10
  6
CONTINUOUS
 62
    7
370
   -1
100
AcDbLine
 10
885.415431719
 20
606.2300500198
 11
834.415431719
 21
606.2300500198
  0
LINE
  5
2C1
100
AcDbEntity
  8
10
  6
CONTINUOUS
 62
    7
370
   -1
100
AcDbLine
 10
834.415431719
 20
606.2300500198
 11
834.415431719
 21
601.2300500198
  0
LINE
  5
2C2
100
AcDbEntity
  8
10
  6
CONTINUOUS
 62
    7
370
   -1
100
AcDbLine
 10
1027.415431719
 20
268.2300500198
 11
1097.415431719
 21
268.2300500198
  0
LINE
  5
2C3
100
AcDbEntity
  8
10
  6
CONTINUOUS
 62
    7
370
   -1
100
AcDbLine
 10
1027.415431719
 20
263.2300500198
 11
1027.415431719
 21
268.2300500198
  0
LINE
  5
2C4
100
AcDbEntity
  8
10
  6
CONTINUOUS
 62
    7
370
   -1
100
AcDbLine
 10
976.415431719
 20
268.2300500198
 11
976.415431719
 21
263.2300500198
  0
LINE
  5
2C5
100
AcDbEntity
  8
10
  6
CONTINUOUS
 62
    7
370
   -1
100
AcDbLine
 10
976.415431719
 20
263.2300500198
 11
1027.415431719
 21
263.2300500198
  0
LINE
  5
2C6
100
AcDbEntity
  8
10
  6
CONTINUOUS
 62
    7
370
   -1
100
AcDbLine
 10
885.415431719
 20
268.2300500198
 11
976.415431719
 21
268.2300500198
  0
LINE
  5
2C7
100
AcDbEntity
  8
10
  6
CONTINUOUS
 62
    7
370
   -1
100
AcDbLine
 10
885.415431719
 20
263.2300500198
 11
885.415431719
 21
268.2300500198
  0
LINE
  5
2C8
100
AcDbEntity
  8
10
  6
CONTINUOUS
 62
    7
370
   -1
100
AcDbLine
 10
834.415431719
 20
268.2300500198
 11
834.415431719
 21
263.2300500198
  0
LINE
  5
2C9
100
AcDbEntity
  8
10
  6
CONTINUOUS
 62
    7
370
   -1
100
AcDbLine
 10
834.415431719
 20
263.2300500198
 11
885.415431719
 21
263.2300500198
  0
ENDBLK
  5
7A
330
78
100
AcDbEntity
  8
0
100
AcDbBlockEnd
  0
ENDSEC
  0
SECTION
  2
ENTITIES
  0
INSERT
  5
2CA
100
AcDbEntity
  8
DEFAULT
  6
ByLayer
 62
  256
370
   -1
100
AcDbBlockReference
  2
SE
 10
0
 20
0
 30
0
 41
1
 42
1
 43
0
 50
0
 70
    1
 71
    1
 44
0
 45
0
  0
INSERT
  5
2CB
100
AcDbEntity
  8
DEFAULT
  6
ByLayer
 62
  256
370
   -1
100
AcDbBlockReference
  2
SE1
 10
0
 20
0
 30
0
 41
1
 42
1
 43
0
 50
0
 70
    1
 71
    1
 44
0
 45
0
  0
INSERT
  5
2CC
100
AcDbEntity
  8
DEFAULT
  6
ByLayer
 62
  256
370
   -1
100
AcDbBlockReference
  2
SE2
 10
0
 20
0
 30
0
 41
1
 42
1
 43
0
 50
0
 70
    1
 71
    1
 44
0
 45
0
  0
INSERT
  5
2CD
100
AcDbEntity
  8
DEFAULT
  6
ByLayer
 62
  256
370
   -1
100
AcDbBlockReference
  2
SE3
 10
0
 20
0
 30
0
 41
1
 42
1
 43
0
 50
0
 70
    1
 71
    1
 44
0
 45
0
  0
INSERT
  5
2CE
100
AcDbEntity
  8
DEFAULT
  6
ByLayer
 62
  256
370
   -1
100
AcDbBlockReference
  2
SE4
 10
0
 20
0
 30
0
 41
1
 42
1
 43
0
 50
0
 70
    1
 71
    1
 44
0
 45
0
  0
INSERT
  5
2CF
100
AcDbEntity
  8
DEFAULT
  6
ByLayer
 62
  256
370
   -1
100
AcDbBlockReference
  2
SE5
 10
0
 20
0
 30
0
 41
1
 42
1
 43
0
 50
0
 70
    1
 71
    1
 44
0
 45
0
  0
INSERT
  5
2D0
100
AcDbEntity
  8
DEFAULT
  6
ByLayer
 62
  256
370
   -1
100
AcDbBlockReference
  2
SE6
 10
0
 20
0
 30
0
 41
1
 42
1
 43
0
 50
0
 70
    1
 71
    1
 44
0
 45
0
  0
INSERT
  5
2D1
100
AcDbEntity
  8
DEFAULT
  6
ByLayer
 62
  256
370
   -1
100
AcDbBlockReference
  2
SE7
 10
0
 20
0
 30
0
 41
1
 42
1
 43
0
 50
0
 70
    1
 71
    1
 44
0
 45
0
  0
INSERT
  5
2D2
100
AcDbEntity
  8
DEFAULT
  6
ByLayer
 62
  256
370
   -1
100
AcDbBlockReference
  2
SE8
 10
0
 20
0
 30
0
 41
1
 42
1
 43
0
 50
0
 70
    1
 71
    1
 44
0
 45
0
  0
INSERT
  5
2D3
100
AcDbEntity
  8
DEFAULT
  6
ByLayer
 62
  256
370
   -1
100
AcDbBlockReference
  2
SE9
 10
0
 20
0
 30
0
 41
1
 42
1
 43
0
 50
0
 70
    1
 71
    1
 44
0
 45
0
  0
INSERT
  5
2D4
100
AcDbEntity
  8
DEFAULT
  6
ByLayer
 62
  256
370
   -1
100
AcDbBlockReference
  2
SE10
 10
0
 20
0
 30
0
 41
1
 42
1
 43
0
 50
0
 70
    1
 71
    1
 44
0
 45
0
  0
MTEXT
  5
2D5
100
AcDbEntity
  8
0
  6
ByLayer
 62
  256
370
   -1
100
AcDbMText
 10
355.4517709039616
 20
800.3472880811424
 30
0
 40
20
 41
479.047768888889
 71
    1
 72
    1
  1
WWW.CRAFTSMANSPACE.COM
  7
romanc
210
0
220
0
230
1
 50
0
 73
    2
 44
1
  0
ENDSEC
  0
SECTION
  2
OBJECTS
  0
DICTIONARY
  5
C
330
0
100
AcDbDictionary
281
    1
  3
ACAD_GROUP
350
D
  0
DICTIONARY
  5
D
330
C
100
AcDbDictionary
281
    1
  0
ENDSEC
  0
EOF
