  0
SECTION
  2
HEADER
  9
$ACADVER
  1
AC1009
  9
$DWGCODEPAGE
  3
ansi_1252
  9
$INSBASE
 10
0.0
 20
0.0
 30
0.0
  9
$EXTMIN
 10
-132.2365944816174
 20
-102.6424059924461
 30
0.0
  9
$EXTMAX
 10
191.5476849749826
 20
148.0491070744179
 30
0.0
  9
$LIMMIN
 10
0.0
 20
0.0
  9
$LIMMAX
 10
12.0
 20
9.0
  9
$ORTHOMODE
 70
     0
  9
$REGENMODE
 70
     1
  9
$FILLMODE
 70
     1
  9
$QTEXTMODE
 70
     0
  9
$MIRRTEXT
 70
     1
  9
$DRAGMODE
 70
     2
  9
$LTSCALE
 40
1.0
  9
$OSMODE
 70
    37
  9
$ATTMODE
 70
     1
  9
$TEXTSIZE
 40
0.2
  9
$TRACEWID
 40
0.05
  9
$TEXTSTYLE
  7
STANDARD
  9
$CLAYER
  8
DEFAULT
  9
$CELTYPE
  6
BYLAYER
  9
$CECOLOR
 62
   256
  9
$DIMSCALE
 40
1.0
  9
$DIMASZ
 40
0.18
  9
$DIMEXO
 40
0.0625
  9
$DIMDLI
 40
0.38
  9
$DIMRND
 40
0.0
  9
$DIMDLE
 40
0.0
  9
$DIMEXE
 40
0.18
  9
$DIMTP
 40
0.0
  9
$DIMTM
 40
0.0
  9
$DIMTXT
 40
0.18
  9
$DIMCEN
 40
0.09
  9
$DIMTSZ
 40
0.0
  9
$DIMTOL
 70
     0
  9
$DIMLIM
 70
     0
  9
$DIMTIH
 70
     1
  9
$DIMTOH
 70
     1
  9
$DIMSE1
 70
     0
  9
$DIMSE2
 70
     0
  9
$DIMTAD
 70
     0
  9
$DIMZIN
 70
     0
  9
$DIMBLK
  1

  9
$DIMASO
 70
     1
  9
$DIMSHO
 70
     1
  9
$DIMPOST
  1

  9
$DIMAPOST
  1

  9
$DIMALT
 70
     0
  9
$DIMALTD
 70
     2
  9
$DIMALTF
 40
25.4
  9
$DIMLFAC
 40
1.0
  9
$DIMTOFL
 70
     0
  9
$DIMTVP
 40
0.0
  9
$DIMTIX
 70
     0
  9
$DIMSOXD
 70
     0
  9
$DIMSAH
 70
     0
  9
$DIMBLK1
  1

  9
$DIMBLK2
  1

  9
$DIMSTYLE
  2
STANDARD
  9
$DIMCLRD
 70
     0
  9
$DIMCLRE
 70
     0
  9
$DIMCLRT
 70
     0
  9
$DIMTFAC
 40
1.0
  9
$DIMGAP
 40
0.09
  9
$LUNITS
 70
     2
  9
$LUPREC
 70
     4
  9
$SKETCHINC
 40
0.1
  9
$FILLETRAD
 40
0.5
  9
$AUNITS
 70
     0
  9
$AUPREC
 70
     0
  9
$MENU
  1
.
  9
$ELEVATION
 40
0.0
  9
$PELEVATION
 40
0.0
  9
$THICKNESS
 40
0.0
  9
$LIMCHECK
 70
     0
  9
$CHAMFERA
 40
0.0
  9
$CHAMFERB
 40
0.0
  9
$SKPOLY
 70
     0
  9
$TDCREATE
 40
2458801.820559063
  9
$TDUPDATE
 40
2458801.820575833
  9
$TDINDWG
 40
0.0000000116
  9
$TDUSRTIMER
 40
0.0000000116
  9
$USRTIMER
 70
     1
  9
$ANGBASE
 50
0.0
  9
$ANGDIR
 70
     0
  9
$PDMODE
 70
     0
  9
$PDSIZE
 40
0.0
  9
$PLINEWID
 40
0.0
  9
$COORDS
 70
     1
  9
$SPLFRAME
 70
     0
  9
$SPLINETYPE
 70
     6
  9
$SPLINESEGS
 70
     8
  9
$ATTDIA
 70
     0
  9
$ATTREQ
 70
     1
  9
$HANDLING
 70
     1
  9
$HANDSEED
  5
673
  9
$SURFTAB1
 70
     6
  9
$SURFTAB2
 70
     6
  9
$SURFTYPE
 70
     6
  9
$SURFU
 70
     6
  9
$SURFV
 70
     6
  9
$UCSNAME
  2

  9
$UCSORG
 10
0.0
 20
0.0
 30
0.0
  9
$UCSXDIR
 10
1.0
 20
0.0
 30
0.0
  9
$UCSYDIR
 10
0.0
 20
1.0
 30
0.0
  9
$PUCSNAME
  2

  9
$PUCSORG
 10
0.0
 20
0.0
 30
0.0
  9
$PUCSXDIR
 10
1.0
 20
0.0
 30
0.0
  9
$PUCSYDIR
 10
0.0
 20
1.0
 30
0.0
  9
$USERI1
 70
     0
  9
$USERI2
 70
     0
  9
$USERI3
 70
     0
  9
$USERI4
 70
     0
  9
$USERI5
 70
     0
  9
$USERR1
 40
0.0
  9
$USERR2
 40
0.0
  9
$USERR3
 40
0.0
  9
$USERR4
 40
0.0
  9
$USERR5
 40
0.0
  9
$WORLDVIEW
 70
     1
  9
$SHADEDGE
 70
     3
  9
$SHADEDIF
 70
    70
  9
$TILEMODE
 70
     1
  9
$MAXACTVP
 70
    64
  9
$PLIMCHECK
 70
     0
  9
$PEXTMIN
 10
1.000000000000000E+20
 20
1.000000000000000E+20
 30
1.000000000000000E+20
  9
$PEXTMAX
 10
-1.000000000000000E+20
 20
-1.000000000000000E+20
 30
-1.000000000000000E+20
  9
$PLIMMIN
 10
0.0
 20
0.0
  9
$PLIMMAX
 10
12.0
 20
9.0
  9
$UNITMODE
 70
     0
  9
$VISRETAIN
 70
     1
  9
$PLINEGEN
 70
     0
  9
$PSLTSCALE
 70
     1
  0
ENDSEC
  0
SECTION
  2
TABLES
  0
TABLE
  2
VPORT
 70
     1
  0
VPORT
  2
*ACTIVE
 70
     0
 10
0.0
 20
0.0
 11
1.0
 21
1.0
 12
29.65554524668255
 22
22.70335054098594
 13
0.0
 23
0.0
 14
0.5
 24
0.5
 15
0.5
 25
0.5
 16
0.0
 26
0.0
 36
1.0
 17
0.0
 27
0.0
 37
0.0
 40
255.7053433282013
 41
1.291564582683901
 42
50.0
 43
0.0
 44
0.0
 50
0.0
 51
0.0
 71
     0
 72
   100
 73
     1
 74
     3
 75
     0
 76
     0
 77
     0
 78
     0
  0
ENDTAB
  0
TABLE
  2
LTYPE
 70
     1
  0
LTYPE
  2
CONTINUOUS
 70
     0
  3
Solid line
 72
    65
 73
     0
 40
0.0
  0
ENDTAB
  0
TABLE
  2
LAYER
 70
     7
  0
LAYER
  2
0
 70
     0
 62
     7
  6
CONTINUOUS
  0
LAYER
  2
DEFAULT
 70
     0
 62
     7
  6
CONTINUOUS
  0
LAYER
  2
BACK
 70
     0
 62
     7
  6
CONTINUOUS
  0
LAYER
  2
FRONT
 70
     0
 62
     7
  6
CONTINUOUS
  0
LAYER
  2
BOTTOM_2
 70
     0
 62
     7
  6
CONTINUOUS
  0
LAYER
  2
BOTTOM
 70
     0
 62
     7
  6
CONTINUOUS
  0
LAYER
  2
SIDE
 70
     0
 62
     7
  6
CONTINUOUS
  0
ENDTAB
  0
TABLE
  2
STYLE
 70
     1
  0
STYLE
  2
STANDARD
 70
     0
 40
0.0
 41
1.0
 50
0.0
 71
     0
 42
0.2
  3
txt
  4

  0
ENDTAB
  0
TABLE
  2
VIEW
 70
     0
  0
ENDTAB
  0
TABLE
  2
UCS
 70
     0
  0
ENDTAB
  0
TABLE
  2
APPID
 70
     1
  0
APPID
  2
ACAD
 70
     0
  0
ENDTAB
  0
TABLE
  2
DIMSTYLE
 70
     1
  0
DIMSTYLE
  2
STANDARD
 70
     0
  3

  4

  5

  6

  7

 40
1.0
 41
0.18
 42
0.0625
 43
0.38
 44
0.18
 45
0.0
 46
0.0
 47
0.0
 48
0.0
140
0.18
141
0.09
142
0.0
143
25.4
144
1.0
145
0.0
146
1.0
147
0.09
 71
     0
 72
     0
 73
     1
 74
     1
 75
     0
 76
     0
 77
     0
 78
     0
170
     0
171
     2
172
     0
173
     0
174
     0
175
     0
176
     0
177
     0
178
     0
  0
ENDTAB
  0
ENDSEC
  0
SECTION
  2
BLOCKS
  0
BLOCK
  8
0
  2
$MODEL_SPACE
 70
     0
 10
0.0
 20
0.0
 30
0.0
  3
$MODEL_SPACE
  1

  0
ENDBLK
  5
21
  8
0
  0
BLOCK
 67
     1
  8
0
  2
$PAPER_SPACE
 70
     0
 10
0.0
 20
0.0
 30
0.0
  3
$PAPER_SPACE
  1

  0
ENDBLK
  5
1D
 67
     1
  8
0
  0
BLOCK
  8
0
  2
SE
 70
     0
 10
0.0
 20
0.0
 30
0.0
  3
SE
  1

  0
LINE
  5
5FE
  8
SIDE
  6
CONTINUOUS
 62
     7
 10
398.4676158255
 20
111.9537470659
 30
0.0
 11
334.4676158255
 21
111.9537470659
 31
0.0
  0
LINE
  5
5FF
  8
SIDE
  6
CONTINUOUS
 62
     7
 10
386.4676158255
 20
149.9537470659
 30
0.0
 11
386.4676158255
 21
132.4537470659
 31
0.0
  0
LINE
  5
600
  8
SIDE
  6
CONTINUOUS
 62
     7
 10
386.4676158255
 20
132.4537470659
 30
0.0
 11
392.4676158255
 21
132.4537470659
 31
0.0
  0
LINE
  5
601
  8
SIDE
  6
CONTINUOUS
 62
     7
 10
392.4676158255
 20
132.4537470659
 30
0.0
 11
392.4676158255
 21
149.9537470659
 31
0.0
  0
LINE
  5
602
  8
SIDE
  6
CONTINUOUS
 62
     7
 10
328.4676158255
 20
111.9537470659
 30
0.0
 11
328.4676158255
 21
146.9537470659
 31
0.0
  0
LINE
  5
603
  8
SIDE
  6
CONTINUOUS
 62
     7
 10
328.4676158255
 20
146.9537470659
 30
0.0
 11
334.4676158255
 21
146.9537470659
 31
0.0
  0
LINE
  5
604
  8
SIDE
  6
CONTINUOUS
 62
     7
 10
334.4676158255
 20
146.9537470659
 30
0.0
 11
334.4676158255
 21
111.9537470659
 31
0.0
  0
LINE
  5
605
  8
SIDE
  6
CONTINUOUS
 62
     7
 10
322.4676158255
 20
117.9537470659
 30
0.0
 11
322.4676158255
 21
177.370910294
 31
0.0
  0
ARC
  5
606
  8
SIDE
  6
CONTINUOUS
 62
     7
 10
328.4676158255
 20
117.9537470659
 30
0.0
 40
6.000000000000005
 50
180.0
 51
270.0
  0
LINE
  5
607
  8
SIDE
  6
CONTINUOUS
 62
     7
 10
331.5486265775
 20
182.5194414191
 30
0.0
 11
341.5486265775
 21
176.5351894506
 31
0.0
  0
ARC
  5
608
  8
SIDE
  6
CONTINUOUS
 62
     7
 10
328.4676158255
 20
177.370910294
 30
0.0
 40
5.999999999999995
 50
59.10263483969977
 51
179.9999999999997
  0
LINE
  5
609
  8
SIDE
  6
CONTINUOUS
 62
     7
 10
404.4676158255
 20
130.9537470659
 30
0.0
 11
427.4676158255
 21
130.9537470659
 31
0.0
  0
ARC
  5
60A
  8
SIDE
  6
CONTINUOUS
 62
     7
 10
404.4676158255
 20
136.9537470659
 30
0.0
 40
6.000000000000002
 50
180.0
 51
270.0
  0
LINE
  5
60B
  8
SIDE
  6
CONTINUOUS
 62
     7
 10
432.0205300961
 20
120.9442233485
 30
0.0
 11
398.4676158255
 21
111.9537470659
 31
0.0
  0
ARC
  5
60C
  8
SIDE
  6
CONTINUOUS
 62
     7
 10
430.4676158255
 20
126.7397783062
 30
0.0
 40
6.000000000000003
 50
285.0000000000001
 51
0.0000000000001357
  0
LINE
  5
60D
  8
SIDE
  6
CONTINUOUS
 62
     7
 10
436.4676158255
 20
133.9537470659
 30
0.0
 11
436.4676158255
 21
126.7397783062
 31
0.0
  0
ARC
  5
60E
  8
SIDE
  6
CONTINUOUS
 62
     7
 10
433.4676158255
 20
133.9537470659
 30
0.0
 40
3.000000000000003
 50
0.0
 51
180.0
  0
ARC
  5
60F
  8
SIDE
  6
CONTINUOUS
 62
     7
 10
427.4676158255
 20
133.9537470659
 30
0.0
 40
3.000000000000003
 50
270.0
 51
0.0
  0
LINE
  5
610
  8
SIDE
  6
CONTINUOUS
 62
     7
 10
363.4676158255
 20
149.9537470659
 30
0.0
 11
386.4676158255
 21
149.9537470659
 31
0.0
  0
ARC
  5
611
  8
SIDE
  6
CONTINUOUS
 62
     7
 10
363.4676158255
 20
168.9537470659
 30
0.0
 40
19.00000000000001
 50
180.0
 51
270.0
  0
LINE
  5
612
  8
SIDE
  6
CONTINUOUS
 62
     7
 10
344.4676158255
 20
171.3866583255
 30
0.0
 11
344.4676158255
 21
168.9537470659
 31
0.0
  0
ARC
  5
613
  8
SIDE
  6
CONTINUOUS
 62
     7
 10
338.4676158255
 20
171.3866583255
 30
0.0
 40
5.999999999999998
 50
0.0
 51
59.10263483969991
  0
LINE
  5
614
  8
SIDE
  6
CONTINUOUS
 62
     7
 10
347.9676158255
 20
117.9537470659
 30
0.0
 11
347.9676158255
 21
123.9537470659
 31
0.0
  0
LINE
  5
615
  8
SIDE
  6
CONTINUOUS
 62
     7
 10
347.9676158255
 20
123.9537470659
 30
0.0
 11
369.9676158255
 21
123.9537470659
 31
0.0
  0
LINE
  5
616
  8
SIDE
  6
CONTINUOUS
 62
     7
 10
369.9676158255
 20
123.9537470659
 30
0.0
 11
369.9676158255
 21
117.9537470659
 31
0.0
  0
LINE
  5
617
  8
SIDE
  6
CONTINUOUS
 62
     7
 10
369.9676158255
 20
117.9537470659
 30
0.0
 11
347.9676158255
 21
117.9537470659
 31
0.0
  0
LINE
  5
618
  8
SIDE
  6
CONTINUOUS
 62
     7
 10
398.4676158255
 20
143.9537470659
 30
0.0
 11
398.4676158255
 21
136.9537470659
 31
0.0
  0
ARC
  5
619
  8
SIDE
  6
CONTINUOUS
 62
     7
 10
392.4676158255
 20
143.9537470659
 30
0.0
 40
6.000000000000005
 50
0.0
 51
90.0
  0
ENDBLK
  5
61B
  8
0
  0
BLOCK
  8
0
  2
SE1
 70
     0
 10
0.0
 20
0.0
 30
0.0
  3
SE1
  1

  0
LINE
  5
61D
  8
BOTTOM
  6
CONTINUOUS
 62
     7
 10
196.1179013096
 20
163.0715105026
 30
0.0
 11
120.1179013096
 21
163.0715105026
 31
0.0
  0
LINE
  5
61E
  8
BOTTOM
  6
CONTINUOUS
 62
     7
 10
120.1179013096
 20
163.0715105026
 30
0.0
 11
120.1179013096
 21
138.5715105026
 31
0.0
  0
LINE
  5
61F
  8
BOTTOM
  6
CONTINUOUS
 62
     7
 10
120.1179013096
 20
111.0715105026
 30
0.0
 11
196.1179013096
 21
111.0715105026
 31
0.0
  0
LINE
  5
620
  8
BOTTOM
  6
CONTINUOUS
 62
     7
 10
196.1179013096
 20
111.0715105026
 30
0.0
 11
196.1179013096
 21
127.5715105026
 31
0.0
  0
LINE
  5
621
  8
BOTTOM
  6
CONTINUOUS
 62
     7
 10
120.1179013096
 20
127.5715105026
 30
0.0
 11
120.1179013096
 21
111.0715105026
 31
0.0
  0
LINE
  5
622
  8
BOTTOM
  6
CONTINUOUS
 62
     7
 10
120.1179013096
 20
127.5715105026
 30
0.0
 11
114.1179013096
 21
127.5715105026
 31
0.0
  0
LINE
  5
623
  8
BOTTOM
  6
CONTINUOUS
 62
     7
 10
114.1179013096
 20
127.5715105026
 30
0.0
 11
114.1179013096
 21
138.5715105026
 31
0.0
  0
LINE
  5
624
  8
BOTTOM
  6
CONTINUOUS
 62
     7
 10
196.1179013096
 20
149.5715105026
 30
0.0
 11
196.1179013096
 21
163.0715105026
 31
0.0
  0
LINE
  5
625
  8
BOTTOM
  6
CONTINUOUS
 62
     7
 10
196.1179013096
 20
149.5715105026
 30
0.0
 11
202.1179013096
 21
149.5715105026
 31
0.0
  0
LINE
  5
626
  8
BOTTOM
  6
CONTINUOUS
 62
     7
 10
202.1179013096
 20
149.5715105026
 30
0.0
 11
202.1179013096
 21
127.5715105026
 31
0.0
  0
LINE
  5
627
  8
BOTTOM
  6
CONTINUOUS
 62
     7
 10
202.1179013096
 20
127.5715105026
 30
0.0
 11
196.1179013096
 21
127.5715105026
 31
0.0
  0
LINE
  5
628
  8
BOTTOM
  6
CONTINUOUS
 62
     7
 10
120.1179013096
 20
138.5715105026
 30
0.0
 11
114.1179013096
 21
138.5715105026
 31
0.0
  0
ENDBLK
  5
62A
  8
0
  0
BLOCK
  8
0
  2
SE2
 70
     0
 10
0.0
 20
0.0
 30
0.0
  3
SE2
  1

  0
LINE
  5
62C
  8
BOTTOM_2
  6
CONTINUOUS
 62
     7
 10
299.6111994282
 20
164.1128253905
 30
0.0
 11
223.6111994282
 21
164.1128253905
 31
0.0
  0
LINE
  5
62D
  8
BOTTOM_2
  6
CONTINUOUS
 62
     7
 10
223.6111994282
 20
164.1128253905
 30
0.0
 11
223.6111994282
 21
150.6128253905
 31
0.0
  0
LINE
  5
62E
  8
BOTTOM_2
  6
CONTINUOUS
 62
     7
 10
223.6111994282
 20
112.1128253905
 30
0.0
 11
299.6111994282
 21
112.1128253905
 31
0.0
  0
LINE
  5
62F
  8
BOTTOM_2
  6
CONTINUOUS
 62
     7
 10
299.6111994282
 20
112.1128253905
 30
0.0
 11
299.6111994282
 21
139.6128253905
 31
0.0
  0
LINE
  5
630
  8
BOTTOM_2
  6
CONTINUOUS
 62
     7
 10
223.6111994282
 20
139.6128253905
 30
0.0
 11
223.6111994282
 21
112.1128253905
 31
0.0
  0
LINE
  5
631
  8
BOTTOM_2
  6
CONTINUOUS
 62
     7
 10
217.6111994282
 20
150.6128253905
 30
0.0
 11
223.6111994282
 21
150.6128253905
 31
0.0
  0
LINE
  5
632
  8
BOTTOM_2
  6
CONTINUOUS
 62
     7
 10
299.6111994282
 20
150.6128253905
 30
0.0
 11
299.6111994282
 21
164.1128253905
 31
0.0
  0
LINE
  5
633
  8
BOTTOM_2
  6
CONTINUOUS
 62
     7
 10
299.6111994282
 20
150.6128253905
 30
0.0
 11
305.6111994282
 21
150.6128253905
 31
0.0
  0
LINE
  5
634
  8
BOTTOM_2
  6
CONTINUOUS
 62
     7
 10
305.6111994282
 20
150.6128253905
 30
0.0
 11
305.6111994282
 21
139.6128253905
 31
0.0
  0
LINE
  5
635
  8
BOTTOM_2
  6
CONTINUOUS
 62
     7
 10
217.6111994282
 20
139.6128253905
 30
0.0
 11
217.6111994282
 21
150.6128253905
 31
0.0
  0
LINE
  5
636
  8
BOTTOM_2
  6
CONTINUOUS
 62
     7
 10
217.6111994282
 20
139.6128253905
 30
0.0
 11
223.6111994282
 21
139.6128253905
 31
0.0
  0
LINE
  5
637
  8
BOTTOM_2
  6
CONTINUOUS
 62
     7
 10
299.6111994282
 20
139.6128253905
 30
0.0
 11
305.6111994282
 21
139.6128253905
 31
0.0
  0
ENDBLK
  5
639
  8
0
  0
BLOCK
  8
0
  2
SE3
 70
     0
 10
0.0
 20
0.0
 30
0.0
  3
SE3
  1

  0
LINE
  5
63B
  8
FRONT
  6
CONTINUOUS
 62
     7
 10
124.6833363689
 20
284.0613630532
 30
0.0
 11
200.6833363689
 21
284.0613630532
 31
0.0
  0
LINE
  5
63C
  8
FRONT
  6
CONTINUOUS
 62
     7
 10
206.6833363689
 20
284.0613630532
 30
0.0
 11
282.6833363689
 21
284.0613630532
 31
0.0
  0
LINE
  5
63D
  8
FRONT
  6
CONTINUOUS
 62
     7
 10
288.6833363689
 20
284.0613630532
 30
0.0
 11
364.6833363689
 21
284.0613630532
 31
0.0
  0
LINE
  5
63E
  8
FRONT
  6
CONTINUOUS
 62
     7
 10
370.6833363689
 20
304.5613630532
 30
0.0
 11
370.6833363689
 21
284.0613630532
 31
0.0
  0
LINE
  5
63F
  8
FRONT
  6
CONTINUOUS
 62
     7
 10
364.6833363689
 20
304.5613630532
 30
0.0
 11
370.6833363689
 21
304.5613630532
 31
0.0
  0
LINE
  5
640
  8
FRONT
  6
CONTINUOUS
 62
     7
 10
364.6833363689
 20
284.0613630532
 30
0.0
 11
364.6833363689
 21
304.5613630532
 31
0.0
  0
LINE
  5
641
  8
FRONT
  6
CONTINUOUS
 62
     7
 10
288.6833363689
 20
304.5613630532
 30
0.0
 11
288.6833363689
 21
284.0613630532
 31
0.0
  0
LINE
  5
642
  8
FRONT
  6
CONTINUOUS
 62
     7
 10
282.6833363689
 20
304.5613630532
 30
0.0
 11
288.6833363689
 21
304.5613630532
 31
0.0
  0
LINE
  5
643
  8
FRONT
  6
CONTINUOUS
 62
     7
 10
282.6833363689
 20
284.0613630532
 30
0.0
 11
282.6833363689
 21
304.5613630532
 31
0.0
  0
LINE
  5
644
  8
FRONT
  6
CONTINUOUS
 62
     7
 10
206.6833363689
 20
304.5613630532
 30
0.0
 11
206.6833363689
 21
284.0613630532
 31
0.0
  0
LINE
  5
645
  8
FRONT
  6
CONTINUOUS
 62
     7
 10
200.6833363689
 20
304.5613630532
 30
0.0
 11
206.6833363689
 21
304.5613630532
 31
0.0
  0
LINE
  5
646
  8
FRONT
  6
CONTINUOUS
 62
     7
 10
200.6833363689
 20
284.0613630532
 30
0.0
 11
200.6833363689
 21
304.5613630532
 31
0.0
  0
LINE
  5
647
  8
FRONT
  6
CONTINUOUS
 62
     7
 10
124.6833363689
 20
304.5613630532
 30
0.0
 11
124.6833363689
 21
284.0613630532
 31
0.0
  0
LINE
  5
648
  8
FRONT
  6
CONTINUOUS
 62
     7
 10
118.6833363689
 20
304.5613630532
 30
0.0
 11
124.6833363689
 21
304.5613630532
 31
0.0
  0
LINE
  5
649
  8
FRONT
  6
CONTINUOUS
 62
     7
 10
118.6833363689
 20
284.0613630532
 30
0.0
 11
118.6833363689
 21
304.5613630532
 31
0.0
  0
LINE
  5
64A
  8
FRONT
  6
CONTINUOUS
 62
     7
 10
370.6833363689
 20
322.0613630532
 30
0.0
 11
118.6833363689
 21
322.0613630532
 31
0.0
  0
ARC
  5
64B
  8
FRONT
  6
CONTINUOUS
 62
     7
 10
370.6833363689
 20
316.0613630532
 30
0.0
 40
6.000000000000005
 50
0.0
 51
90.0
  0
ARC
  5
64C
  8
FRONT
  6
CONTINUOUS
 62
     7
 10
118.6833363689
 20
290.0613630532
 30
0.0
 40
6.000000000000005
 50
180.0
 51
270.0
  0
LINE
  5
64D
  8
FRONT
  6
CONTINUOUS
 62
     7
 10
376.6833363689
 20
290.0613630532
 30
0.0
 11
376.6833363689
 21
316.0613630532
 31
0.0
  0
ARC
  5
64E
  8
FRONT
  6
CONTINUOUS
 62
     7
 10
370.6833363689
 20
290.0613630532
 30
0.0
 40
5.999999999999998
 50
270.0
 51
0.0
  0
LINE
  5
64F
  8
FRONT
  6
CONTINUOUS
 62
     7
 10
112.6833363689
 20
316.0613630532
 30
0.0
 11
112.6833363689
 21
290.0613630532
 31
0.0
  0
ARC
  5
650
  8
FRONT
  6
CONTINUOUS
 62
     7
 10
118.6833363689
 20
316.0613630532
 30
0.0
 40
6.0
 50
90.0
 51
180.0
  0
ENDBLK
  5
652
  8
0
  0
BLOCK
  8
0
  2
SE4
 70
     0
 10
0.0
 20
0.0
 30
0.0
  3
SE4
  1

  0
LINE
  5
654
  8
BACK
  6
CONTINUOUS
 62
     7
 10
126.5965433486
 20
200.1372899591
 30
0.0
 11
202.5965433486
 21
200.1372899591
 31
0.0
  0
LINE
  5
655
  8
BACK
  6
CONTINUOUS
 62
     7
 10
208.5965433486
 20
200.1372899591
 30
0.0
 11
284.5965433486
 21
200.1372899591
 31
0.0
  0
LINE
  5
656
  8
BACK
  6
CONTINUOUS
 62
     7
 10
290.5965433486
 20
200.1372899591
 30
0.0
 11
366.5965433486
 21
200.1372899591
 31
0.0
  0
LINE
  5
657
  8
BACK
  6
CONTINUOUS
 62
     7
 10
372.5965433486
 20
228.6372899591
 30
0.0
 11
372.5965433486
 21
200.1372899591
 31
0.0
  0
LINE
  5
658
  8
BACK
  6
CONTINUOUS
 62
     7
 10
366.5965433486
 20
228.6372899591
 30
0.0
 11
372.5965433486
 21
228.6372899591
 31
0.0
  0
LINE
  5
659
  8
BACK
  6
CONTINUOUS
 62
     7
 10
366.5965433486
 20
200.1372899591
 30
0.0
 11
366.5965433486
 21
228.6372899591
 31
0.0
  0
LINE
  5
65A
  8
BACK
  6
CONTINUOUS
 62
     7
 10
290.5965433486
 20
228.6372899591
 30
0.0
 11
290.5965433486
 21
200.1372899591
 31
0.0
  0
LINE
  5
65B
  8
BACK
  6
CONTINUOUS
 62
     7
 10
284.5965433486
 20
228.6372899591
 30
0.0
 11
290.5965433486
 21
228.6372899591
 31
0.0
  0
LINE
  5
65C
  8
BACK
  6
CONTINUOUS
 62
     7
 10
284.5965433486
 20
200.1372899591
 30
0.0
 11
284.5965433486
 21
228.6372899591
 31
0.0
  0
LINE
  5
65D
  8
BACK
  6
CONTINUOUS
 62
     7
 10
208.5965433486
 20
228.6372899591
 30
0.0
 11
208.5965433486
 21
200.1372899591
 31
0.0
  0
LINE
  5
65E
  8
BACK
  6
CONTINUOUS
 62
     7
 10
202.5965433486
 20
228.6372899591
 30
0.0
 11
208.5965433486
 21
228.6372899591
 31
0.0
  0
LINE
  5
65F
  8
BACK
  6
CONTINUOUS
 62
     7
 10
202.5965433486
 20
200.1372899591
 30
0.0
 11
202.5965433486
 21
228.6372899591
 31
0.0
  0
LINE
  5
660
  8
BACK
  6
CONTINUOUS
 62
     7
 10
126.5965433486
 20
228.6372899591
 30
0.0
 11
126.5965433486
 21
200.1372899591
 31
0.0
  0
LINE
  5
661
  8
BACK
  6
CONTINUOUS
 62
     7
 10
120.5965433486
 20
228.6372899591
 30
0.0
 11
126.5965433486
 21
228.6372899591
 31
0.0
  0
LINE
  5
662
  8
BACK
  6
CONTINUOUS
 62
     7
 10
120.5965433486
 20
200.1372899591
 30
0.0
 11
120.5965433486
 21
228.6372899591
 31
0.0
  0
LINE
  5
663
  8
BACK
  6
CONTINUOUS
 62
     7
 10
114.5965433486
 20
257.6372899591
 30
0.0
 11
114.5965433486
 21
206.1372899591
 31
0.0
  0
ARC
  5
664
  8
BACK
  6
CONTINUOUS
 62
     7
 10
120.5965433486
 20
257.6372899591
 30
0.0
 40
5.999999999999998
 50
90.0
 51
180.0
  0
LINE
  5
665
  8
BACK
  6
CONTINUOUS
 62
     7
 10
378.5965433486
 20
206.1372899591
 30
0.0
 11
378.5965433486
 21
257.6372899591
 31
0.0
  0
ARC
  5
666
  8
BACK
  6
CONTINUOUS
 62
     7
 10
372.5965433486
 20
206.1372899591
 30
0.0
 40
5.999999999999998
 50
270.0
 51
0.0
  0
LINE
  5
667
  8
BACK
  6
CONTINUOUS
 62
     7
 10
372.5965433486
 20
263.6372899591
 30
0.0
 11
120.5965433486
 21
263.6372899591
 31
0.0
  0
ARC
  5
668
  8
BACK
  6
CONTINUOUS
 62
     7
 10
372.5965433486
 20
257.6372899591
 30
0.0
 40
6.000000000000005
 50
0.0
 51
90.0
  0
ARC
  5
669
  8
BACK
  6
CONTINUOUS
 62
     7
 10
120.5965433486
 20
206.1372899591
 30
0.0
 40
6.000000000000005
 50
180.0
 51
270.0
  0
ENDBLK
  5
66B
  8
0
  0
ENDSEC
  0
SECTION
  2
ENTITIES
  0
POLYLINE
  5
6F
  8
DEFAULT
 62
     5
 66
     1
 10
0.0
 20
0.0
 30
0.0
 70
     1
  0
VERTEX
  5
70
  8
DEFAULT
 62
     5
 10
6.510436294503791
 20
145.7266470154939
 30
0.0
  0
VERTEX
  5
71
  8
DEFAULT
 62
     5
 10
7.893152343886499
 20
145.7266470154939
 30
0.0
  0
VERTEX
  5
72
  8
DEFAULT
 62
     5
 10
7.8931523438865
 20
144.9434681091137
 30
0.0
 42
-0.2373869490350055
  0
VERTEX
  5
73
  8
DEFAULT
 62
     5
 10
9.690220539469493
 20
145.8747951636421
 30
0.0
 42
-0.1315120310734332
  0
VERTEX
  5
74
  8
DEFAULT
 62
     5
 10
10.65048284393972
 20
145.6433139176393
 30
0.0
 42
-0.1393853272244804
  0
VERTEX
  5
75
  8
DEFAULT
 62
     5
 10
11.31830693567472
 20
144.9434681091136
 30
0.0
 42
-0.1018343532165763
  0
VERTEX
  5
76
  8
DEFAULT
 62
     5
 10
12.13543660062615
 20
145.6433139176393
 30
0.0
 42
-0.1239296679570987
  0
VERTEX
  5
77
  8
DEFAULT
 62
     5
 10
13.07139373219377
 20
145.874795163642
 30
0.0
 42
-0.1355305589141825
  0
VERTEX
  5
78
  8
DEFAULT
 62
     5
 10
14.14315276774823
 20
145.6155360927658
 30
0.0
 42
-0.1623661969580969
  0
VERTEX
  5
79
  8
DEFAULT
 62
     5
 10
14.79824556049775
 20
144.8547336942736
 30
0.0
 42
-0.0915442810314255
  0
VERTEX
  5
7A
  8
DEFAULT
 62
     5
 10
14.95488073894822
 20
143.6541161748443
 30
0.0
  0
VERTEX
  5
7B
  8
DEFAULT
 62
     5
 10
14.95488073894822
 20
139.9488692377161
 30
0.0
  0
VERTEX
  5
7C
  8
DEFAULT
 62
     5
 10
13.42401654141736
 20
139.9488692377161
 30
0.0
  0
VERTEX
  5
7D
  8
DEFAULT
 62
     5
 10
13.42401654141734
 20
143.2528822662835
 30
0.0
 42
0.1141470137910546
  0
VERTEX
  5
7E
  8
DEFAULT
 62
     5
 10
13.26815297967909
 20
144.3632213839164
 30
0.0
 42
0.2721000606533721
  0
VERTEX
  5
7F
  8
DEFAULT
 62
     5
 10
12.62231958747605
 20
144.6896099784569
 30
0.0
 42
0.157563907146668
  0
VERTEX
  5
80
  8
DEFAULT
 62
     5
 10
12.02548272620035
 20
144.4936223476838
 30
0.0
 42
0.1657627374474088
  0
VERTEX
  5
81
  8
DEFAULT
 62
     5
 10
11.62193321397097
 20
143.9195485561842
 30
0.0
 42
0.0723437487254854
  0
VERTEX
  5
82
  8
DEFAULT
 62
     5
 10
11.49809061549144
 20
142.7251039704525
 30
0.0
  0
VERTEX
  5
83
  8
DEFAULT
 62
     5
 10
11.49809061549144
 20
139.9488692377161
 30
0.0
  0
VERTEX
  5
84
  8
DEFAULT
 62
     5
 10
9.967226417960575
 20
139.9488692377161
 30
0.0
  0
VERTEX
  5
85
  8
DEFAULT
 62
     5
 10
9.967226417960575
 20
143.1163076152865
 30
0.0
 42
0.0609892367975075
  0
VERTEX
  5
86
  8
DEFAULT
 62
     5
 10
9.887365595310895
 20
144.2054280268657
 30
0.0
 42
0.1633931196985302
  0
VERTEX
  5
87
  8
DEFAULT
 62
     5
 10
9.63929496676167
 20
144.5700112718945
 30
0.0
 42
0.1561218014296591
  0
VERTEX
  5
88
  8
DEFAULT
 62
     5
 10
9.183275894868132
 20
144.6896099784569
 30
0.0
 42
0.155183717546804
  0
VERTEX
  5
89
  8
DEFAULT
 62
     5
 10
8.558661962250822
 20
144.4990236646692
 30
0.0
 42
0.1670025847935161
  0
VERTEX
  5
8A
  8
DEFAULT
 62
     5
 10
8.16128538371914
 20
143.9492554228382
 30
0.0
 42
0.0722698594962419
  0
VERTEX
  5
8B
  8
DEFAULT
 62
     5
 10
8.041300492034656
 20
142.7575118723652
 30
0.0
  0
VERTEX
  5
8C
  8
DEFAULT
 62
     5
 10
8.041300492034651
 20
139.9488692377161
 30
0.0
  0
VERTEX
  5
8D
  8
DEFAULT
 62
     5
 10
6.510436294503791
 20
139.9488692377161
 30
0.0
  0
SEQEND
  5
8E
  8
DEFAULT
 62
     5
  0
POLYLINE
  5
8F
  8
DEFAULT
 62
     5
 66
     1
 10
0.0
 20
0.0
 30
0.0
 70
     1
  0
VERTEX
  5
90
  8
DEFAULT
 62
     5
 10
1.078337529071689
 20
142.837758503371
 30
0.0
 42
0.1807696907208218
  0
VERTEX
  5
91
  8
DEFAULT
 62
     5
 10
1.478028957739978
 20
141.4997954697644
 30
0.0
 42
0.4777036397637181
  0
VERTEX
  5
92
  8
DEFAULT
 62
     5
 10
3.446779234427507
 20
141.4997954697644
 30
0.0
 42
0.1794408075869708
  0
VERTEX
  5
93
  8
DEFAULT
 62
     5
 10
3.843769627837121
 20
142.8485611373419
 30
0.0
 42
0.1800932450793811
  0
VERTEX
  5
94
  8
DEFAULT
 62
     5
 10
3.446779234427529
 20
144.1757211602116
 30
0.0
 42
0.4793729384846371
  0
VERTEX
  5
95
  8
DEFAULT
 62
     5
 10
1.478028957739976
 20
144.1757211602116
 30
0.0
 42
0.1807697890868436
  0
SEQEND
  5
96
  8
DEFAULT
 62
     5
  0
POLYLINE
  5
97
  8
DEFAULT
 62
     5
 66
     1
 10
0.0
 20
0.0
 30
0.0
 70
     1
  0
VERTEX
  5
98
  8
DEFAULT
 62
     5
 10
-0.4525266684591713
 20
142.9195483678012
 30
0.0
 42
-0.1222574291832721
  0
VERTEX
  5
99
  8
DEFAULT
 62
     5
 10
-0.0794556395960822
 20
144.402573459473
 30
0.0
 42
-0.150919920783596
  0
VERTEX
  5
9A
  8
DEFAULT
 62
     5
 10
0.9776434319583651
 20
145.4970948112717
 30
0.0
 42
-0.1287246067143848
  0
VERTEX
  5
9B
  8
DEFAULT
 62
     5
 10
2.50503573105027
 20
145.8747951636421
 30
0.0
 42
-0.2109274079128425
  0
VERTEX
  5
9C
  8
DEFAULT
 62
     5
 10
4.640837635037109
 20
145.0183137998999
 30
0.0
 42
-0.2026212639801823
  0
VERTEX
  5
9D
  8
DEFAULT
 62
     5
 10
5.473399257466752
 20
142.8539624543274
 30
0.0
 42
-0.2022295973323165
  0
VERTEX
  5
9E
  8
DEFAULT
 62
     5
 10
4.632736036324906
 20
140.668005087281
 30
0.0
 42
-0.2115506096600804
  0
VERTEX
  5
9F
  8
DEFAULT
 62
     5
 10
2.515837611489246
 20
139.800721089568
 30
0.0
 42
-0.1188796278362243
  0
VERTEX
  5
A0
  8
DEFAULT
 62
     5
 10
1.010050580339164
 20
140.1618324361578
 30
0.0
 42
-0.1582355798320165
  0
VERTEX
  5
A1
  8
DEFAULT
 62
     5
 10
-0.0794556395960895
 20
141.2208605494928
 30
0.0
 42
-0.1239053267140401
  0
SEQEND
  5
A2
  8
DEFAULT
 62
     5
  0
POLYLINE
  5
A3
  8
DEFAULT
 62
     5
 66
     1
 10
0.0
 20
0.0
 30
0.0
 70
     1
  0
VERTEX
  5
A4
  8
DEFAULT
 62
     5
 10
-1.292032841298678
 20
144.0476346698149
 30
0.0
  0
VERTEX
  5
A5
  8
DEFAULT
 62
     5
 10
-2.822897038829553
 20
143.800721089568
 30
0.0
 42
0.1809968098175332
  0
VERTEX
  5
A6
  8
DEFAULT
 62
     5
 10
-3.164717590848207
 20
144.4662307079323
 30
0.0
 42
0.1804760167669911
  0
VERTEX
  5
A7
  8
DEFAULT
 62
     5
 10
-3.856075992305549
 20
144.6896099784569
 30
0.0
 42
0.2329674834671307
  0
VERTEX
  5
A8
  8
DEFAULT
 62
     5
 10
-4.758081988535992
 20
144.2883756931301
 30
0.0
 42
0.1695179555120383
  0
VERTEX
  5
A9
  8
DEFAULT
 62
     5
 10
-5.094501977101147
 20
142.9457833360163
 30
0.0
 42
0.1610966817174899
  0
VERTEX
  5
AA
  8
DEFAULT
 62
     5
 10
-4.749980013057804
 20
141.4670021362615
 30
0.0
 42
0.2405540491094089
  0
VERTEX
  5
AB
  8
DEFAULT
 62
     5
 10
-3.825211323817214
 20
141.0352889908026
 30
0.0
 42
0.1883458441869255
  0
VERTEX
  5
AC
  8
DEFAULT
 62
     5
 10
-3.114949066442708
 20
141.2798880976788
 30
0.0
 42
0.1622604489947893
  0
VERTEX
  5
AD
  8
DEFAULT
 62
     5
 10
-2.724131606730784
 20
142.121708743889
 30
0.0
  0
VERTEX
  5
AE
  8
DEFAULT
 62
     5
 10
-1.193267409199922
 20
141.9241778796915
 30
0.0
 42
-0.172450972143602
  0
VERTEX
  5
AF
  8
DEFAULT
 62
     5
 10
-2.087557238308297
 20
140.3369867924673
 30
0.0
 42
-0.1746967243539299
  0
VERTEX
  5
B0
  8
DEFAULT
 62
     5
 10
-3.86070493904684
 20
139.800721089568
 30
0.0
 42
-0.2163976905724481
  0
VERTEX
  5
B1
  8
DEFAULT
 62
     5
 10
-5.87459441663255
 20
140.605119455534
 30
0.0
 42
-0.1943870566321044
  0
VERTEX
  5
B2
  8
DEFAULT
 62
     5
 10
-6.625366174632038
 20
142.8323571863855
 30
0.0
 42
-0.1945054615972615
  0
VERTEX
  5
B3
  8
DEFAULT
 62
     5
 10
-5.874980224988681
 20
145.0730978329348
 30
0.0
 42
-0.215780163157978
  0
VERTEX
  5
B4
  8
DEFAULT
 62
     5
 10
-3.845273358334623
 20
145.8747951636421
 30
0.0
 42
-0.159942307695798
  0
VERTEX
  5
B5
  8
DEFAULT
 62
     5
 10
-2.180149736709411
 20
145.4234065455537
 30
0.0
 42
-0.1682635697126327
  0
SEQEND
  5
B6
  8
DEFAULT
 62
     5
  0
POLYLINE
  5
B7
  8
DEFAULT
 62
     5
 66
     1
 10
0.0
 20
0.0
 30
0.0
 70
     1
  0
VERTEX
  5
B8
  8
DEFAULT
 62
     5
 10
-9.39079827339745
 20
139.9488692377161
 30
0.0
  0
VERTEX
  5
B9
  8
DEFAULT
 62
     5
 10
-9.39079827339745
 20
141.479733435247
 30
0.0
  0
VERTEX
  5
BA
  8
DEFAULT
 62
     5
 10
-7.85993407586659
 20
141.479733435247
 30
0.0
  0
VERTEX
  5
BB
  8
DEFAULT
 62
     5
 10
-7.85993407586659
 20
139.9488692377161
 30
0.0
  0
SEQEND
  5
BC
  8
DEFAULT
 62
     5
  0
POLYLINE
  5
BD
  8
DEFAULT
 62
     5
 66
     1
 10
0.0
 20
0.0
 30
0.0
 70
     1
  0
VERTEX
  5
BE
  8
DEFAULT
 62
     5
 10
-12.05746494006411
 20
143.3562766451236
 30
0.0
 42
0.1931771868552549
  0
VERTEX
  5
BF
  8
DEFAULT
 62
     5
 10
-12.40893070098539
 20
144.3497180914528
 30
0.0
 42
0.2094545272840989
  0
VERTEX
  5
C0
  8
DEFAULT
 62
     5
 10
-13.22335970744409
 20
144.6896099784569
 30
0.0
 42
0.2175151257022121
  0
VERTEX
  5
C1
  8
DEFAULT
 62
     5
 10
-14.07135366411789
 20
144.3308142355356
 30
0.0
 42
0.1974850402976651
  0
VERTEX
  5
C2
  8
DEFAULT
 62
     5
 10
-14.4008287255072
 20
143.3562766451236
 30
0.0
  0
SEQEND
  5
C3
  8
DEFAULT
 62
     5
  0
POLYLINE
  5
C4
  8
DEFAULT
 62
     5
 66
     1
 10
0.0
 20
0.0
 30
0.0
 70
     1
  0
VERTEX
  5
C5
  8
DEFAULT
 62
     5
 10
-12.15623037216288
 20
141.7760297315433
 30
0.0
  0
VERTEX
  5
C6
  8
DEFAULT
 62
     5
 10
-10.62536617463203
 20
141.5784988673458
 30
0.0
 42
-0.1601948643917432
  0
VERTEX
  5
C7
  8
DEFAULT
 62
     5
 10
-11.5559216124482
 20
140.2551965512712
 30
0.0
 42
-0.159020940581447
  0
VERTEX
  5
C8
  8
DEFAULT
 62
     5
 10
-13.14774202317963
 20
139.800721089568
 30
0.0
 42
-0.2510606897924304
  0
VERTEX
  5
C9
  8
DEFAULT
 62
     5
 10
-15.38539657964603
 20
140.7914618774045
 30
0.0
 42
-0.1603231689598225
  0
VERTEX
  5
CA
  8
DEFAULT
 62
     5
 10
-15.95869950796536
 20
142.7937771043071
 30
0.0
 42
-0.192898891945071
  0
VERTEX
  5
CB
  8
DEFAULT
 62
     5
 10
-15.20291224133655
 20
145.0568942587444
 30
0.0
 42
-0.2186957110499393
  0
VERTEX
  5
CC
  8
DEFAULT
 62
     5
 10
-13.29203284129868
 20
145.8747951636421
 30
0.0
 42
-0.2248762650829987
  0
VERTEX
  5
CD
  8
DEFAULT
 62
     5
 10
-11.24419298190776
 20
145.0241009252415
 30
0.0
 42
-0.1866850592647447
  0
VERTEX
  5
CE
  8
DEFAULT
 62
     5
 10
-10.52660074253326
 20
142.4180050401853
 30
0.0
  0
VERTEX
  5
CF
  8
DEFAULT
 62
     5
 10
-14.42783531043447
 20
142.4180050401853
 30
0.0
 42
0.1907233177561447
  0
VERTEX
  5
D0
  8
DEFAULT
 62
     5
 10
-14.05013420453218
 20
141.3628353871773
 30
0.0
 42
0.2135192120775312
  0
VERTEX
  5
D1
  8
DEFAULT
 62
     5
 10
-13.15005687331626
 20
140.9859062747531
 30
0.0
 42
0.1657236937101044
  0
VERTEX
  5
D2
  8
DEFAULT
 62
     5
 10
-12.53393072453325
 20
141.1730206901019
 30
0.0
 42
0.1589948514629996
  0
SEQEND
  5
D3
  8
DEFAULT
 62
     5
  0
POLYLINE
  5
D4
  8
DEFAULT
 62
     5
 66
     1
 10
0.0
 20
0.0
 30
0.0
 70
     1
  0
VERTEX
  5
D5
  8
DEFAULT
 62
     5
 10
-16.6994402487061
 20
144.0476346698149
 30
0.0
  0
VERTEX
  5
D6
  8
DEFAULT
 62
     5
 10
-18.23030444623695
 20
143.800721089568
 30
0.0
 42
0.1809968098175326
  0
VERTEX
  5
D7
  8
DEFAULT
 62
     5
 10
-18.57212499825561
 20
144.4662307079323
 30
0.0
 42
0.18047601676699
  0
VERTEX
  5
D8
  8
DEFAULT
 62
     5
 10
-19.26348339971295
 20
144.6896099784569
 30
0.0
 42
0.2329674834671427
  0
VERTEX
  5
D9
  8
DEFAULT
 62
     5
 10
-20.16548939594341
 20
144.2883756931301
 30
0.0
 42
0.1695179555120477
  0
VERTEX
  5
DA
  8
DEFAULT
 62
     5
 10
-20.50190938450856
 20
142.9457833360163
 30
0.0
 42
0.1610966817174999
  0
VERTEX
  5
DB
  8
DEFAULT
 62
     5
 10
-20.15738742046522
 20
141.4670021362615
 30
0.0
 42
0.2405540491094099
  0
VERTEX
  5
DC
  8
DEFAULT
 62
     5
 10
-19.23261873122462
 20
141.0352889908026
 30
0.0
 42
0.1883458441869257
  0
VERTEX
  5
DD
  8
DEFAULT
 62
     5
 10
-18.52235647385013
 20
141.2798880976788
 30
0.0
 42
0.1622604489947805
  0
VERTEX
  5
DE
  8
DEFAULT
 62
     5
 10
-18.13153901413817
 20
142.121708743889
 30
0.0
  0
VERTEX
  5
DF
  8
DEFAULT
 62
     5
 10
-16.6006748166073
 20
141.9241778796915
 30
0.0
 42
-0.1724509721435863
  0
VERTEX
  5
E0
  8
DEFAULT
 62
     5
 10
-17.49496464571571
 20
140.3369867924673
 30
0.0
 42
-0.1746967243539267
  0
VERTEX
  5
E1
  8
DEFAULT
 62
     5
 10
-19.26811234645426
 20
139.800721089568
 30
0.0
 42
-0.2163976905724311
  0
VERTEX
  5
E2
  8
DEFAULT
 62
     5
 10
-21.28200182403998
 20
140.605119455534
 30
0.0
 42
-0.1943870566321009
  0
VERTEX
  5
E3
  8
DEFAULT
 62
     5
 10
-22.0327735820394
 20
142.8323571863855
 30
0.0
 42
-0.1945054615972652
  0
VERTEX
  5
E4
  8
DEFAULT
 62
     5
 10
-21.28238763239608
 20
145.0730978329348
 30
0.0
 42
-0.2157801631579845
  0
VERTEX
  5
E5
  8
DEFAULT
 62
     5
 10
-19.25268076574203
 20
145.8747951636421
 30
0.0
 42
-0.1599423076957982
  0
VERTEX
  5
E6
  8
DEFAULT
 62
     5
 10
-17.5875571441168
 20
145.4234065455537
 30
0.0
 42
-0.1682635697126235
  0
SEQEND
  5
E7
  8
DEFAULT
 62
     5
  0
POLYLINE
  5
E8
  8
DEFAULT
 62
     5
 66
     1
 10
0.0
 20
0.0
 30
0.0
 70
     1
  0
VERTEX
  5
E9
  8
DEFAULT
 62
     5
 10
-24.79820568080486
 20
142.7143013364816
 30
0.0
  0
VERTEX
  5
EA
  8
DEFAULT
 62
     5
 10
-25.6894090430644
 20
142.4805052403422
 30
0.0
 42
0.0811165779561284
  0
VERTEX
  5
EB
  8
DEFAULT
 62
     5
 10
-26.48647667349842
 20
142.214301995822
 30
0.0
 42
0.2517191883486279
  0
VERTEX
  5
EC
  8
DEFAULT
 62
     5
 10
-26.77351432278014
 20
141.6757218195521
 30
0.0
 42
0.4298150945545096
  0
VERTEX
  5
ED
  8
DEFAULT
 62
     5
 10
-25.9602423646238
 20
140.8871408426544
 30
0.0
 42
0.167048264484557
  0
VERTEX
  5
EE
  8
DEFAULT
 62
     5
 10
-25.20484090635109
 20
141.158746157692
 30
0.0
 42
0.1651612454990916
  0
VERTEX
  5
EF
  8
DEFAULT
 62
     5
 10
-24.85530381044436
 20
141.6649191855811
 30
0.0
  0
VERTEX
  5
F0
  8
DEFAULT
 62
     5
 10
-24.79820568080486
 20
142.4095180098829
 30
0.0
  0
SEQEND
  5
F1
  8
DEFAULT
 62
     5
  0
POLYLINE
  5
F2
  8
DEFAULT
 62
     5
 66
     1
 10
0.0
 20
0.0
 30
0.0
 70
     1
  0
VERTEX
  5
F3
  8
DEFAULT
 62
     5
 10
-26.72413160673078
 20
143.9488692377161
 30
0.0
  0
VERTEX
  5
F4
  8
DEFAULT
 62
     5
 10
-28.10684765611349
 20
144.1464001019137
 30
0.0
 42
-0.171483317599026
  0
VERTEX
  5
F5
  8
DEFAULT
 62
     5
 10
-27.31710963091351
 20
145.4511843704273
 30
0.0
 42
-0.1608829132837325
  0
VERTEX
  5
F6
  8
DEFAULT
 62
     5
 10
-25.65237181764438
 20
145.8747951636421
 30
0.0
 42
-0.1088364278880646
  0
VERTEX
  5
F7
  8
DEFAULT
 62
     5
 10
-24.15854484553353
 20
145.6321254753123
 30
0.0
 42
-0.1580303644335051
  0
VERTEX
  5
F8
  8
DEFAULT
 62
     5
 10
-23.46757262919825
 20
145.0156131414072
 30
0.0
 42
-0.1088017057953383
  0
VERTEX
  5
F9
  8
DEFAULT
 62
     5
 10
-23.26734148327399
 20
143.6433142944053
 30
0.0
  0
VERTEX
  5
FA
  8
DEFAULT
 62
     5
 10
-23.26734148327401
 20
141.8531906492322
 30
0.0
 42
0.0514080219695318
  0
VERTEX
  5
FB
  8
DEFAULT
 62
     5
 10
-23.18400800865343
 20
140.7262613955208
 30
0.0
 42
0.0692287864232302
  0
VERTEX
  5
FC
  8
DEFAULT
 62
     5
 10
-22.87227975487893
 20
139.9488692377161
 30
0.0
  0
VERTEX
  5
FD
  8
DEFAULT
 62
     5
 10
-24.40314395240979
 20
139.9488692377161
 30
0.0
  0
VERTEX
  5
FE
  8
DEFAULT
 62
     5
 10
-24.54974886713353
 20
140.3964001490094
 30
0.0
  0
VERTEX
  5
FF
  8
DEFAULT
 62
     5
 10
-24.60376052992421
 20
140.5746413489337
 30
0.0
 42
-0.0933244186738102
  0
VERTEX
  5
100
  8
DEFAULT
 62
     5
 10
-25.43940937273462
 20
139.9943942469704
 30
0.0
 42
-0.1040133466925626
  0
VERTEX
  5
101
  8
DEFAULT
 62
     5
 10
-26.38925447482407
 20
139.800721089568
 30
0.0
 42
-0.1965430357596719
  0
VERTEX
  5
102
  8
DEFAULT
 62
     5
 10
-27.7916467503681
 20
140.2849034179252
 30
0.0
 42
-0.2154369487651276
  0
VERTEX
  5
103
  8
DEFAULT
 62
     5
 10
-28.30437852031102
 20
141.5090548703109
 30
0.0
 42
-0.137378024802464
  0
VERTEX
  5
104
  8
DEFAULT
 62
     5
 10
-28.07598336439112
 20
142.3825114249557
 30
0.0
 42
-0.1473783213971402
  0
VERTEX
  5
105
  8
DEFAULT
 62
     5
 10
-27.43593672076371
 20
142.9700885089188
 30
0.0
 42
-0.0634404934847328
  0
VERTEX
  5
106
  8
DEFAULT
 62
     5
 10
-26.248822493798
 20
143.3261843468794
 30
0.0
 42
0.0472009877728982
  0
VERTEX
  5
107
  8
DEFAULT
 62
     5
 10
-24.79820568080486
 20
143.7019556574692
 30
0.0
  0
VERTEX
  5
108
  8
DEFAULT
 62
     5
 10
-24.79820568080486
 20
143.8570483560272
 30
0.0
 42
0.2070921599656081
  0
VERTEX
  5
109
  8
DEFAULT
 62
     5
 10
-25.00306652700239
 20
144.498252047957
 30
0.0
 42
0.1777887432707974
  0
VERTEX
  5
10A
  8
DEFAULT
 62
     5
 10
-25.77660060124602
 20
144.6896099784569
 30
0.0
 42
0.1651091138038782
  0
VERTEX
  5
10B
  8
DEFAULT
 62
     5
 10
-26.3757515591264
 20
144.5252582561183
 30
0.0
 42
0.1491587679877559
  0
SEQEND
  5
10C
  8
DEFAULT
 62
     5
  0
POLYLINE
  5
10D
  8
DEFAULT
 62
     5
 66
     1
 10
0.0
 20
0.0
 30
0.0
 70
     1
  0
VERTEX
  5
10E
  8
DEFAULT
 62
     5
 10
-33.09450197710115
 20
142.9349807020454
 30
0.0
 42
0.1662127852120474
  0
VERTEX
  5
10F
  8
DEFAULT
 62
     5
 10
-32.7156438228965
 20
141.4619866276322
 30
0.0
 42
0.2404461653497616
  0
VERTEX
  5
110
  8
DEFAULT
 62
     5
 10
-31.79280417543641
 20
140.9859062747532
 30
0.0
 42
0.2413239634426927
  0
VERTEX
  5
111
  8
DEFAULT
 62
     5
 10
-30.92281951923066
 20
141.4230207371976
 30
0.0
 42
0.1627449374921662
  0
VERTEX
  5
112
  8
DEFAULT
 62
     5
 10
-30.57598345858263
 20
142.8570489211762
 30
0.0
 42
0.1661976731382161
  0
VERTEX
  5
113
  8
DEFAULT
 62
     5
 10
-30.93362215320159
 20
144.2386071687246
 30
0.0
 42
0.2412377667960564
  0
VERTEX
  5
114
  8
DEFAULT
 62
     5
 10
-31.81903839011954
 20
144.6896099784569
 30
0.0
 42
0.2367422129321735
  0
VERTEX
  5
115
  8
DEFAULT
 62
     5
 10
-32.73184739708689
 20
144.2467087674368
 30
0.0
 42
0.1723447809988931
  0
SEQEND
  5
116
  8
DEFAULT
 62
     5
  0
POLYLINE
  5
117
  8
DEFAULT
 62
     5
 66
     1
 10
0.0
 20
0.0
 30
0.0
 70
     1
  0
VERTEX
  5
118
  8
DEFAULT
 62
     5
 10
-34.62536617463202
 20
145.7266470154939
 30
0.0
  0
VERTEX
  5
119
  8
DEFAULT
 62
     5
 10
-33.19326740919992
 20
145.7266470154939
 30
0.0
  0
VERTEX
  5
11A
  8
DEFAULT
 62
     5
 10
-33.19326740919992
 20
144.8840551293375
 30
0.0
 42
-0.1189653659007712
  0
VERTEX
  5
11B
  8
DEFAULT
 62
     5
 10
-32.45368371676152
 20
145.5954744350144
 30
0.0
 42
-0.1382105598909876
  0
VERTEX
  5
11C
  8
DEFAULT
 62
     5
 10
-31.41934696145124
 20
145.8747951636421
 30
0.0
 42
-0.2273648758850416
  0
VERTEX
  5
11D
  8
DEFAULT
 62
     5
 10
-29.73647728574312
 20
145.081199808413
 30
0.0
 42
-0.1838682188936166
  0
VERTEX
  5
11E
  8
DEFAULT
 62
     5
 10
-29.04511926105178
 20
142.870937268464
 30
0.0
 42
-0.1823656645300261
  0
VERTEX
  5
11F
  8
DEFAULT
 62
     5
 10
-29.7422640343187
 20
140.6078201140267
 30
0.0
 42
-0.2285594541574723
  0
VERTEX
  5
120
  8
DEFAULT
 62
     5
 10
-31.43169282884657
 20
139.800721089568
 30
0.0
 42
-0.1163198006807564
  0
VERTEX
  5
121
  8
DEFAULT
 62
     5
 10
-32.28740295264246
 20
139.9897645466972
 30
0.0
 42
-0.0904152380777687
  0
VERTEX
  5
122
  8
DEFAULT
 62
     5
 10
-33.09450197710115
 20
140.6379131658028
 30
0.0
  0
VERTEX
  5
123
  8
DEFAULT
 62
     5
 10
-33.09450197710115
 20
137.7266470154939
 30
0.0
  0
VERTEX
  5
124
  8
DEFAULT
 62
     5
 10
-34.62536617463202
 20
137.7266470154939
 30
0.0
  0
SEQEND
  5
125
  8
DEFAULT
 62
     5
  0
POLYLINE
  5
126
  8
DEFAULT
 62
     5
 66
     1
 10
0.0
 20
0.0
 30
0.0
 70
     1
  0
VERTEX
  5
127
  8
DEFAULT
 62
     5
 10
-41.34141555734806
 20
141.5784988673458
 30
0.0
  0
VERTEX
  5
128
  8
DEFAULT
 62
     5
 10
-39.81055135981721
 20
141.7760297315433
 30
0.0
 42
0.1817134537412912
  0
VERTEX
  5
129
  8
DEFAULT
 62
     5
 10
-39.41433182958784
 20
141.1132211484377
 30
0.0
 42
0.163749031883276
  0
VERTEX
  5
12A
  8
DEFAULT
 62
     5
 10
-38.57984078861173
 20
140.8871408426544
 30
0.0
 42
0.1581548590316141
  0
VERTEX
  5
12B
  8
DEFAULT
 62
     5
 10
-37.69018028301063
 20
141.1085918249304
 30
0.0
 42
0.2454173628752357
  0
VERTEX
  5
12C
  8
DEFAULT
 62
     5
 10
-37.48956370549617
 20
141.5237155878429
 30
0.0
 42
0.1967133408658849
  0
VERTEX
  5
12D
  8
DEFAULT
 62
     5
 10
-37.59835940132174
 20
141.8169254172904
 30
0.0
 42
0.115248044176284
  0
VERTEX
  5
12E
  8
DEFAULT
 62
     5
 10
-38.11070536290856
 20
142.0214008318978
 30
0.0
 42
-0.0750101977649307
  0
VERTEX
  5
12F
  8
DEFAULT
 62
     5
 10
-40.4579272319127
 20
142.7768015366385
 30
0.0
 42
-0.2630575377237381
  0
VERTEX
  5
130
  8
DEFAULT
 62
     5
 10
-41.14388469315055
 20
144.0869871221375
 30
0.0
 42
-0.2278055359033999
  0
VERTEX
  5
131
  8
DEFAULT
 62
     5
 10
-40.55090629220183
 20
145.3593631119724
 30
0.0
 42
-0.1789409577799038
  0
VERTEX
  5
132
  8
DEFAULT
 62
     5
 10
-38.71255735604765
 20
145.8747951636421
 30
0.0
 42
-0.147868022751286
  0
VERTEX
  5
133
  8
DEFAULT
 62
     5
 10
-36.95021153574807
 20
145.4754899200959
 30
0.0
 42
-0.179868136213198
  0
VERTEX
  5
134
  8
DEFAULT
 62
     5
 10
-36.15623037216287
 20
144.2945482500618
 30
0.0
  0
VERTEX
  5
135
  8
DEFAULT
 62
     5
 10
-37.58832913759499
 20
144.0476346698149
 30
0.0
 42
0.1762609448244265
  0
VERTEX
  5
136
  8
DEFAULT
 62
     5
 10
-37.93863747344794
 20
144.5974032884119
 30
0.0
 42
0.159821467823644
  0
VERTEX
  5
137
  8
DEFAULT
 62
     5
 10
-38.6747488906814
 20
144.7883754105557
 30
0.0
 42
0.1371855487858006
  0
VERTEX
  5
138
  8
DEFAULT
 62
     5
 10
-39.53817442806738
 20
144.6170795145732
 30
0.0
 42
0.5297885667390079
  0
VERTEX
  5
139
  8
DEFAULT
 62
     5
 10
-39.55977969600925
 20
144.0190856049952
 30
0.0
 42
0.0664798749578999
  0
VERTEX
  5
13A
  8
DEFAULT
 62
     5
 10
-38.13616833764546
 20
143.5819715193167
 30
0.0
 42
-0.1095214193377313
  0
VERTEX
  5
13B
  8
DEFAULT
 62
     5
 10
-36.43632271750281
 20
142.8948573865425
 30
0.0
 42
-0.228411495879752
  0
VERTEX
  5
13C
  8
DEFAULT
 62
     5
 10
-35.95869950796536
 20
141.7505671335724
 30
0.0
 42
-0.2276229810650701
  0
VERTEX
  5
13D
  8
DEFAULT
 62
     5
 10
-36.62073647435876
 20
140.3755668745457
 30
0.0
 42
-0.1809722242825225
  0
VERTEX
  5
13E
  8
DEFAULT
 62
     5
 10
-38.57984078861173
 20
139.800721089568
 30
0.0
 42
-0.1534212868272165
  0
VERTEX
  5
13F
  8
DEFAULT
 62
     5
 10
-40.44365307626877
 20
140.2791162925836
 30
0.0
 42
-0.1853542620166131
  0
SEQEND
  5
140
  8
DEFAULT
 62
     5
  0
POLYLINE
  5
141
  8
DEFAULT
 62
     5
 66
     1
 10
0.0
 20
0.0
 30
0.0
 70
     1
  0
VERTEX
  5
142
  8
DEFAULT
 62
     5
 10
-42.32906987833572
 20
139.9488692377161
 30
0.0
  0
VERTEX
  5
143
  8
DEFAULT
 62
     5
 10
-43.85993407586658
 20
139.9488692377161
 30
0.0
  0
VERTEX
  5
144
  8
DEFAULT
 62
     5
 10
-43.85993407586658
 20
142.8987154701035
 30
0.0
 42
0.065904340344203
  0
VERTEX
  5
145
  8
DEFAULT
 62
     5
 10
-43.95638465782873
 20
144.1101352467378
 30
0.0
 42
0.1600130695766184
  0
VERTEX
  5
146
  8
DEFAULT
 62
     5
 10
-44.26965614502762
 20
144.5372183151576
 30
0.0
 42
0.1575149176297875
  0
VERTEX
  5
147
  8
DEFAULT
 62
     5
 10
-44.79126113039499
 20
144.6896099784569
 30
0.0
 42
0.1576987046345223
  0
VERTEX
  5
148
  8
DEFAULT
 62
     5
 10
-45.49226398722297
 20
144.4720174565079
 30
0.0
 42
0.1684371822617251
  0
VERTEX
  5
149
  8
DEFAULT
 62
     5
 10
-45.91780419898427
 20
143.8952430065156
 30
0.0
 42
0.0659809918576532
  0
VERTEX
  5
14A
  8
DEFAULT
 62
     5
 10
-46.03277358203943
 20
142.5669248050456
 30
0.0
  0
VERTEX
  5
14B
  8
DEFAULT
 62
     5
 10
-46.03277358203943
 20
139.9488692377161
 30
0.0
  0
VERTEX
  5
14C
  8
DEFAULT
 62
     5
 10
-47.56363777957029
 20
139.9488692377161
 30
0.0
  0
VERTEX
  5
14D
  8
DEFAULT
 62
     5
 10
-47.56363777957029
 20
145.7266470154939
 30
0.0
  0
VERTEX
  5
14E
  8
DEFAULT
 62
     5
 10
-46.13153901413818
 20
145.7266470154939
 30
0.0
  0
VERTEX
  5
14F
  8
DEFAULT
 62
     5
 10
-46.13153901413818
 20
144.8840551293376
 30
0.0
 42
-0.2486296121988377
  0
VERTEX
  5
150
  8
DEFAULT
 62
     5
 10
-44.24882287056398
 20
145.8747951636421
 30
0.0
 42
-0.1053164015608059
  0
VERTEX
  5
151
  8
DEFAULT
 62
     5
 10
-43.33485681529429
 20
145.6919250169765
 30
0.0
 42
-0.1292191717088802
  0
VERTEX
  5
152
  8
DEFAULT
 62
     5
 10
-42.7083134641305
 20
145.2254898730001
 30
0.0
 42
-0.1054932374261851
  0
VERTEX
  5
153
  8
DEFAULT
 62
     5
 10
-42.41240297619035
 20
144.5815855225776
 30
0.0
 42
-0.0533641385177235
  0
VERTEX
  5
154
  8
DEFAULT
 62
     5
 10
-42.32906987833572
 20
143.549950179292
 30
0.0
  0
SEQEND
  5
155
  8
DEFAULT
 62
     5
  0
POLYLINE
  5
156
  8
DEFAULT
 62
     5
 66
     1
 10
0.0
 20
0.0
 30
0.0
 70
     1
  0
VERTEX
  5
157
  8
DEFAULT
 62
     5
 10
-50.6747488906814
 20
142.7143013364816
 30
0.0
  0
VERTEX
  5
158
  8
DEFAULT
 62
     5
 10
-51.56595225294093
 20
142.4805052403422
 30
0.0
 42
0.0811165779561269
  0
VERTEX
  5
159
  8
DEFAULT
 62
     5
 10
-52.36301988337498
 20
142.214301995822
 30
0.0
 42
0.2517191883486033
  0
VERTEX
  5
15A
  8
DEFAULT
 62
     5
 10
-52.65005753265671
 20
141.6757218195521
 30
0.0
 42
0.4298150945545076
  0
VERTEX
  5
15B
  8
DEFAULT
 62
     5
 10
-51.83678557450035
 20
140.8871408426544
 30
0.0
 42
0.1670482644845584
  0
VERTEX
  5
15C
  8
DEFAULT
 62
     5
 10
-51.08138411622763
 20
141.158746157692
 30
0.0
 42
0.1651612454991128
  0
VERTEX
  5
15D
  8
DEFAULT
 62
     5
 10
-50.73184702032091
 20
141.6649191855811
 30
0.0
  0
VERTEX
  5
15E
  8
DEFAULT
 62
     5
 10
-50.6747488906814
 20
142.4095180098829
 30
0.0
  0
SEQEND
  5
15F
  8
DEFAULT
 62
     5
  0
POLYLINE
  5
160
  8
DEFAULT
 62
     5
 66
     1
 10
0.0
 20
0.0
 30
0.0
 70
     1
  0
VERTEX
  5
161
  8
DEFAULT
 62
     5
 10
-52.60067481660732
 20
143.9488692377161
 30
0.0
  0
VERTEX
  5
162
  8
DEFAULT
 62
     5
 10
-53.98339086599003
 20
144.1464001019137
 30
0.0
 42
-0.1714833175990291
  0
VERTEX
  5
163
  8
DEFAULT
 62
     5
 10
-53.19365284079004
 20
145.4511843704273
 30
0.0
 42
-0.1608829132837333
  0
VERTEX
  5
164
  8
DEFAULT
 62
     5
 10
-51.52891502752091
 20
145.8747951636421
 30
0.0
 42
-0.1088364278880751
  0
VERTEX
  5
165
  8
DEFAULT
 62
     5
 10
-50.03508805541007
 20
145.6321254753123
 30
0.0
 42
-0.1580303644335008
  0
VERTEX
  5
166
  8
DEFAULT
 62
     5
 10
-49.34411583907482
 20
145.0156131414072
 30
0.0
 42
-0.1088017057953389
  0
VERTEX
  5
167
  8
DEFAULT
 62
     5
 10
-49.14388469315054
 20
143.6433142944053
 30
0.0
  0
VERTEX
  5
168
  8
DEFAULT
 62
     5
 10
-49.14388469315055
 20
141.8531906492322
 30
0.0
 42
0.0514080219695174
  0
VERTEX
  5
169
  8
DEFAULT
 62
     5
 10
-49.06055121852997
 20
140.7262613955208
 30
0.0
 42
0.0692287864232324
  0
VERTEX
  5
16A
  8
DEFAULT
 62
     5
 10
-48.74882296475548
 20
139.9488692377161
 30
0.0
  0
VERTEX
  5
16B
  8
DEFAULT
 62
     5
 10
-50.27968716228634
 20
139.9488692377161
 30
0.0
  0
VERTEX
  5
16C
  8
DEFAULT
 62
     5
 10
-50.42629207701006
 20
140.3964001490094
 30
0.0
  0
VERTEX
  5
16D
  8
DEFAULT
 62
     5
 10
-50.48030373980075
 20
140.5746413489337
 30
0.0
 42
-0.09332441867381
  0
VERTEX
  5
16E
  8
DEFAULT
 62
     5
 10
-51.31595258261116
 20
139.9943942469704
 30
0.0
 42
-0.1040133466925633
  0
VERTEX
  5
16F
  8
DEFAULT
 62
     5
 10
-52.26579768470062
 20
139.800721089568
 30
0.0
 42
-0.1965430357596711
  0
VERTEX
  5
170
  8
DEFAULT
 62
     5
 10
-53.66818996024465
 20
140.2849034179252
 30
0.0
 42
-0.2154369487651333
  0
VERTEX
  5
171
  8
DEFAULT
 62
     5
 10
-54.18092173018755
 20
141.5090548703109
 30
0.0
 42
-0.1373780248024487
  0
VERTEX
  5
172
  8
DEFAULT
 62
     5
 10
-53.95252657426768
 20
142.3825114249557
 30
0.0
 42
-0.1473783213971543
  0
VERTEX
  5
173
  8
DEFAULT
 62
     5
 10
-53.31247993064025
 20
142.9700885089189
 30
0.0
 42
-0.0634404934847256
  0
VERTEX
  5
174
  8
DEFAULT
 62
     5
 10
-52.12536570367455
 20
143.3261843468794
 30
0.0
 42
0.0472009877728987
  0
VERTEX
  5
175
  8
DEFAULT
 62
     5
 10
-50.6747488906814
 20
143.7019556574692
 30
0.0
  0
VERTEX
  5
176
  8
DEFAULT
 62
     5
 10
-50.67474889068141
 20
143.8570483560272
 30
0.0
 42
0.2070921599656087
  0
VERTEX
  5
177
  8
DEFAULT
 62
     5
 10
-50.87960973687895
 20
144.498252047957
 30
0.0
 42
0.1777887432707962
  0
VERTEX
  5
178
  8
DEFAULT
 62
     5
 10
-51.65314381112255
 20
144.6896099784569
 30
0.0
 42
0.1651091138038831
  0
VERTEX
  5
179
  8
DEFAULT
 62
     5
 10
-52.25229476900294
 20
144.5252582561183
 30
0.0
 42
0.1491587679877654
  0
SEQEND
  5
17A
  8
DEFAULT
 62
     5
  0
POLYLINE
  5
17B
  8
DEFAULT
 62
     5
 66
     1
 10
0.0
 20
0.0
 30
0.0
 70
     1
  0
VERTEX
  5
17C
  8
DEFAULT
 62
     5
 10
-63.71178592771843
 20
145.7266470154939
 30
0.0
  0
VERTEX
  5
17D
  8
DEFAULT
 62
     5
 10
-62.32906987833572
 20
145.7266470154939
 30
0.0
  0
VERTEX
  5
17E
  8
DEFAULT
 62
     5
 10
-62.32906987833571
 20
144.9434681091137
 30
0.0
 42
-0.2373869490350057
  0
VERTEX
  5
17F
  8
DEFAULT
 62
     5
 10
-60.53200168275274
 20
145.874795163642
 30
0.0
 42
-0.131512031073454
  0
VERTEX
  5
180
  8
DEFAULT
 62
     5
 10
-59.57173937828251
 20
145.6433139176393
 30
0.0
 42
-0.139385327224486
  0
VERTEX
  5
181
  8
DEFAULT
 62
     5
 10
-58.90391528654752
 20
144.9434681091136
 30
0.0
 42
-0.1018343532165833
  0
VERTEX
  5
182
  8
DEFAULT
 62
     5
 10
-58.08678562159608
 20
145.6433139176393
 30
0.0
 42
-0.1239296679570976
  0
VERTEX
  5
183
  8
DEFAULT
 62
     5
 10
-57.15082849002846
 20
145.8747951636421
 30
0.0
 42
-0.1355305589142037
  0
VERTEX
  5
184
  8
DEFAULT
 62
     5
 10
-56.079069454474
 20
145.6155360927658
 30
0.0
 42
-0.1623661969580966
  0
VERTEX
  5
185
  8
DEFAULT
 62
     5
 10
-55.4239766617245
 20
144.8547336942736
 30
0.0
 42
-0.0915442810314489
  0
VERTEX
  5
186
  8
DEFAULT
 62
     5
 10
-55.267341483274
 20
143.6541161748443
 30
0.0
  0
VERTEX
  5
187
  8
DEFAULT
 62
     5
 10
-55.267341483274
 20
139.9488692377161
 30
0.0
  0
VERTEX
  5
188
  8
DEFAULT
 62
     5
 10
-56.79820568080486
 20
139.9488692377161
 30
0.0
  0
VERTEX
  5
189
  8
DEFAULT
 62
     5
 10
-56.79820568080488
 20
143.2528822662835
 30
0.0
 42
0.1141470137910803
  0
VERTEX
  5
18A
  8
DEFAULT
 62
     5
 10
-56.95406924254314
 20
144.3632213839164
 30
0.0
 42
0.2721000606533407
  0
VERTEX
  5
18B
  8
DEFAULT
 62
     5
 10
-57.59990263474616
 20
144.6896099784568
 30
0.0
 42
0.1575639071467039
  0
VERTEX
  5
18C
  8
DEFAULT
 62
     5
 10
-58.19673949602186
 20
144.4936223476838
 30
0.0
 42
0.1657627374474323
  0
VERTEX
  5
18D
  8
DEFAULT
 62
     5
 10
-58.60028900825125
 20
143.9195485561842
 30
0.0
 42
0.0723437487254974
  0
VERTEX
  5
18E
  8
DEFAULT
 62
     5
 10
-58.72413160673078
 20
142.7251039704525
 30
0.0
  0
VERTEX
  5
18F
  8
DEFAULT
 62
     5
 10
-58.72413160673078
 20
139.9488692377161
 30
0.0
  0
VERTEX
  5
190
  8
DEFAULT
 62
     5
 10
-60.25499580426164
 20
139.9488692377161
 30
0.0
  0
VERTEX
  5
191
  8
DEFAULT
 62
     5
 10
-60.25499580426163
 20
143.1163076152865
 30
0.0
 42
0.0609892367974944
  0
VERTEX
  5
192
  8
DEFAULT
 62
     5
 10
-60.3348566269113
 20
144.2054280268657
 30
0.0
 42
0.1633931196984989
  0
VERTEX
  5
193
  8
DEFAULT
 62
     5
 10
-60.58292725546055
 20
144.5700112718945
 30
0.0
 42
0.1561218014296871
  0
VERTEX
  5
194
  8
DEFAULT
 62
     5
 10
-61.03894632735409
 20
144.6896099784569
 30
0.0
 42
0.1551837175468269
  0
VERTEX
  5
195
  8
DEFAULT
 62
     5
 10
-61.66356025997139
 20
144.4990236646692
 30
0.0
 42
0.1670025847935157
  0
VERTEX
  5
196
  8
DEFAULT
 62
     5
 10
-62.0609368385031
 20
143.9492554228382
 30
0.0
 42
0.0722698594962533
  0
VERTEX
  5
197
  8
DEFAULT
 62
     5
 10
-62.18092173018756
 20
142.7575118723652
 30
0.0
  0
VERTEX
  5
198
  8
DEFAULT
 62
     5
 10
-62.18092173018757
 20
139.9488692377161
 30
0.0
  0
VERTEX
  5
199
  8
DEFAULT
 62
     5
 10
-63.71178592771843
 20
139.9488692377161
 30
0.0
  0
SEQEND
  5
19A
  8
DEFAULT
 62
     5
  0
POLYLINE
  5
19B
  8
DEFAULT
 62
     5
 66
     1
 10
0.0
 20
0.0
 30
0.0
 70
     1
  0
VERTEX
  5
19C
  8
DEFAULT
 62
     5
 10
-70.27968716228634
 20
141.5784988673458
 30
0.0
  0
VERTEX
  5
19D
  8
DEFAULT
 62
     5
 10
-68.74882296475548
 20
141.7760297315433
 30
0.0
 42
0.181713453741261
  0
VERTEX
  5
19E
  8
DEFAULT
 62
     5
 10
-68.35260343452612
 20
141.1132211484377
 30
0.0
 42
0.1637490318832753
  0
VERTEX
  5
19F
  8
DEFAULT
 62
     5
 10
-67.51811239355
 20
140.8871408426544
 30
0.0
 42
0.1581548590315957
  0
VERTEX
  5
1A0
  8
DEFAULT
 62
     5
 10
-66.6284518879489
 20
141.1085918249304
 30
0.0
 42
0.2454173628752578
  0
VERTEX
  5
1A1
  8
DEFAULT
 62
     5
 10
-66.42783531043446
 20
141.5237155878429
 30
0.0
 42
0.1967133408658664
  0
VERTEX
  5
1A2
  8
DEFAULT
 62
     5
 10
-66.53663100626002
 20
141.8169254172904
 30
0.0
 42
0.1152480441762821
  0
VERTEX
  5
1A3
  8
DEFAULT
 62
     5
 10
-67.04897696784684
 20
142.0214008318977
 30
0.0
 42
-0.0750101977649256
  0
VERTEX
  5
1A4
  8
DEFAULT
 62
     5
 10
-69.39619883685094
 20
142.7768015366385
 30
0.0
 42
-0.2630575377237332
  0
VERTEX
  5
1A5
  8
DEFAULT
 62
     5
 10
-70.0821562980888
 20
144.0869871221375
 30
0.0
 42
-0.2278055359034128
  0
VERTEX
  5
1A6
  8
DEFAULT
 62
     5
 10
-69.4891778971401
 20
145.3593631119724
 30
0.0
 42
-0.1789409577799183
  0
VERTEX
  5
1A7
  8
DEFAULT
 62
     5
 10
-67.65082896098593
 20
145.8747951636421
 30
0.0
 42
-0.1478680227512851
  0
VERTEX
  5
1A8
  8
DEFAULT
 62
     5
 10
-65.88848314068635
 20
145.4754899200958
 30
0.0
 42
-0.1798681362132141
  0
VERTEX
  5
1A9
  8
DEFAULT
 62
     5
 10
-65.09450197710116
 20
144.2945482500618
 30
0.0
  0
VERTEX
  5
1AA
  8
DEFAULT
 62
     5
 10
-66.52660074253323
 20
144.0476346698149
 30
0.0
 42
0.1762609448244162
  0
VERTEX
  5
1AB
  8
DEFAULT
 62
     5
 10
-66.8769090783862
 20
144.5974032884119
 30
0.0
 42
0.1598214678236489
  0
VERTEX
  5
1AC
  8
DEFAULT
 62
     5
 10
-67.61302049561966
 20
144.7883754105557
 30
0.0
 42
0.137185548785783
  0
VERTEX
  5
1AD
  8
DEFAULT
 62
     5
 10
-68.47644603300567
 20
144.6170795145732
 30
0.0
 42
0.5297885667388827
  0
VERTEX
  5
1AE
  8
DEFAULT
 62
     5
 10
-68.49805130094752
 20
144.0190856049952
 30
0.0
 42
0.0664798749578978
  0
VERTEX
  5
1AF
  8
DEFAULT
 62
     5
 10
-67.07443994258374
 20
143.5819715193167
 30
0.0
 42
-0.1095214193377379
  0
VERTEX
  5
1B0
  8
DEFAULT
 62
     5
 10
-65.37459432244107
 20
142.8948573865425
 30
0.0
 42
-0.2284114958797427
  0
VERTEX
  5
1B1
  8
DEFAULT
 62
     5
 10
-64.89697111290364
 20
141.7505671335724
 30
0.0
 42
-0.227622981065056
  0
VERTEX
  5
1B2
  8
DEFAULT
 62
     5
 10
-65.55900807929703
 20
140.3755668745458
 30
0.0
 42
-0.1809722242825303
  0
VERTEX
  5
1B3
  8
DEFAULT
 62
     5
 10
-67.51811239355
 20
139.800721089568
 30
0.0
 42
-0.1534212868272133
  0
VERTEX
  5
1B4
  8
DEFAULT
 62
     5
 10
-69.38192468120705
 20
140.2791162925837
 30
0.0
 42
-0.1853542620166276
  0
SEQEND
  5
1B5
  8
DEFAULT
 62
     5
  0
POLYLINE
  5
1B6
  8
DEFAULT
 62
     5
 66
     1
 10
0.0
 20
0.0
 30
0.0
 70
     1
  0
VERTEX
  5
1B7
  8
DEFAULT
 62
     5
 10
-70.77351432278016
 20
145.7266470154939
 30
0.0
  0
VERTEX
  5
1B8
  8
DEFAULT
 62
     5
 10
-70.77351432278016
 20
144.5414618303087
 30
0.0
  0
VERTEX
  5
1B9
  8
DEFAULT
 62
     5
 10
-71.8105513598172
 20
144.5414618303087
 30
0.0
  0
VERTEX
  5
1BA
  8
DEFAULT
 62
     5
 10
-71.8105513598172
 20
142.1556598792261
 30
0.0
  0
VERTEX
  5
1BB
  8
DEFAULT
 62
     5
 10
-71.78123030151926
 20
141.3111378209913
 30
0.0
  0
VERTEX
  5
1BC
  8
DEFAULT
 62
     5
 10
-71.6488999192054
 20
141.1132211484377
 30
0.0
  0
VERTEX
  5
1BD
  8
DEFAULT
 62
     5
 10
-71.39697083032914
 20
141.0352889908026
 30
0.0
  0
VERTEX
  5
1BE
  8
DEFAULT
 62
     5
 10
-70.79820530403887
 20
141.181123042346
 30
0.0
  0
VERTEX
  5
1BF
  8
DEFAULT
 62
     5
 10
-70.6747488906814
 20
140.0229436885562
 30
0.0
 42
-0.1009135694950926
  0
VERTEX
  5
1C0
  8
DEFAULT
 62
     5
 10
-71.86610625603231
 20
139.800721089568
 30
0.0
 42
-0.1023112505793894
  0
VERTEX
  5
1C1
  8
DEFAULT
 62
     5
 10
-72.60106024819744
 20
139.94115344736
 30
0.0
 42
-0.1427327602513579
  0
VERTEX
  5
1C2
  8
DEFAULT
 62
     5
 10
-73.0813844929936
 20
140.3041938357304
 30
0.0
 42
-0.1112474266808021
  0
VERTEX
  5
1C3
  8
DEFAULT
 62
     5
 10
-73.29280370447896
 20
140.9064312604596
 30
0.0
  0
VERTEX
  5
1C4
  8
DEFAULT
 62
     5
 10
-73.34141555734806
 20
141.9951658636827
 30
0.0
  0
VERTEX
  5
1C5
  8
DEFAULT
 62
     5
 10
-73.34141555734806
 20
144.5414618303087
 30
0.0
  0
VERTEX
  5
1C6
  8
DEFAULT
 62
     5
 10
-74.0821562980888
 20
144.5414618303087
 30
0.0
  0
VERTEX
  5
1C7
  8
DEFAULT
 62
     5
 10
-74.0821562980888
 20
145.7266470154939
 30
0.0
  0
VERTEX
  5
1C8
  8
DEFAULT
 62
     5
 10
-73.34141555734806
 20
145.7266470154939
 30
0.0
  0
VERTEX
  5
1C9
  8
DEFAULT
 62
     5
 10
-73.34141555734806
 20
146.8130667685803
 30
0.0
  0
VERTEX
  5
1CA
  8
DEFAULT
 62
     5
 10
-71.8105513598172
 20
147.7019556574692
 30
0.0
  0
VERTEX
  5
1CB
  8
DEFAULT
 62
     5
 10
-71.8105513598172
 20
145.7266470154939
 30
0.0
  0
SEQEND
  5
1CC
  8
DEFAULT
 62
     5
  0
POLYLINE
  5
1CD
  8
DEFAULT
 62
     5
 66
     1
 10
0.0
 20
0.0
 30
0.0
 70
     1
  0
VERTEX
  5
1CE
  8
DEFAULT
 62
     5
 10
-77.73647728574312
 20
145.7266470154939
 30
0.0
  0
VERTEX
  5
1CF
  8
DEFAULT
 62
     5
 10
-76.946353828953
 20
145.7266470154939
 30
0.0
  0
VERTEX
  5
1D0
  8
DEFAULT
 62
     5
 10
-76.946353828953
 20
146.1595179627872
 30
0.0
 42
-0.0950504639922819
  0
VERTEX
  5
1D1
  8
DEFAULT
 62
     5
 10
-76.79357598053157
 20
147.2413080156003
 30
0.0
 42
-0.1716707163024237
  0
VERTEX
  5
1D2
  8
DEFAULT
 62
     5
 10
-76.23068987782707
 20
147.823097974222
 30
0.0
 42
-0.1257658996646719
  0
VERTEX
  5
1D3
  8
DEFAULT
 62
     5
 10
-75.19326703243394
 20
148.0476346698149
 30
0.0
 42
-0.0781428993827265
  0
VERTEX
  5
1D4
  8
DEFAULT
 62
     5
 10
-73.93400814994065
 20
147.8501038056174
 30
0.0
  0
VERTEX
  5
1D5
  8
DEFAULT
 62
     5
 10
-74.10684727934752
 20
146.7760299199263
 30
0.0
  0
VERTEX
  5
1D6
  8
DEFAULT
 62
     5
 10
-74.80129177088772
 20
146.8624494846297
 30
0.0
 42
0.2070684672811591
  0
VERTEX
  5
1D7
  8
DEFAULT
 62
     5
 10
-75.27274242349347
 20
146.7104436296865
 30
0.0
 42
0.1773524100532121
  0
VERTEX
  5
1D8
  8
DEFAULT
 62
     5
 10
-75.41548963142213
 20
146.1263384441622
 30
0.0
  0
VERTEX
  5
1D9
  8
DEFAULT
 62
     5
 10
-75.41548963142213
 20
145.7266470154939
 30
0.0
  0
VERTEX
  5
1DA
  8
DEFAULT
 62
     5
 10
-74.32906987833572
 20
145.7266470154939
 30
0.0
  0
VERTEX
  5
1DB
  8
DEFAULT
 62
     5
 10
-74.32906987833572
 20
144.5414618303087
 30
0.0
  0
VERTEX
  5
1DC
  8
DEFAULT
 62
     5
 10
-75.41548963142213
 20
144.5414618303087
 30
0.0
  0
VERTEX
  5
1DD
  8
DEFAULT
 62
     5
 10
-75.41548963142213
 20
139.9488692377161
 30
0.0
  0
VERTEX
  5
1DE
  8
DEFAULT
 62
     5
 10
-76.946353828953
 20
139.9488692377161
 30
0.0
  0
VERTEX
  5
1DF
  8
DEFAULT
 62
     5
 10
-76.946353828953
 20
144.5414618303087
 30
0.0
  0
VERTEX
  5
1E0
  8
DEFAULT
 62
     5
 10
-77.73647728574312
 20
144.5414618303087
 30
0.0
  0
SEQEND
  5
1E1
  8
DEFAULT
 62
     5
  0
POLYLINE
  5
1E2
  8
DEFAULT
 62
     5
 66
     1
 10
0.0
 20
0.0
 30
0.0
 70
     1
  0
VERTEX
  5
1E3
  8
DEFAULT
 62
     5
 10
-80.25499580426164
 20
142.7143013364816
 30
0.0
  0
VERTEX
  5
1E4
  8
DEFAULT
 62
     5
 10
-81.14619916652119
 20
142.4805052403422
 30
0.0
 42
0.0811165779561253
  0
VERTEX
  5
1E5
  8
DEFAULT
 62
     5
 10
-81.94326679695521
 20
142.214301995822
 30
0.0
 42
0.2517191883485995
  0
VERTEX
  5
1E6
  8
DEFAULT
 62
     5
 10
-82.23030444623696
 20
141.6757218195521
 30
0.0
 42
0.4298150945544503
  0
VERTEX
  5
1E7
  8
DEFAULT
 62
     5
 10
-81.41703248808058
 20
140.8871408426544
 30
0.0
 42
0.1670482644845566
  0
VERTEX
  5
1E8
  8
DEFAULT
 62
     5
 10
-80.6616310298079
 20
141.158746157692
 30
0.0
 42
0.1651612454990908
  0
VERTEX
  5
1E9
  8
DEFAULT
 62
     5
 10
-80.31209393390118
 20
141.6649191855811
 30
0.0
  0
VERTEX
  5
1EA
  8
DEFAULT
 62
     5
 10
-80.25499580426164
 20
142.4095180098829
 30
0.0
  0
SEQEND
  5
1EB
  8
DEFAULT
 62
     5
  0
POLYLINE
  5
1EC
  8
DEFAULT
 62
     5
 66
     1
 10
0.0
 20
0.0
 30
0.0
 70
     1
  0
VERTEX
  5
1ED
  8
DEFAULT
 62
     5
 10
-82.18092173018758
 20
143.9488692377161
 30
0.0
  0
VERTEX
  5
1EE
  8
DEFAULT
 62
     5
 10
-83.56363777957029
 20
144.1464001019137
 30
0.0
 42
-0.1714833175990251
  0
VERTEX
  5
1EF
  8
DEFAULT
 62
     5
 10
-82.7738997543703
 20
145.4511843704273
 30
0.0
 42
-0.1608829132837324
  0
VERTEX
  5
1F0
  8
DEFAULT
 62
     5
 10
-81.10916194110115
 20
145.8747951636421
 30
0.0
 42
-0.1088364278880697
  0
VERTEX
  5
1F1
  8
DEFAULT
 62
     5
 10
-79.61533496899031
 20
145.6321254753123
 30
0.0
 42
-0.1580303644335081
  0
VERTEX
  5
1F2
  8
DEFAULT
 62
     5
 10
-78.92436275265506
 20
145.0156131414072
 30
0.0
 42
-0.1088017057953339
  0
VERTEX
  5
1F3
  8
DEFAULT
 62
     5
 10
-78.72413160673078
 20
143.6433142944053
 30
0.0
  0
VERTEX
  5
1F4
  8
DEFAULT
 62
     5
 10
-78.7241316067308
 20
141.8531906492322
 30
0.0
 42
0.0514080219695176
  0
VERTEX
  5
1F5
  8
DEFAULT
 62
     5
 10
-78.64079813211022
 20
140.7262613955208
 30
0.0
 42
0.0692287864232148
  0
VERTEX
  5
1F6
  8
DEFAULT
 62
     5
 10
-78.32906987833572
 20
139.9488692377161
 30
0.0
  0
VERTEX
  5
1F7
  8
DEFAULT
 62
     5
 10
-79.85993407586659
 20
139.9488692377161
 30
0.0
  0
VERTEX
  5
1F8
  8
DEFAULT
 62
     5
 10
-80.00653899059031
 20
140.3964001490094
 30
0.0
  0
VERTEX
  5
1F9
  8
DEFAULT
 62
     5
 10
-80.060550653381
 20
140.5746413489337
 30
0.0
 42
-0.0933244186738068
  0
VERTEX
  5
1FA
  8
DEFAULT
 62
     5
 10
-80.8961994961914
 20
139.9943942469704
 30
0.0
 42
-0.1040133466925638
  0
VERTEX
  5
1FB
  8
DEFAULT
 62
     5
 10
-81.84604459828086
 20
139.800721089568
 30
0.0
 42
-0.196543035759671
  0
VERTEX
  5
1FC
  8
DEFAULT
 62
     5
 10
-83.24843687382486
 20
140.2849034179252
 30
0.0
 42
-0.2154369487651162
  0
VERTEX
  5
1FD
  8
DEFAULT
 62
     5
 10
-83.7611686437678
 20
141.5090548703109
 30
0.0
 42
-0.137378024802432
  0
VERTEX
  5
1FE
  8
DEFAULT
 62
     5
 10
-83.53277348784792
 20
142.3825114249557
 30
0.0
 42
-0.1473783213971271
  0
VERTEX
  5
1FF
  8
DEFAULT
 62
     5
 10
-82.8927268442205
 20
142.9700885089189
 30
0.0
 42
-0.0634404934847188
  0
VERTEX
  5
200
  8
DEFAULT
 62
     5
 10
-81.70561261725479
 20
143.3261843468794
 30
0.0
 42
0.0472009877728976
  0
VERTEX
  5
201
  8
DEFAULT
 62
     5
 10
-80.25499580426164
 20
143.7019556574692
 30
0.0
  0
VERTEX
  5
202
  8
DEFAULT
 62
     5
 10
-80.25499580426165
 20
143.8570483560272
 30
0.0
 42
0.2070921599656936
  0
VERTEX
  5
203
  8
DEFAULT
 62
     5
 10
-80.45985665045917
 20
144.498252047957
 30
0.0
 42
0.1777887432708025
  0
VERTEX
  5
204
  8
DEFAULT
 62
     5
 10
-81.23339072470279
 20
144.6896099784569
 30
0.0
 42
0.1651091138038538
  0
VERTEX
  5
205
  8
DEFAULT
 62
     5
 10
-81.83254168258317
 20
144.5252582561183
 30
0.0
 42
0.149158767987752
  0
SEQEND
  5
206
  8
DEFAULT
 62
     5
  0
POLYLINE
  5
207
  8
DEFAULT
 62
     5
 66
     1
 10
0.0
 20
0.0
 30
0.0
 70
     1
  0
VERTEX
  5
208
  8
DEFAULT
 62
     5
 10
-86.0821562980888
 20
139.9488692377161
 30
0.0
  0
VERTEX
  5
209
  8
DEFAULT
 62
     5
 10
-87.61302049561966
 20
139.9488692377161
 30
0.0
  0
VERTEX
  5
20A
  8
DEFAULT
 62
     5
 10
-87.61302049561966
 20
145.7266470154939
 30
0.0
  0
VERTEX
  5
20B
  8
DEFAULT
 62
     5
 10
-86.18092173018758
 20
145.7266470154939
 30
0.0
  0
VERTEX
  5
20C
  8
DEFAULT
 62
     5
 10
-86.18092173018758
 20
144.9110609607329
 30
0.0
 42
-0.0977550519460916
  0
VERTEX
  5
20D
  8
DEFAULT
 62
     5
 10
-85.55360676231157
 20
145.6818939997178
 30
0.0
 42
-0.1561720185078831
  0
VERTEX
  5
20E
  8
DEFAULT
 62
     5
 10
-84.92166209416234
 20
145.8747951636421
 30
0.0
 42
-0.1438170981370004
  0
VERTEX
  5
20F
  8
DEFAULT
 62
     5
 10
-83.95869950796535
 20
145.5839001843312
 30
0.0
  0
VERTEX
  5
210
  8
DEFAULT
 62
     5
 10
-84.4278349336685
 20
144.24362305412
 30
0.0
 42
0.1496770151887395
  0
VERTEX
  5
211
  8
DEFAULT
 62
     5
 10
-85.10993355781338
 20
144.4920791142594
 30
0.0
 42
0.1810970994866665
  0
VERTEX
  5
212
  8
DEFAULT
 62
     5
 10
-85.62729465126357
 20
144.3149960929353
 30
0.0
 42
0.1501348396488843
  0
VERTEX
  5
213
  8
DEFAULT
 62
     5
 10
-85.96062817297991
 20
143.6749498260739
 30
0.0
 42
0.0509111359642157
  0
VERTEX
  5
214
  8
DEFAULT
 62
     5
 10
-86.0821562980888
 20
141.7359064160404
 30
0.0
  0
SEQEND
  5
215
  8
DEFAULT
 62
     5
  0
POLYLINE
  5
216
  8
DEFAULT
 62
     5
 66
     1
 10
0.0
 20
0.0
 30
0.0
 70
     1
  0
VERTEX
  5
217
  8
DEFAULT
 62
     5
 10
-88.79820568080484
 20
144.0476346698149
 30
0.0
  0
VERTEX
  5
218
  8
DEFAULT
 62
     5
 10
-90.32906987833572
 20
143.800721089568
 30
0.0
 42
0.180996809817489
  0
VERTEX
  5
219
  8
DEFAULT
 62
     5
 10
-90.6708904303544
 20
144.4662307079323
 30
0.0
 42
0.1804760167670312
  0
VERTEX
  5
21A
  8
DEFAULT
 62
     5
 10
-91.36224883181171
 20
144.6896099784569
 30
0.0
 42
0.2329674834671322
  0
VERTEX
  5
21B
  8
DEFAULT
 62
     5
 10
-92.26425482804216
 20
144.2883756931301
 30
0.0
 42
0.1695179555120551
  0
VERTEX
  5
21C
  8
DEFAULT
 62
     5
 10
-92.6006748166073
 20
142.9457833360163
 30
0.0
 42
0.1610966817174926
  0
VERTEX
  5
21D
  8
DEFAULT
 62
     5
 10
-92.256152852564
 20
141.4670021362615
 30
0.0
 42
0.2405540491094035
  0
VERTEX
  5
21E
  8
DEFAULT
 62
     5
 10
-91.33138416332338
 20
141.0352889908026
 30
0.0
 42
0.1883458441869287
  0
VERTEX
  5
21F
  8
DEFAULT
 62
     5
 10
-90.6211219059489
 20
141.2798880976788
 30
0.0
 42
0.1622604489947818
  0
VERTEX
  5
220
  8
DEFAULT
 62
     5
 10
-90.23030444623693
 20
142.121708743889
 30
0.0
  0
VERTEX
  5
221
  8
DEFAULT
 62
     5
 10
-88.69944024870607
 20
141.9241778796915
 30
0.0
 42
-0.1724509721435844
  0
VERTEX
  5
222
  8
DEFAULT
 62
     5
 10
-89.59373007781447
 20
140.3369867924673
 30
0.0
 42
-0.1746967243539304
  0
VERTEX
  5
223
  8
DEFAULT
 62
     5
 10
-91.36687777855302
 20
139.800721089568
 30
0.0
 42
-0.2163976905724501
  0
VERTEX
  5
224
  8
DEFAULT
 62
     5
 10
-93.38076725613875
 20
140.605119455534
 30
0.0
 42
-0.1943870566320903
  0
VERTEX
  5
225
  8
DEFAULT
 62
     5
 10
-94.13153901413818
 20
142.8323571863855
 30
0.0
 42
-0.1945054615972485
  0
VERTEX
  5
226
  8
DEFAULT
 62
     5
 10
-93.38115306449484
 20
145.0730978329348
 30
0.0
 42
-0.2157801631579988
  0
VERTEX
  5
227
  8
DEFAULT
 62
     5
 10
-91.3514461978408
 20
145.8747951636421
 30
0.0
 42
-0.1599423076957954
  0
VERTEX
  5
228
  8
DEFAULT
 62
     5
 10
-89.68632257621555
 20
145.4234065455537
 30
0.0
 42
-0.1682635697126225
  0
SEQEND
  5
229
  8
DEFAULT
 62
     5
  0
POLYLINE
  5
22A
  8
DEFAULT
 62
     5
 66
     1
 10
0.0
 20
0.0
 30
0.0
 70
     1
  0
VERTEX
  5
22B
  8
DEFAULT
 62
     5
 10
-96.89697111290361
 20
139.9488692377161
 30
0.0
  0
VERTEX
  5
22C
  8
DEFAULT
 62
     5
 10
-96.89697111290361
 20
141.479733435247
 30
0.0
  0
VERTEX
  5
22D
  8
DEFAULT
 62
     5
 10
-95.36610691537275
 20
141.479733435247
 30
0.0
  0
VERTEX
  5
22E
  8
DEFAULT
 62
     5
 10
-95.36610691537275
 20
139.9488692377161
 30
0.0
  0
SEQEND
  5
22F
  8
DEFAULT
 62
     5
  0
POLYLINE
  5
230
  8
DEFAULT
 62
     5
 66
     1
 10
0.0
 20
0.0
 30
0.0
 70
     1
  0
VERTEX
  5
231
  8
DEFAULT
 62
     5
 10
-104.3352424352674
 20
139.9488692377161
 30
0.0
  0
VERTEX
  5
232
  8
DEFAULT
 62
     5
 10
-106.1809217301876
 20
145.7266470154939
 30
0.0
  0
VERTEX
  5
233
  8
DEFAULT
 62
     5
 10
-104.6816930643253
 20
145.7266470154939
 30
0.0
  0
VERTEX
  5
234
  8
DEFAULT
 62
     5
 10
-103.588328760829
 20
141.9403818306478
 30
0.0
  0
VERTEX
  5
235
  8
DEFAULT
 62
     5
 10
-102.5620943577629
 20
145.7266470154939
 30
0.0
  0
VERTEX
  5
236
  8
DEFAULT
 62
     5
 10
-101.0782980261448
 20
145.7266470154939
 30
0.0
  0
VERTEX
  5
237
  8
DEFAULT
 62
     5
 10
-100.1315386373722
 20
141.9403818306478
 30
0.0
  0
VERTEX
  5
238
  8
DEFAULT
 62
     5
 10
-99.03508786702709
 20
145.7266470154939
 30
0.0
  0
VERTEX
  5
239
  8
DEFAULT
 62
     5
 10
-97.53894642154559
 20
145.7266470154939
 30
0.0
  0
VERTEX
  5
23A
  8
DEFAULT
 62
     5
 10
-99.38076687937277
 20
139.9488692377161
 30
0.0
  0
VERTEX
  5
23B
  8
DEFAULT
 62
     5
 10
-100.8321560626101
 20
139.9488692377161
 30
0.0
  0
VERTEX
  5
23C
  8
DEFAULT
 62
     5
 10
-101.8105509830512
 20
143.6649188088152
 30
0.0
  0
VERTEX
  5
23D
  8
DEFAULT
 62
     5
 10
-102.8198105719807
 20
139.9488692377161
 30
0.0
  0
SEQEND
  5
23E
  8
DEFAULT
 62
     5
  0
POLYLINE
  5
23F
  8
DEFAULT
 62
     5
 66
     1
 10
0.0
 20
0.0
 30
0.0
 70
     1
  0
VERTEX
  5
240
  8
DEFAULT
 62
     5
 10
-112.92783502786
 20
139.9488692377161
 30
0.0
  0
VERTEX
  5
241
  8
DEFAULT
 62
     5
 10
-114.7735143227802
 20
145.7266470154939
 30
0.0
  0
VERTEX
  5
242
  8
DEFAULT
 62
     5
 10
-113.2742856569179
 20
145.7266470154939
 30
0.0
  0
VERTEX
  5
243
  8
DEFAULT
 62
     5
 10
-112.1809213534216
 20
141.9403818306478
 30
0.0
  0
VERTEX
  5
244
  8
DEFAULT
 62
     5
 10
-111.1546869503555
 20
145.7266470154939
 30
0.0
  0
VERTEX
  5
245
  8
DEFAULT
 62
     5
 10
-109.6708906187374
 20
145.7266470154939
 30
0.0
  0
VERTEX
  5
246
  8
DEFAULT
 62
     5
 10
-108.7241312299648
 20
141.9403818306478
 30
0.0
  0
VERTEX
  5
247
  8
DEFAULT
 62
     5
 10
-107.6276804596197
 20
145.7266470154939
 30
0.0
  0
VERTEX
  5
248
  8
DEFAULT
 62
     5
 10
-106.1315390141382
 20
145.7266470154939
 30
0.0
  0
VERTEX
  5
249
  8
DEFAULT
 62
     5
 10
-107.9733594719654
 20
139.9488692377161
 30
0.0
  0
VERTEX
  5
24A
  8
DEFAULT
 62
     5
 10
-109.4247486552027
 20
139.9488692377161
 30
0.0
  0
VERTEX
  5
24B
  8
DEFAULT
 62
     5
 10
-110.4031435756438
 20
143.6649188088152
 30
0.0
  0
VERTEX
  5
24C
  8
DEFAULT
 62
     5
 10
-111.4124031645733
 20
139.9488692377161
 30
0.0
  0
SEQEND
  5
24D
  8
DEFAULT
 62
     5
  0
POLYLINE
  5
24E
  8
DEFAULT
 62
     5
 66
     1
 10
0.0
 20
0.0
 30
0.0
 70
     1
  0
VERTEX
  5
24F
  8
DEFAULT
 62
     5
 10
-121.5204276204526
 20
139.9488692377161
 30
0.0
  0
VERTEX
  5
250
  8
DEFAULT
 62
     5
 10
-123.3661069153728
 20
145.7266470154939
 30
0.0
  0
VERTEX
  5
251
  8
DEFAULT
 62
     5
 10
-121.8668782495105
 20
145.7266470154939
 30
0.0
  0
VERTEX
  5
252
  8
DEFAULT
 62
     5
 10
-120.7735139460142
 20
141.9403818306478
 30
0.0
  0
VERTEX
  5
253
  8
DEFAULT
 62
     5
 10
-119.7472795429481
 20
145.7266470154939
 30
0.0
  0
VERTEX
  5
254
  8
DEFAULT
 62
     5
 10
-118.26348321133
 20
145.7266470154939
 30
0.0
  0
VERTEX
  5
255
  8
DEFAULT
 62
     5
 10
-117.3167238225574
 20
141.9403818306478
 30
0.0
  0
VERTEX
  5
256
  8
DEFAULT
 62
     5
 10
-116.2202730522123
 20
145.7266470154939
 30
0.0
  0
VERTEX
  5
257
  8
DEFAULT
 62
     5
 10
-114.7241316067308
 20
145.7266470154939
 30
0.0
  0
VERTEX
  5
258
  8
DEFAULT
 62
     5
 10
-116.5659520645579
 20
139.9488692377161
 30
0.0
  0
VERTEX
  5
259
  8
DEFAULT
 62
     5
 10
-118.0173412477953
 20
139.9488692377161
 30
0.0
  0
VERTEX
  5
25A
  8
DEFAULT
 62
     5
 10
-118.9957361682364
 20
143.6649188088152
 30
0.0
  0
VERTEX
  5
25B
  8
DEFAULT
 62
     5
 10
-120.0049957571659
 20
139.9488692377161
 30
0.0
  0
SEQEND
  5
25C
  8
DEFAULT
 62
     5
  0
POLYLINE
  5
25D
  8
DEFAULT
 62
     5
 66
     1
 10
0.0
 20
0.0
 30
0.0
 70
     1
  0
VERTEX
  5
25E
  8
DEFAULT
 62
     5
 10
104.7094448169302
 20
126.8526037761588
 30
0.0
 42
0.167183167516166
  0
VERTEX
  5
25F
  8
DEFAULT
 62
     5
 10
105.0589819128369
 20
125.4857054926104
 30
0.0
 42
0.2386895617246084
  0
VERTEX
  5
260
  8
DEFAULT
 62
     5
 10
105.9208649703305
 20
125.052449113727
 30
0.0
 42
0.2306067024897443
  0
VERTEX
  5
261
  8
DEFAULT
 62
     5
 10
106.8491055580101
 20
125.4968935581714
 30
0.0
 42
0.1781814747799625
  0
VERTEX
  5
262
  8
DEFAULT
 62
     5
 10
107.2279633354488
 20
126.8140236940803
 30
0.0
 42
0.1711933697273272
  0
VERTEX
  5
263
  8
DEFAULT
 62
     5
 10
106.8653091322004
 20
128.1662608833308
 30
0.0
 42
0.2363895789849634
  0
VERTEX
  5
264
  8
DEFAULT
 62
     5
 10
105.9470991850136
 20
128.6080046692825
 30
0.0
 42
0.2389909455159837
  0
VERTEX
  5
265
  8
DEFAULT
 62
     5
 10
105.0589819128369
 20
128.1747486671651
 30
0.0
 42
0.1688350197989187
  0
SEQEND
  5
266
  8
DEFAULT
 62
     5
  0
POLYLINE
  5
267
  8
DEFAULT
 62
     5
 66
     1
 10
0.0
 20
0.0
 30
0.0
 70
     1
  0
VERTEX
  5
268
  8
DEFAULT
 62
     5
 10
103.3761114835969
 20
123.4722022001467
 30
0.0
  0
VERTEX
  5
269
  8
DEFAULT
 62
     5
 10
105.1538892613747
 20
123.2746713359492
 30
0.0
 42
0.196300484649923
  0
VERTEX
  5
26A
  8
DEFAULT
 62
     5
 10
105.3475627955431
 20
122.8479740758855
 30
0.0
 42
0.1652544786658435
  0
VERTEX
  5
26B
  8
DEFAULT
 62
     5
 10
106.0057413016095
 20
122.6820787433566
 30
0.0
 42
0.1335897911306451
  0
VERTEX
  5
26C
  8
DEFAULT
 62
     5
 10
106.867624359103
 20
122.8587767098564
 30
0.0
 42
0.1695942548854058
  0
VERTEX
  5
26D
  8
DEFAULT
 62
     5
 10
107.1600625718383
 20
123.2399493374318
 30
0.0
  0
VERTEX
  5
26E
  8
DEFAULT
 62
     5
 10
107.2279633354487
 20
123.9320789788353
 30
0.0
  0
VERTEX
  5
26F
  8
DEFAULT
 62
     5
 10
107.2279633354487
 20
124.7630973678405
 30
0.0
 42
-0.2481650325452851
  0
VERTEX
  5
270
  8
DEFAULT
 62
     5
 10
105.52040192495
 20
123.8672639285418
 30
0.0
 42
-0.2649646906886629
  0
VERTEX
  5
271
  8
DEFAULT
 62
     5
 10
103.7040440650937
 20
124.8549182495294
 30
0.0
 42
-0.1513235680991082
  0
VERTEX
  5
272
  8
DEFAULT
 62
     5
 10
103.1785806193994
 20
126.7978197431239
 30
0.0
 42
-0.1864728947506852
  0
VERTEX
  5
273
  8
DEFAULT
 62
     5
 10
103.867238362364
 20
129.0239000489072
 30
0.0
 42
-0.2234769942370313
  0
VERTEX
  5
274
  8
DEFAULT
 62
     5
 10
105.5798156582581
 20
129.7931898544677
 30
0.0
 42
-0.2545979461410163
  0
VERTEX
  5
275
  8
DEFAULT
 62
     5
 10
107.3267287675475
 20
128.8394866688172
 30
0.0
  0
VERTEX
  5
276
  8
DEFAULT
 62
     5
 10
107.3267287675475
 20
129.6450417063195
 30
0.0
  0
VERTEX
  5
277
  8
DEFAULT
 62
     5
 10
108.7588275329796
 20
129.6450417063195
 30
0.0
  0
VERTEX
  5
278
  8
DEFAULT
 62
     5
 10
108.7588275329796
 20
124.4436533237099
 30
0.0
 42
-0.0739274830705832
  0
VERTEX
  5
279
  8
DEFAULT
 62
     5
 10
108.5917751521483
 20
122.9104742760425
 30
0.0
 42
-0.1231238869312006
  0
VERTEX
  5
27A
  8
DEFAULT
 62
     5
 10
108.1230251580353
 20
122.1134062688425
 30
0.0
 42
-0.113348920868016
  0
VERTEX
  5
27B
  8
DEFAULT
 62
     5
 10
107.317469743767
 20
121.6604740405637
 30
0.0
 42
-0.0770474087797266
  0
VERTEX
  5
27C
  8
DEFAULT
 62
     5
 10
106.0435497669758
 20
121.4968935581714
 30
0.0
 42
-0.1675355138834485
  0
VERTEX
  5
27D
  8
DEFAULT
 62
     5
 10
103.9795070869264
 20
122.0030665860606
 30
0.0
 42
-0.2345118942080041
  0
VERTEX
  5
27E
  8
DEFAULT
 62
     5
 10
103.3707109201434
 20
123.2862455866323
 30
0.0
  0
SEQEND
  5
27F
  8
DEFAULT
 62
     5
  0
POLYLINE
  5
280
  8
DEFAULT
 62
     5
 66
     1
 10
0.0
 20
0.0
 30
0.0
 70
     1
  0
VERTEX
  5
281
  8
DEFAULT
 62
     5
 10
101.9933954342142
 20
123.8672639285418
 30
0.0
  0
VERTEX
  5
282
  8
DEFAULT
 62
     5
 10
100.4625312366833
 20
123.8672639285418
 30
0.0
  0
VERTEX
  5
283
  8
DEFAULT
 62
     5
 10
100.4625312366833
 20
126.8171101609291
 30
0.0
 42
0.0659043403441944
  0
VERTEX
  5
284
  8
DEFAULT
 62
     5
 10
100.3660806547212
 20
128.0285299375634
 30
0.0
 42
0.1600130695765669
  0
VERTEX
  5
285
  8
DEFAULT
 62
     5
 10
100.0528091675223
 20
128.4556130059832
 30
0.0
 42
0.1575149176298772
  0
VERTEX
  5
286
  8
DEFAULT
 62
     5
 10
99.53120418215491
 20
128.6080046692825
 30
0.0
 42
0.1576987046344978
  0
VERTEX
  5
287
  8
DEFAULT
 62
     5
 10
98.83020132532693
 20
128.3904121473335
 30
0.0
 42
0.1684371822617229
  0
VERTEX
  5
288
  8
DEFAULT
 62
     5
 10
98.40466111356558
 20
127.8136376973412
 30
0.0
 42
0.065980991857628
  0
VERTEX
  5
289
  8
DEFAULT
 62
     5
 10
98.28969173051048
 20
126.4853194958713
 30
0.0
  0
VERTEX
  5
28A
  8
DEFAULT
 62
     5
 10
98.28969173051047
 20
123.8672639285418
 30
0.0
  0
VERTEX
  5
28B
  8
DEFAULT
 62
     5
 10
96.75882753297961
 20
123.8672639285418
 30
0.0
  0
VERTEX
  5
28C
  8
DEFAULT
 62
     5
 10
96.75882753297961
 20
129.6450417063195
 30
0.0
  0
VERTEX
  5
28D
  8
DEFAULT
 62
     5
 10
98.19092629841171
 20
129.6450417063195
 30
0.0
  0
VERTEX
  5
28E
  8
DEFAULT
 62
     5
 10
98.19092629841171
 20
128.8024498201632
 30
0.0
 42
-0.2486296121988724
  0
VERTEX
  5
28F
  8
DEFAULT
 62
     5
 10
100.0736424419859
 20
129.7931898544677
 30
0.0
 42
-0.10531640156082
  0
VERTEX
  5
290
  8
DEFAULT
 62
     5
 10
100.9876084972556
 20
129.6103197078021
 30
0.0
 42
-0.1292191717088879
  0
VERTEX
  5
291
  8
DEFAULT
 62
     5
 10
101.6141518484194
 20
129.1438845638257
 30
0.0
 42
-0.1054932374262226
  0
VERTEX
  5
292
  8
DEFAULT
 62
     5
 10
101.9100623363596
 20
128.4999802134032
 30
0.0
 42
-0.0533641385176889
  0
VERTEX
  5
293
  8
DEFAULT
 62
     5
 10
101.9933954342142
 20
127.4683448701176
 30
0.0
  0
SEQEND
  5
294
  8
DEFAULT
 62
     5
  0
POLYLINE
  5
295
  8
DEFAULT
 62
     5
 66
     1
 10
0.0
 20
0.0
 30
0.0
 70
     1
  0
VERTEX
  5
296
  8
DEFAULT
 62
     5
 10
93.69709913791789
 20
123.8672639285418
 30
0.0
  0
VERTEX
  5
297
  8
DEFAULT
 62
     5
 10
93.69709913791789
 20
129.6450417063195
 30
0.0
  0
VERTEX
  5
298
  8
DEFAULT
 62
     5
 10
95.22796333544875
 20
129.6450417063195
 30
0.0
  0
VERTEX
  5
299
  8
DEFAULT
 62
     5
 10
95.22796333544875
 20
123.8672639285418
 30
0.0
  0
SEQEND
  5
29A
  8
DEFAULT
 62
     5
  0
POLYLINE
  5
29B
  8
DEFAULT
 62
     5
 66
     1
 10
0.0
 20
0.0
 30
0.0
 70
     1
  0
VERTEX
  5
29C
  8
DEFAULT
 62
     5
 10
93.69709913791789
 20
130.4845478791591
 30
0.0
  0
VERTEX
  5
29D
  8
DEFAULT
 62
     5
 10
93.69709913791789
 20
131.8178812124924
 30
0.0
  0
VERTEX
  5
29E
  8
DEFAULT
 62
     5
 10
95.22796333544875
 20
131.8178812124924
 30
0.0
  0
VERTEX
  5
29F
  8
DEFAULT
 62
     5
 10
95.22796333544875
 20
130.4845478791591
 30
0.0
  0
SEQEND
  5
2A0
  8
DEFAULT
 62
     5
  0
POLYLINE
  5
2A1
  8
DEFAULT
 62
     5
 66
     1
 10
0.0
 20
0.0
 30
0.0
 70
     1
  0
VERTEX
  5
2A2
  8
DEFAULT
 62
     5
 10
92.66006210088085
 20
129.6450417063195
 30
0.0
  0
VERTEX
  5
2A3
  8
DEFAULT
 62
     5
 10
92.66006210088085
 20
128.4598565211344
 30
0.0
  0
VERTEX
  5
2A4
  8
DEFAULT
 62
     5
 10
91.62302506384381
 20
128.4598565211344
 30
0.0
  0
VERTEX
  5
2A5
  8
DEFAULT
 62
     5
 10
91.62302506384381
 20
126.0740545700518
 30
0.0
  0
VERTEX
  5
2A6
  8
DEFAULT
 62
     5
 10
91.65234612214175
 20
125.2295325118169
 30
0.0
  0
VERTEX
  5
2A7
  8
DEFAULT
 62
     5
 10
91.7846765044556
 20
125.0316158392633
 30
0.0
  0
VERTEX
  5
2A8
  8
DEFAULT
 62
     5
 10
92.03660559333187
 20
124.9536836816282
 30
0.0
  0
VERTEX
  5
2A9
  8
DEFAULT
 62
     5
 10
92.63537111962214
 20
125.0995177331717
 30
0.0
  0
VERTEX
  5
2AA
  8
DEFAULT
 62
     5
 10
92.75882753297961
 20
123.9413383793818
 30
0.0
 42
-0.1009135694950996
  0
VERTEX
  5
2AB
  8
DEFAULT
 62
     5
 10
91.5674701676287
 20
123.7191157803936
 30
0.0
 42
-0.1023112505794037
  0
VERTEX
  5
2AC
  8
DEFAULT
 62
     5
 10
90.83251617546355
 20
123.8595481381857
 30
0.0
 42
-0.1427327602513995
  0
VERTEX
  5
2AD
  8
DEFAULT
 62
     5
 10
90.3521919306674
 20
124.222588526556
 30
0.0
 42
-0.111247426680787
  0
VERTEX
  5
2AE
  8
DEFAULT
 62
     5
 10
90.14077271918204
 20
124.8248259512852
 30
0.0
  0
VERTEX
  5
2AF
  8
DEFAULT
 62
     5
 10
90.09216086631295
 20
125.9135605545083
 30
0.0
  0
VERTEX
  5
2B0
  8
DEFAULT
 62
     5
 10
90.09216086631295
 20
128.4598565211344
 30
0.0
  0
VERTEX
  5
2B1
  8
DEFAULT
 62
     5
 10
89.35142012557219
 20
128.4598565211344
 30
0.0
  0
VERTEX
  5
2B2
  8
DEFAULT
 62
     5
 10
89.35142012557219
 20
129.6450417063195
 30
0.0
  0
VERTEX
  5
2B3
  8
DEFAULT
 62
     5
 10
90.09216086631295
 20
129.6450417063195
 30
0.0
  0
VERTEX
  5
2B4
  8
DEFAULT
 62
     5
 10
90.09216086631295
 20
130.731461459406
 30
0.0
  0
VERTEX
  5
2B5
  8
DEFAULT
 62
     5
 10
91.62302506384381
 20
131.6203503482949
 30
0.0
  0
VERTEX
  5
2B6
  8
DEFAULT
 62
     5
 10
91.62302506384381
 20
129.6450417063195
 30
0.0
  0
SEQEND
  5
2B7
  8
DEFAULT
 62
     5
  0
POLYLINE
  5
2B8
  8
DEFAULT
 62
     5
 66
     1
 10
0.0
 20
0.0
 30
0.0
 70
     1
  0
VERTEX
  5
2B9
  8
DEFAULT
 62
     5
 10
88.95635839717713
 20
129.6450417063195
 30
0.0
  0
VERTEX
  5
2BA
  8
DEFAULT
 62
     5
 10
88.95635839717713
 20
128.4598565211344
 30
0.0
  0
VERTEX
  5
2BB
  8
DEFAULT
 62
     5
 10
87.91932136014009
 20
128.4598565211344
 30
0.0
  0
VERTEX
  5
2BC
  8
DEFAULT
 62
     5
 10
87.91932136014009
 20
126.0740545700518
 30
0.0
  0
VERTEX
  5
2BD
  8
DEFAULT
 62
     5
 10
87.94864241843806
 20
125.2295325118169
 30
0.0
  0
VERTEX
  5
2BE
  8
DEFAULT
 62
     5
 10
88.08097280075188
 20
125.0316158392633
 30
0.0
  0
VERTEX
  5
2BF
  8
DEFAULT
 62
     5
 10
88.33290188962815
 20
124.9536836816282
 30
0.0
  0
VERTEX
  5
2C0
  8
DEFAULT
 62
     5
 10
88.93166741591841
 20
125.0995177331717
 30
0.0
  0
VERTEX
  5
2C1
  8
DEFAULT
 62
     5
 10
89.05512382927591
 20
123.9413383793818
 30
0.0
 42
-0.1009135694950942
  0
VERTEX
  5
2C2
  8
DEFAULT
 62
     5
 10
87.863766463925
 20
123.7191157803936
 30
0.0
 42
-0.1023112505794117
  0
VERTEX
  5
2C3
  8
DEFAULT
 62
     5
 10
87.12881247175986
 20
123.8595481381857
 30
0.0
 42
-0.14273276025136
  0
VERTEX
  5
2C4
  8
DEFAULT
 62
     5
 10
86.64848822696368
 20
124.222588526556
 30
0.0
 42
-0.1112474266807403
  0
VERTEX
  5
2C5
  8
DEFAULT
 62
     5
 10
86.43706901547836
 20
124.8248259512852
 30
0.0
  0
VERTEX
  5
2C6
  8
DEFAULT
 62
     5
 10
86.38845716260923
 20
125.9135605545083
 30
0.0
  0
VERTEX
  5
2C7
  8
DEFAULT
 62
     5
 10
86.38845716260923
 20
128.4598565211344
 30
0.0
  0
VERTEX
  5
2C8
  8
DEFAULT
 62
     5
 10
85.6477164218685
 20
128.4598565211344
 30
0.0
  0
VERTEX
  5
2C9
  8
DEFAULT
 62
     5
 10
85.6477164218685
 20
129.6450417063195
 30
0.0
  0
VERTEX
  5
2CA
  8
DEFAULT
 62
     5
 10
86.38845716260923
 20
129.6450417063195
 30
0.0
  0
VERTEX
  5
2CB
  8
DEFAULT
 62
     5
 10
86.38845716260923
 20
130.731461459406
 30
0.0
  0
VERTEX
  5
2CC
  8
DEFAULT
 62
     5
 10
87.91932136014009
 20
131.6203503482949
 30
0.0
  0
VERTEX
  5
2CD
  8
DEFAULT
 62
     5
 10
87.91932136014009
 20
129.6450417063195
 30
0.0
  0
SEQEND
  5
2CE
  8
DEFAULT
 62
     5
  0
POLYLINE
  5
2CF
  8
DEFAULT
 62
     5
 66
     1
 10
0.0
 20
0.0
 30
0.0
 70
     1
  0
VERTEX
  5
2D0
  8
DEFAULT
 62
     5
 10
83.32672876754751
 20
123.8672639285418
 30
0.0
  0
VERTEX
  5
2D1
  8
DEFAULT
 62
     5
 10
83.32672876754751
 20
124.7260605191865
 30
0.0
 42
-0.1223972716446032
  0
VERTEX
  5
2D2
  8
DEFAULT
 62
     5
 10
82.50419816237658
 20
123.9930355688018
 30
0.0
 42
-0.1257588650398457
  0
VERTEX
  5
2D3
  8
DEFAULT
 62
     5
 10
81.42780942654886
 20
123.7191157803936
 30
0.0
 42
-0.1301059334599749
  0
VERTEX
  5
2D4
  8
DEFAULT
 62
     5
 10
80.39270143129235
 20
123.9756745695431
 30
0.0
 42
-0.1670007383232334
  0
VERTEX
  5
2D5
  8
DEFAULT
 62
     5
 10
79.72912085470855
 20
124.6959678441763
 30
0.0
 42
-0.1009427833083733
  0
VERTEX
  5
2D6
  8
DEFAULT
 62
     5
 10
79.52425963174505
 20
125.9783756048018
 30
0.0
  0
VERTEX
  5
2D7
  8
DEFAULT
 62
     5
 10
79.52425963174505
 20
129.6450417063195
 30
0.0
  0
VERTEX
  5
2D8
  8
DEFAULT
 62
     5
 10
81.05512382927591
 20
129.6450417063195
 30
0.0
  0
VERTEX
  5
2D9
  8
DEFAULT
 62
     5
 10
81.0551238292759
 20
126.9922641404726
 30
0.0
 42
0.0503730066259761
  0
VERTEX
  5
2DA
  8
DEFAULT
 62
     5
 10
81.13845730389647
 20
125.4995945934301
 30
0.0
 42
0.1675734251047082
  0
VERTEX
  5
2DB
  8
DEFAULT
 62
     5
 10
81.44246976731488
 20
125.0647949811223
 30
0.0
 42
0.1610647544742362
  0
VERTEX
  5
2DC
  8
DEFAULT
 62
     5
 10
82.00188321804848
 20
124.9043009655788
 30
0.0
 42
0.1578518894734595
  0
VERTEX
  5
2DD
  8
DEFAULT
 62
     5
 10
82.69555609287646
 20
125.119193205801
 30
0.0
 42
0.1591085904631174
  0
VERTEX
  5
2DE
  8
DEFAULT
 62
     5
 10
83.1149233709401
 20
125.6519866334954
 30
0.0
 42
0.0627948021468293
  0
VERTEX
  5
2DF
  8
DEFAULT
 62
     5
 10
83.22796333544875
 20
127.2090854224754
 30
0.0
  0
VERTEX
  5
2E0
  8
DEFAULT
 62
     5
 10
83.22796333544875
 20
129.6450417063195
 30
0.0
  0
VERTEX
  5
2E1
  8
DEFAULT
 62
     5
 10
84.75882753297961
 20
129.6450417063195
 30
0.0
  0
VERTEX
  5
2E2
  8
DEFAULT
 62
     5
 10
84.75882753297961
 20
123.8672639285418
 30
0.0
  0
SEQEND
  5
2E3
  8
DEFAULT
 62
     5
  0
POLYLINE
  5
2E4
  8
DEFAULT
 62
     5
 66
     1
 10
0.0
 20
0.0
 30
0.0
 70
     1
  0
VERTEX
  5
2E5
  8
DEFAULT
 62
     5
 10
78.33907444655986
 20
127.9660293606405
 30
0.0
  0
VERTEX
  5
2E6
  8
DEFAULT
 62
     5
 10
76.808210249029
 20
127.7191157803936
 30
0.0
 42
0.1809968098175267
  0
VERTEX
  5
2E7
  8
DEFAULT
 62
     5
 10
76.46638969701033
 20
128.3846253987579
 30
0.0
 42
0.1804760167669971
  0
VERTEX
  5
2E8
  8
DEFAULT
 62
     5
 10
75.77503129555299
 20
128.6080046692825
 30
0.0
 42
0.2329674834671572
  0
VERTEX
  5
2E9
  8
DEFAULT
 62
     5
 10
74.87302529932253
 20
128.2067703839558
 30
0.0
 42
0.1695179555120551
  0
VERTEX
  5
2EA
  8
DEFAULT
 62
     5
 10
74.5366053107574
 20
126.8641780268419
 30
0.0
 42
0.1610966817175043
  0
VERTEX
  5
2EB
  8
DEFAULT
 62
     5
 10
74.8811272748007
 20
125.3853968270872
 30
0.0
 42
0.2405540491093878
  0
VERTEX
  5
2EC
  8
DEFAULT
 62
     5
 10
75.80589596404133
 20
124.9536836816282
 30
0.0
 42
0.188345844186951
  0
VERTEX
  5
2ED
  8
DEFAULT
 62
     5
 10
76.51615822141582
 20
125.1982827885045
 30
0.0
 42
0.162260448994768
  0
VERTEX
  5
2EE
  8
DEFAULT
 62
     5
 10
76.90697568112778
 20
126.0401034347146
 30
0.0
  0
VERTEX
  5
2EF
  8
DEFAULT
 62
     5
 10
78.43783987865862
 20
125.8425725705171
 30
0.0
 42
-0.1724509721435945
  0
VERTEX
  5
2F0
  8
DEFAULT
 62
     5
 10
77.54355004955023
 20
124.2553814832929
 30
0.0
 42
-0.1746967243539374
  0
VERTEX
  5
2F1
  8
DEFAULT
 62
     5
 10
75.7704023488117
 20
123.7191157803936
 30
0.0
 42
-0.2163976905724339
  0
VERTEX
  5
2F2
  8
DEFAULT
 62
     5
 10
73.75651287122597
 20
124.5235141463596
 30
0.0
 42
-0.1943870566320993
  0
VERTEX
  5
2F3
  8
DEFAULT
 62
     5
 10
73.00574111322655
 20
126.7507518772112
 30
0.0
 42
-0.1945054615972532
  0
VERTEX
  5
2F4
  8
DEFAULT
 62
     5
 10
73.75612706286987
 20
128.9914925237604
 30
0.0
 42
-0.2157801631579839
  0
VERTEX
  5
2F5
  8
DEFAULT
 62
     5
 10
75.7858339295239
 20
129.7931898544677
 30
0.0
 42
-0.1599423076958073
  0
VERTEX
  5
2F6
  8
DEFAULT
 62
     5
 10
77.45095755114914
 20
129.3418012363794
 30
0.0
 42
-0.1682635697126389
  0
SEQEND
  5
2F7
  8
DEFAULT
 62
     5
  0
POLYLINE
  5
2F8
  8
DEFAULT
 62
     5
 66
     1
 10
0.0
 20
0.0
 30
0.0
 70
     1
  0
VERTEX
  5
2F9
  8
DEFAULT
 62
     5
 10
67.52425963174505
 20
123.8672639285418
 30
0.0
  0
VERTEX
  5
2FA
  8
DEFAULT
 62
     5
 10
65.99339543421416
 20
123.8672639285418
 30
0.0
  0
VERTEX
  5
2FB
  8
DEFAULT
 62
     5
 10
65.99339543421416
 20
129.6450417063195
 30
0.0
  0
VERTEX
  5
2FC
  8
DEFAULT
 62
     5
 10
67.42549419964627
 20
129.6450417063195
 30
0.0
  0
VERTEX
  5
2FD
  8
DEFAULT
 62
     5
 10
67.42549419964627
 20
128.8294556515585
 30
0.0
 42
-0.0977550519460478
  0
VERTEX
  5
2FE
  8
DEFAULT
 62
     5
 10
68.05280916752227
 20
129.6002886905434
 30
0.0
 42
-0.1561720185079793
  0
VERTEX
  5
2FF
  8
DEFAULT
 62
     5
 10
68.6847538356715
 20
129.7931898544677
 30
0.0
 42
-0.1438170981369646
  0
VERTEX
  5
300
  8
DEFAULT
 62
     5
 10
69.6477164218685
 20
129.5022948751568
 30
0.0
  0
VERTEX
  5
301
  8
DEFAULT
 62
     5
 10
69.17858099616532
 20
128.1620177449456
 30
0.0
 42
0.1496770151888197
  0
VERTEX
  5
302
  8
DEFAULT
 62
     5
 10
68.49648237202047
 20
128.410473805085
 30
0.0
 42
0.1810970994867578
  0
VERTEX
  5
303
  8
DEFAULT
 62
     5
 10
67.97912127857026
 20
128.233390783761
 30
0.0
 42
0.150134839648884
  0
VERTEX
  5
304
  8
DEFAULT
 62
     5
 10
67.64578775685395
 20
127.5933445168995
 30
0.0
 42
0.0509111359642195
  0
VERTEX
  5
305
  8
DEFAULT
 62
     5
 10
67.52425963174505
 20
125.6543011068661
 30
0.0
  0
SEQEND
  5
306
  8
DEFAULT
 62
     5
  0
POLYLINE
  5
307
  8
DEFAULT
 62
     5
 66
     1
 10
0.0
 20
0.0
 30
0.0
 70
     1
  0
VERTEX
  5
308
  8
DEFAULT
 62
     5
 10
63.27734605149811
 20
127.2746713359492
 30
0.0
 42
0.1931771868552533
  0
VERTEX
  5
309
  8
DEFAULT
 62
     5
 10
62.92588029057686
 20
128.2681127822784
 30
0.0
 42
0.2094545272841283
  0
VERTEX
  5
30A
  8
DEFAULT
 62
     5
 10
62.11145128411815
 20
128.6080046692825
 30
0.0
 42
0.2175151257022597
  0
VERTEX
  5
30B
  8
DEFAULT
 62
     5
 10
61.26345732744435
 20
128.2492089263612
 30
0.0
 42
0.1974850402976656
  0
VERTEX
  5
30C
  8
DEFAULT
 62
     5
 10
60.93398226605505
 20
127.2746713359492
 30
0.0
  0
SEQEND
  5
30D
  8
DEFAULT
 62
     5
  0
POLYLINE
  5
30E
  8
DEFAULT
 62
     5
 66
     1
 10
0.0
 20
0.0
 30
0.0
 70
     1
  0
VERTEX
  5
30F
  8
DEFAULT
 62
     5
 10
63.17858061939936
 20
125.6944244223689
 30
0.0
  0
VERTEX
  5
310
  8
DEFAULT
 62
     5
 10
64.70944481693022
 20
125.4968935581714
 30
0.0
 42
-0.1601948643917327
  0
VERTEX
  5
311
  8
DEFAULT
 62
     5
 10
63.77888937911405
 20
124.1735912420968
 30
0.0
 42
-0.1590209405814327
  0
VERTEX
  5
312
  8
DEFAULT
 62
     5
 10
62.18706896838262
 20
123.7191157803936
 30
0.0
 42
-0.2510606897924109
  0
VERTEX
  5
313
  8
DEFAULT
 62
     5
 10
59.94941441191622
 20
124.7098565682301
 30
0.0
 42
-0.1603231689598215
  0
VERTEX
  5
314
  8
DEFAULT
 62
     5
 10
59.37611148359688
 20
126.7121717951327
 30
0.0
 42
-0.1928988919450534
  0
VERTEX
  5
315
  8
DEFAULT
 62
     5
 10
60.1318987502257
 20
128.97528894957
 30
0.0
 42
-0.2186957110499469
  0
VERTEX
  5
316
  8
DEFAULT
 62
     5
 10
62.04277815026356
 20
129.7931898544677
 30
0.0
 42
-0.2248762650829776
  0
VERTEX
  5
317
  8
DEFAULT
 62
     5
 10
64.09061800965449
 20
128.9424956160671
 30
0.0
 42
-0.1866850592647338
  0
VERTEX
  5
318
  8
DEFAULT
 62
     5
 10
64.808210249029
 20
126.3363997310109
 30
0.0
  0
VERTEX
  5
319
  8
DEFAULT
 62
     5
 10
60.90697568112778
 20
126.3363997310109
 30
0.0
 42
0.1907233177561355
  0
VERTEX
  5
31A
  8
DEFAULT
 62
     5
 10
61.28467678703007
 20
125.2812300780029
 30
0.0
 42
0.2135192120775148
  0
VERTEX
  5
31B
  8
DEFAULT
 62
     5
 10
62.18475411824599
 20
124.9043009655788
 30
0.0
 42
0.1657236937100942
  0
VERTEX
  5
31C
  8
DEFAULT
 62
     5
 10
62.80088026702899
 20
125.0914153809275
 30
0.0
 42
0.1589948514629509
  0
SEQEND
  5
31D
  8
DEFAULT
 62
     5
  0
POLYLINE
  5
31E
  8
DEFAULT
 62
     5
 66
     1
 10
0.0
 20
0.0
 30
0.0
 70
     1
  0
VERTEX
  5
31F
  8
DEFAULT
 62
     5
 10
53.10450654532528
 20
125.4968935581714
 30
0.0
  0
VERTEX
  5
320
  8
DEFAULT
 62
     5
 10
54.63537074285615
 20
125.6944244223689
 30
0.0
 42
0.1817134537412867
  0
VERTEX
  5
321
  8
DEFAULT
 62
     5
 10
55.0315902730855
 20
125.0316158392633
 30
0.0
 42
0.1637490318833148
  0
VERTEX
  5
322
  8
DEFAULT
 62
     5
 10
55.86608131406163
 20
124.80553553348
 30
0.0
 42
0.1581548590316395
  0
VERTEX
  5
323
  8
DEFAULT
 62
     5
 10
56.75574181966272
 20
125.0269865157561
 30
0.0
 42
0.2454173628752992
  0
VERTEX
  5
324
  8
DEFAULT
 62
     5
 10
56.95635839717712
 20
125.4421102786685
 30
0.0
 42
0.1967133408659471
  0
VERTEX
  5
325
  8
DEFAULT
 62
     5
 10
56.84756270135161
 20
125.735320108116
 30
0.0
 42
0.115248044176282
  0
VERTEX
  5
326
  8
DEFAULT
 62
     5
 10
56.33521673976477
 20
125.9397955227234
 30
0.0
 42
-0.0750101977649259
  0
VERTEX
  5
327
  8
DEFAULT
 62
     5
 10
53.98799487076068
 20
126.6951962274641
 30
0.0
 42
-0.2630575377237293
  0
VERTEX
  5
328
  8
DEFAULT
 62
     5
 10
53.30203740952282
 20
128.0053818129632
 30
0.0
 42
-0.2278055359033945
  0
VERTEX
  5
329
  8
DEFAULT
 62
     5
 10
53.89501581047151
 20
129.277757802798
 30
0.0
 42
-0.1789409577798987
  0
VERTEX
  5
32A
  8
DEFAULT
 62
     5
 10
55.73336474662568
 20
129.7931898544677
 30
0.0
 42
-0.1478680227512937
  0
VERTEX
  5
32B
  8
DEFAULT
 62
     5
 10
57.49571056692528
 20
129.3938846109215
 30
0.0
 42
-0.1798681362132213
  0
VERTEX
  5
32C
  8
DEFAULT
 62
     5
 10
58.28969173051046
 20
128.2129429408874
 30
0.0
  0
VERTEX
  5
32D
  8
DEFAULT
 62
     5
 10
56.85759296507837
 20
127.9660293606405
 30
0.0
 42
0.1762609448244044
  0
VERTEX
  5
32E
  8
DEFAULT
 62
     5
 10
56.50728462922542
 20
128.5157979792375
 30
0.0
 42
0.1598214678235997
  0
VERTEX
  5
32F
  8
DEFAULT
 62
     5
 10
55.77117321199196
 20
128.7067701013813
 30
0.0
 42
0.137185548785741
  0
VERTEX
  5
330
  8
DEFAULT
 62
     5
 10
54.90774767460595
 20
128.5354742053988
 30
0.0
 42
0.5297885667389086
  0
VERTEX
  5
331
  8
DEFAULT
 62
     5
 10
54.8861424066641
 20
127.9374802958208
 30
0.0
 42
0.0664798749578867
  0
VERTEX
  5
332
  8
DEFAULT
 62
     5
 10
56.30975376502789
 20
127.5003662101423
 30
0.0
 42
-0.1095214193377402
  0
VERTEX
  5
333
  8
DEFAULT
 62
     5
 10
58.00959938517055
 20
126.8132520773681
 30
0.0
 42
-0.2284114958797726
  0
VERTEX
  5
334
  8
DEFAULT
 62
     5
 10
58.48722259470802
 20
125.668961824398
 30
0.0
 42
-0.2276229810650884
  0
VERTEX
  5
335
  8
DEFAULT
 62
     5
 10
57.82518562831459
 20
124.2939615653714
 30
0.0
 42
-0.1809722242825297
  0
VERTEX
  5
336
  8
DEFAULT
 62
     5
 10
55.86608131406163
 20
123.7191157803936
 30
0.0
 42
-0.1534212868271937
  0
VERTEX
  5
337
  8
DEFAULT
 62
     5
 10
54.00226902640458
 20
124.1975109834093
 30
0.0
 42
-0.1853542620166002
  0
SEQEND
  5
338
  8
DEFAULT
 62
     5
  0
POLYLINE
  5
339
  8
DEFAULT
 62
     5
 66
     1
 10
0.0
 20
0.0
 30
0.0
 70
     1
  0
VERTEX
  5
33A
  8
DEFAULT
 62
     5
 10
50.53660531075738
 20
126.6326960273072
 30
0.0
  0
VERTEX
  5
33B
  8
DEFAULT
 62
     5
 10
49.64540194849783
 20
126.3988999311678
 30
0.0
 42
0.0811165779561112
  0
VERTEX
  5
33C
  8
DEFAULT
 62
     5
 10
48.84833431806382
 20
126.1326966866477
 30
0.0
 42
0.2517191883486157
  0
VERTEX
  5
33D
  8
DEFAULT
 62
     5
 10
48.56129666878208
 20
125.5941165103777
 30
0.0
 42
0.4298150945544873
  0
VERTEX
  5
33E
  8
DEFAULT
 62
     5
 10
49.37456862693844
 20
124.80553553348
 30
0.0
 42
0.167048264484611
  0
VERTEX
  5
33F
  8
DEFAULT
 62
     5
 10
50.12997008521115
 20
125.0771408485176
 30
0.0
 42
0.1651612454991286
  0
VERTEX
  5
340
  8
DEFAULT
 62
     5
 10
50.47950718111787
 20
125.5833138764068
 30
0.0
  0
VERTEX
  5
341
  8
DEFAULT
 62
     5
 10
50.53660531075738
 20
126.3279127007086
 30
0.0
  0
SEQEND
  5
342
  8
DEFAULT
 62
     5
  0
POLYLINE
  5
343
  8
DEFAULT
 62
     5
 66
     1
 10
0.0
 20
0.0
 30
0.0
 70
     1
  0
VERTEX
  5
344
  8
DEFAULT
 62
     5
 10
48.61067938483146
 20
127.8672639285418
 30
0.0
  0
VERTEX
  5
345
  8
DEFAULT
 62
     5
 10
47.22796333544875
 20
128.0647947927393
 30
0.0
 42
-0.1714833175990335
  0
VERTEX
  5
346
  8
DEFAULT
 62
     5
 10
48.01770136064874
 20
129.3695790612529
 30
0.0
 42
-0.1608829132837532
  0
VERTEX
  5
347
  8
DEFAULT
 62
     5
 10
49.68243917391786
 20
129.7931898544677
 30
0.0
 42
-0.1088364278880682
  0
VERTEX
  5
348
  8
DEFAULT
 62
     5
 10
51.17626614602872
 20
129.550520166138
 30
0.0
 42
-0.1580303644335533
  0
VERTEX
  5
349
  8
DEFAULT
 62
     5
 10
51.86723836236397
 20
128.9340078322329
 30
0.0
 42
-0.1088017057953398
  0
VERTEX
  5
34A
  8
DEFAULT
 62
     5
 10
52.06746950828824
 20
127.5617089852309
 30
0.0
  0
VERTEX
  5
34B
  8
DEFAULT
 62
     5
 10
52.06746950828824
 20
125.7715853400578
 30
0.0
 42
0.0514080219695359
  0
VERTEX
  5
34C
  8
DEFAULT
 62
     5
 10
52.15080298290884
 20
124.6446560863464
 30
0.0
 42
0.0692287864232463
  0
VERTEX
  5
34D
  8
DEFAULT
 62
     5
 10
52.4625312366833
 20
123.8672639285418
 30
0.0
  0
VERTEX
  5
34E
  8
DEFAULT
 62
     5
 10
50.93166703915244
 20
123.8672639285418
 30
0.0
  0
VERTEX
  5
34F
  8
DEFAULT
 62
     5
 10
50.78506212442872
 20
124.314794839835
 30
0.0
  0
VERTEX
  5
350
  8
DEFAULT
 62
     5
 10
50.73105046163804
 20
124.4930360397593
 30
0.0
 42
-0.0933244186738186
  0
VERTEX
  5
351
  8
DEFAULT
 62
     5
 10
49.89540161882761
 20
123.9127889377961
 30
0.0
 42
-0.1040133466925795
  0
VERTEX
  5
352
  8
DEFAULT
 62
     5
 10
48.94555651673818
 20
123.7191157803936
 30
0.0
 42
-0.1965430357596695
  0
VERTEX
  5
353
  8
DEFAULT
 62
     5
 10
47.54316424119416
 20
124.2032981087508
 30
0.0
 42
-0.2154369487651162
  0
VERTEX
  5
354
  8
DEFAULT
 62
     5
 10
47.0304324712512
 20
125.4274495611366
 30
0.0
 42
-0.1373780248024532
  0
VERTEX
  5
355
  8
DEFAULT
 62
     5
 10
47.25882762717112
 20
126.3009061157813
 30
0.0
 42
-0.147378321397112
  0
VERTEX
  5
356
  8
DEFAULT
 62
     5
 10
47.89887427079852
 20
126.8884831997445
 30
0.0
 42
-0.0634404934847079
  0
VERTEX
  5
357
  8
DEFAULT
 62
     5
 10
49.08598849776425
 20
127.244579037705
 30
0.0
 42
0.0472009877729059
  0
VERTEX
  5
358
  8
DEFAULT
 62
     5
 10
50.53660531075738
 20
127.6203503482949
 30
0.0
  0
VERTEX
  5
359
  8
DEFAULT
 62
     5
 10
50.53660531075738
 20
127.7754430468529
 30
0.0
 42
0.2070921599656588
  0
VERTEX
  5
35A
  8
DEFAULT
 62
     5
 10
50.33174446455985
 20
128.4166467387826
 30
0.0
 42
0.1777887432707984
  0
VERTEX
  5
35B
  8
DEFAULT
 62
     5
 10
49.55821039031622
 20
128.6080046692825
 30
0.0
 42
0.1651091138038968
  0
VERTEX
  5
35C
  8
DEFAULT
 62
     5
 10
48.95905943243585
 20
128.443652946944
 30
0.0
 42
0.1491587679877523
  0
SEQEND
  5
35D
  8
DEFAULT
 62
     5
  0
POLYLINE
  5
35E
  8
DEFAULT
 62
     5
 66
     1
 10
0.0
 20
0.0
 30
0.0
 70
     1
  0
VERTEX
  5
35F
  8
DEFAULT
 62
     5
 10
44.41314852063394
 20
123.8672639285418
 30
0.0
  0
VERTEX
  5
360
  8
DEFAULT
 62
     5
 10
44.41314852063394
 20
131.8178812124924
 30
0.0
  0
VERTEX
  5
361
  8
DEFAULT
 62
     5
 10
45.9440127181648
 20
131.8178812124924
 30
0.0
  0
VERTEX
  5
362
  8
DEFAULT
 62
     5
 10
45.9440127181648
 20
123.8672639285418
 30
0.0
  0
SEQEND
  5
363
  8
DEFAULT
 62
     5
  0
POLYLINE
  5
364
  8
DEFAULT
 62
     5
 66
     1
 10
0.0
 20
0.0
 30
0.0
 70
     1
  0
VERTEX
  5
365
  8
DEFAULT
 62
     5
 10
34.51191432949867
 20
123.8672639285418
 30
0.0
  0
VERTEX
  5
366
  8
DEFAULT
 62
     5
 10
36.56052580560183
 20
126.8433443756123
 30
0.0
  0
VERTEX
  5
367
  8
DEFAULT
 62
     5
 10
34.61067976159742
 20
129.6450417063195
 30
0.0
  0
VERTEX
  5
368
  8
DEFAULT
 62
     5
 10
36.45327258966876
 20
129.6450417063195
 30
0.0
  0
VERTEX
  5
369
  8
DEFAULT
 62
     5
 10
37.43706882709537
 20
128.056307762437
 30
0.0
  0
VERTEX
  5
36A
  8
DEFAULT
 62
     5
 10
38.47873556440567
 20
129.6450417063195
 30
0.0
  0
VERTEX
  5
36B
  8
DEFAULT
 62
     5
 10
40.24030939122707
 20
129.6450417063195
 30
0.0
  0
VERTEX
  5
36C
  8
DEFAULT
 62
     5
 10
38.33598873324297
 20
126.9081594259058
 30
0.0
  0
VERTEX
  5
36D
  8
DEFAULT
 62
     5
 10
40.43784025542459
 20
123.8672639285418
 30
0.0
  0
VERTEX
  5
36E
  8
DEFAULT
 62
     5
 10
38.59524742735326
 20
123.8672639285418
 30
0.0
  0
VERTEX
  5
36F
  8
DEFAULT
 62
     5
 10
37.43706882709537
 20
125.6573875737149
 30
0.0
  0
VERTEX
  5
370
  8
DEFAULT
 62
     5
 10
36.27348815632007
 20
123.8672639285418
 30
0.0
  0
SEQEND
  5
371
  8
DEFAULT
 62
     5
  0
POLYLINE
  5
372
  8
DEFAULT
 62
     5
 66
     1
 10
0.0
 20
0.0
 30
0.0
 70
     1
  0
VERTEX
  5
373
  8
DEFAULT
 62
     5
 10
29.59833370581913
 20
126.7561531941966
 30
0.0
 42
0.1807696907208145
  0
VERTEX
  5
374
  8
DEFAULT
 62
     5
 10
29.99802513448742
 20
125.41819016059
 30
0.0
 42
0.477703639763785
  0
VERTEX
  5
375
  8
DEFAULT
 62
     5
 10
31.96677541117496
 20
125.41819016059
 30
0.0
 42
0.1794408075869709
  0
VERTEX
  5
376
  8
DEFAULT
 62
     5
 10
32.36376580458454
 20
126.7669558281676
 30
0.0
 42
0.1800932450793739
  0
VERTEX
  5
377
  8
DEFAULT
 62
     5
 10
31.96677541117496
 20
128.0941158510373
 30
0.0
 42
0.479372938484572
  0
VERTEX
  5
378
  8
DEFAULT
 62
     5
 10
29.99802513448742
 20
128.0941158510373
 30
0.0
 42
0.1807697890868398
  0
SEQEND
  5
379
  8
DEFAULT
 62
     5
  0
POLYLINE
  5
37A
  8
DEFAULT
 62
     5
 66
     1
 10
0.0
 20
0.0
 30
0.0
 70
     1
  0
VERTEX
  5
37B
  8
DEFAULT
 62
     5
 10
28.06746950828824
 20
126.8379430586268
 30
0.0
 42
-0.1222574291832788
  0
VERTEX
  5
37C
  8
DEFAULT
 62
     5
 10
28.44054053715135
 20
128.3209681502987
 30
0.0
 42
-0.1509199207836231
  0
VERTEX
  5
37D
  8
DEFAULT
 62
     5
 10
29.49763960870581
 20
129.4154895020973
 30
0.0
 42
-0.128724606714422
  0
VERTEX
  5
37E
  8
DEFAULT
 62
     5
 10
31.02503190779771
 20
129.7931898544677
 30
0.0
 42
-0.2109274079128405
  0
VERTEX
  5
37F
  8
DEFAULT
 62
     5
 10
33.16083381178456
 20
128.9367084907256
 30
0.0
 42
-0.2026212639801687
  0
VERTEX
  5
380
  8
DEFAULT
 62
     5
 10
33.99339543421417
 20
126.772357145153
 30
0.0
 42
-0.2022295973323154
  0
VERTEX
  5
381
  8
DEFAULT
 62
     5
 10
33.15273221307233
 20
124.5863997781067
 30
0.0
 42
-0.2115506096600997
  0
VERTEX
  5
382
  8
DEFAULT
 62
     5
 10
31.03583378823668
 20
123.7191157803936
 30
0.0
 42
-0.1188796278362325
  0
VERTEX
  5
383
  8
DEFAULT
 62
     5
 10
29.53004675708661
 20
124.0802271269835
 30
0.0
 42
-0.1582355798320379
  0
VERTEX
  5
384
  8
DEFAULT
 62
     5
 10
28.44054053715134
 20
125.1392552403184
 30
0.0
 42
-0.1239053267140401
  0
SEQEND
  5
385
  8
DEFAULT
 62
     5
  0
POLYLINE
  5
386
  8
DEFAULT
 62
     5
 66
     1
 10
0.0
 20
0.0
 30
0.0
 70
     1
  0
VERTEX
  5
387
  8
DEFAULT
 62
     5
 10
23.17858061939936
 20
126.8634064101297
 30
0.0
 42
0.1375284068188396
  0
VERTEX
  5
388
  8
DEFAULT
 62
     5
 10
23.45713048484683
 20
125.5208136762499
 30
0.0
 42
0.2740108968145777
  0
VERTEX
  5
389
  8
DEFAULT
 62
     5
 10
24.49648237202047
 20
124.9043009655788
 30
0.0
 42
0.2391215062966046
  0
VERTEX
  5
38A
  8
DEFAULT
 62
     5
 10
25.34601918535273
 20
125.3418012363794
 30
0.0
 42
0.1664742695868009
  0
VERTEX
  5
38B
  8
DEFAULT
 62
     5
 10
25.69709913791788
 20
126.720659578967
 30
0.0
 42
0.1640109831052075
  0
VERTEX
  5
38C
  8
DEFAULT
 62
     5
 10
25.34331852686
 20
128.1651034582625
 30
0.0
 42
0.2405029912267518
  0
VERTEX
  5
38D
  8
DEFAULT
 62
     5
 10
24.43784025542459
 20
128.6080046692825
 30
0.0
 42
0.2344888738737803
  0
VERTEX
  5
38E
  8
DEFAULT
 62
     5
 10
23.5377629242087
 20
128.1759060922334
 30
0.0
 42
0.1733692477042223
  0
SEQEND
  5
38F
  8
DEFAULT
 62
     5
  0
POLYLINE
  5
390
  8
DEFAULT
 62
     5
 66
     1
 10
0.0
 20
0.0
 30
0.0
 70
     1
  0
VERTEX
  5
391
  8
DEFAULT
 62
     5
 10
21.64771642186849
 20
123.8672639285418
 30
0.0
  0
VERTEX
  5
392
  8
DEFAULT
 62
     5
 10
21.64771642186849
 20
131.8178812124924
 30
0.0
  0
VERTEX
  5
393
  8
DEFAULT
 62
     5
 10
23.17858061939936
 20
131.8178812124924
 30
0.0
  0
VERTEX
  5
394
  8
DEFAULT
 62
     5
 10
23.17858061939936
 20
128.993807750663
 30
0.0
 42
-0.2270822596882921
  0
VERTEX
  5
395
  8
DEFAULT
 62
     5
 10
24.8282722835464
 20
129.7931898544677
 30
0.0
 42
-0.2252479393351225
  0
VERTEX
  5
396
  8
DEFAULT
 62
     5
 10
26.54779375308442
 20
129.0242858572633
 30
0.0
 42
-0.1849988564296066
  0
VERTEX
  5
397
  8
DEFAULT
 62
     5
 10
27.22796333544874
 20
126.8163385442169
 30
0.0
 42
-0.1811789010422685
  0
VERTEX
  5
398
  8
DEFAULT
 62
     5
 10
26.53583407081115
 20
124.5235141463596
 30
0.0
 42
-0.2291506328684762
  0
VERTEX
  5
399
  8
DEFAULT
 62
     5
 10
24.85450725176148
 20
123.7191157803936
 30
0.0
 42
-0.1258590372261085
  0
VERTEX
  5
39A
  8
DEFAULT
 62
     5
 10
23.8950161872375
 20
123.9741313361187
 30
0.0
 42
-0.1164914631293871
  0
VERTEX
  5
39B
  8
DEFAULT
 62
     5
 10
23.0798151873006
 20
124.7098565682301
 30
0.0
  0
VERTEX
  5
39C
  8
DEFAULT
 62
     5
 10
23.0798151873006
 20
123.8672639285418
 30
0.0
  0
SEQEND
  5
39D
  8
DEFAULT
 62
     5
  0
POLYLINE
  5
39E
  8
DEFAULT
 62
     5
 66
     1
 10
0.0
 20
0.0
 30
0.0
 70
     1
  0
VERTEX
  5
39F
  8
DEFAULT
 62
     5
 10
15.86993864409072
 20
127.2746713359492
 30
0.0
 42
0.1931771868552496
  0
VERTEX
  5
3A0
  8
DEFAULT
 62
     5
 10
15.51847288316946
 20
128.2681127822784
 30
0.0
 42
0.2094545272840964
  0
VERTEX
  5
3A1
  8
DEFAULT
 62
     5
 10
14.70404387671076
 20
128.6080046692825
 30
0.0
 42
0.2175151257022802
  0
VERTEX
  5
3A2
  8
DEFAULT
 62
     5
 10
13.85604992003695
 20
128.2492089263612
 30
0.0
 42
0.1974850402976631
  0
VERTEX
  5
3A3
  8
DEFAULT
 62
     5
 10
13.52657485864766
 20
127.2746713359492
 30
0.0
  0
SEQEND
  5
3A4
  8
DEFAULT
 62
     5
  0
POLYLINE
  5
3A5
  8
DEFAULT
 62
     5
 66
     1
 10
0.0
 20
0.0
 30
0.0
 70
     1
  0
VERTEX
  5
3A6
  8
DEFAULT
 62
     5
 10
15.77117321199196
 20
125.6944244223689
 30
0.0
  0
VERTEX
  5
3A7
  8
DEFAULT
 62
     5
 10
17.30203740952282
 20
125.4968935581714
 30
0.0
 42
-0.1601948643917377
  0
VERTEX
  5
3A8
  8
DEFAULT
 62
     5
 10
16.37148197170662
 20
124.1735912420968
 30
0.0
 42
-0.1590209405814363
  0
VERTEX
  5
3A9
  8
DEFAULT
 62
     5
 10
14.7796615609752
 20
123.7191157803936
 30
0.0
 42
-0.2510606897924163
  0
VERTEX
  5
3AA
  8
DEFAULT
 62
     5
 10
12.54200700450883
 20
124.7098565682301
 30
0.0
 42
-0.1603231689598287
  0
VERTEX
  5
3AB
  8
DEFAULT
 62
     5
 10
11.96870407618948
 20
126.7121717951327
 30
0.0
 42
-0.1928988919450544
  0
VERTEX
  5
3AC
  8
DEFAULT
 62
     5
 10
12.72449134281828
 20
128.97528894957
 30
0.0
 42
-0.2186957110499429
  0
VERTEX
  5
3AD
  8
DEFAULT
 62
     5
 10
14.63537074285617
 20
129.7931898544677
 30
0.0
 42
-0.2248762650829747
  0
VERTEX
  5
3AE
  8
DEFAULT
 62
     5
 10
16.68321060224709
 20
128.9424956160671
 30
0.0
 42
-0.1866850592647461
  0
VERTEX
  5
3AF
  8
DEFAULT
 62
     5
 10
17.40080284162158
 20
126.3363997310109
 30
0.0
  0
VERTEX
  5
3B0
  8
DEFAULT
 62
     5
 10
13.49956827372035
 20
126.3363997310109
 30
0.0
 42
0.1907233177561105
  0
VERTEX
  5
3B1
  8
DEFAULT
 62
     5
 10
13.87726937962267
 20
125.2812300780029
 30
0.0
 42
0.2135192120775314
  0
VERTEX
  5
3B2
  8
DEFAULT
 62
     5
 10
14.77734671083857
 20
124.9043009655788
 30
0.0
 42
0.1657236937101151
  0
VERTEX
  5
3B3
  8
DEFAULT
 62
     5
 10
15.39347285962157
 20
125.0914153809275
 30
0.0
 42
0.1589948514629748
  0
SEQEND
  5
3B4
  8
DEFAULT
 62
     5
  0
POLYLINE
  5
3B5
  8
DEFAULT
 62
     5
 66
     1
 10
0.0
 20
0.0
 30
0.0
 70
     1
  0
VERTEX
  5
3B6
  8
DEFAULT
 62
     5
 10
9.35142012557219
 20
123.8672639285418
 30
0.0
  0
VERTEX
  5
3B7
  8
DEFAULT
 62
     5
 10
9.35142012557219
 20
131.8178812124924
 30
0.0
  0
VERTEX
  5
3B8
  8
DEFAULT
 62
     5
 10
10.88228432310308
 20
131.8178812124924
 30
0.0
  0
VERTEX
  5
3B9
  8
DEFAULT
 62
     5
 10
10.88228432310308
 20
123.8672639285418
 30
0.0
  0
SEQEND
  5
3BA
  8
DEFAULT
 62
     5
  0
POLYLINE
  5
3BB
  8
DEFAULT
 62
     5
 66
     1
 10
0.0
 20
0.0
 30
0.0
 70
     1
  0
VERTEX
  5
3BC
  8
DEFAULT
 62
     5
 10
4.116852224337634
 20
126.8634064101297
 30
0.0
 42
0.1375284068188352
  0
VERTEX
  5
3BD
  8
DEFAULT
 62
     5
 10
4.395402089785093
 20
125.5208136762499
 30
0.0
 42
0.274010896814563
  0
VERTEX
  5
3BE
  8
DEFAULT
 62
     5
 10
5.434753976958746
 20
124.9043009655788
 30
0.0
 42
0.2391215062966265
  0
VERTEX
  5
3BF
  8
DEFAULT
 62
     5
 10
6.284290790290979
 20
125.3418012363794
 30
0.0
 42
0.1664742695868119
  0
VERTEX
  5
3C0
  8
DEFAULT
 62
     5
 10
6.635370742856177
 20
126.720659578967
 30
0.0
 42
0.1640109831052161
  0
VERTEX
  5
3C1
  8
DEFAULT
 62
     5
 10
6.281590131798255
 20
128.1651034582625
 30
0.0
 42
0.2405029912267589
  0
VERTEX
  5
3C2
  8
DEFAULT
 62
     5
 10
5.376111860362869
 20
128.6080046692825
 30
0.0
 42
0.2344888738737855
  0
VERTEX
  5
3C3
  8
DEFAULT
 62
     5
 10
4.476034529146961
 20
128.1759060922334
 30
0.0
 42
0.1733692477042119
  0
SEQEND
  5
3C4
  8
DEFAULT
 62
     5
  0
POLYLINE
  5
3C5
  8
DEFAULT
 62
     5
 66
     1
 10
0.0
 20
0.0
 30
0.0
 70
     1
  0
VERTEX
  5
3C6
  8
DEFAULT
 62
     5
 10
2.585988026806774
 20
123.8672639285418
 30
0.0
  0
VERTEX
  5
3C7
  8
DEFAULT
 62
     5
 10
2.585988026806774
 20
131.8178812124924
 30
0.0
  0
VERTEX
  5
3C8
  8
DEFAULT
 62
     5
 10
4.116852224337634
 20
131.8178812124924
 30
0.0
  0
VERTEX
  5
3C9
  8
DEFAULT
 62
     5
 10
4.11685222433764
 20
128.993807750663
 30
0.0
 42
-0.227082259688295
  0
VERTEX
  5
3CA
  8
DEFAULT
 62
     5
 10
5.766543888484676
 20
129.7931898544677
 30
0.0
 42
-0.2252479393351331
  0
VERTEX
  5
3CB
  8
DEFAULT
 62
     5
 10
7.486065358022666
 20
129.0242858572633
 30
0.0
 42
-0.1849988564296207
  0
VERTEX
  5
3CC
  8
DEFAULT
 62
     5
 10
8.166234940387014
 20
126.8163385442169
 30
0.0
 42
-0.181178901042267
  0
VERTEX
  5
3CD
  8
DEFAULT
 62
     5
 10
7.474105675749437
 20
124.5235141463596
 30
0.0
 42
-0.2291506328684755
  0
VERTEX
  5
3CE
  8
DEFAULT
 62
     5
 10
5.792778856699754
 20
123.7191157803936
 30
0.0
 42
-0.1258590372261079
  0
VERTEX
  5
3CF
  8
DEFAULT
 62
     5
 10
4.833287792175769
 20
123.9741313361187
 30
0.0
 42
-0.1164914631293803
  0
VERTEX
  5
3D0
  8
DEFAULT
 62
     5
 10
4.018086792238876
 20
124.7098565682301
 30
0.0
  0
VERTEX
  5
3D1
  8
DEFAULT
 62
     5
 10
4.018086792238876
 20
123.8672639285418
 30
0.0
  0
SEQEND
  5
3D2
  8
DEFAULT
 62
     5
  0
POLYLINE
  5
3D3
  8
DEFAULT
 62
     5
 66
     1
 10
0.0
 20
0.0
 30
0.0
 70
     1
  0
VERTEX
  5
3D4
  8
DEFAULT
 62
     5
 10
-0.4757403682549608
 20
123.8672639285418
 30
0.0
  0
VERTEX
  5
3D5
  8
DEFAULT
 62
     5
 10
-0.4757403682549608
 20
129.6450417063195
 30
0.0
  0
VERTEX
  5
3D6
  8
DEFAULT
 62
     5
 10
1.055123829275914
 20
129.6450417063195
 30
0.0
  0
VERTEX
  5
3D7
  8
DEFAULT
 62
     5
 10
1.055123829275914
 20
123.8672639285418
 30
0.0
  0
SEQEND
  5
3D8
  8
DEFAULT
 62
     5
  0
POLYLINE
  5
3D9
  8
DEFAULT
 62
     5
 66
     1
 10
0.0
 20
0.0
 30
0.0
 70
     1
  0
VERTEX
  5
3DA
  8
DEFAULT
 62
     5
 10
-0.4757403682549608
 20
130.4845478791591
 30
0.0
  0
VERTEX
  5
3DB
  8
DEFAULT
 62
     5
 10
-0.4757403682549608
 20
131.8178812124924
 30
0.0
  0
VERTEX
  5
3DC
  8
DEFAULT
 62
     5
 10
1.055123829275914
 20
131.8178812124924
 30
0.0
  0
VERTEX
  5
3DD
  8
DEFAULT
 62
     5
 10
1.055123829275914
 20
130.4845478791591
 30
0.0
  0
SEQEND
  5
3DE
  8
DEFAULT
 62
     5
  0
POLYLINE
  5
3DF
  8
DEFAULT
 62
     5
 66
     1
 10
0.0
 20
0.0
 30
0.0
 70
     1
  0
VERTEX
  5
3E0
  8
DEFAULT
 62
     5
 10
-7.191789750971012
 20
125.4968935581714
 30
0.0
  0
VERTEX
  5
3E1
  8
DEFAULT
 62
     5
 10
-5.660925553440142
 20
125.6944244223689
 30
0.0
 42
0.1817134537413223
  0
VERTEX
  5
3E2
  8
DEFAULT
 62
     5
 10
-5.264706023210794
 20
125.0316158392633
 30
0.0
 42
0.1637490318833125
  0
VERTEX
  5
3E3
  8
DEFAULT
 62
     5
 10
-4.430214982234674
 20
124.80553553348
 30
0.0
 42
0.1581548590316403
  0
VERTEX
  5
3E4
  8
DEFAULT
 62
     5
 10
-3.54055447663357
 20
125.026986515756
 30
0.0
 42
0.2454173628752725
  0
VERTEX
  5
3E5
  8
DEFAULT
 62
     5
 10
-3.339937899119148
 20
125.4421102786685
 30
0.0
 42
0.1967133408659652
  0
VERTEX
  5
3E6
  8
DEFAULT
 62
     5
 10
-3.448733594944684
 20
125.735320108116
 30
0.0
 42
0.1152480441762787
  0
VERTEX
  5
3E7
  8
DEFAULT
 62
     5
 10
-3.9610795565315
 20
125.9397955227234
 30
0.0
 42
-0.0750101977649263
  0
VERTEX
  5
3E8
  8
DEFAULT
 62
     5
 10
-6.308301425535637
 20
126.6951962274641
 30
0.0
 42
-0.2630575377237305
  0
VERTEX
  5
3E9
  8
DEFAULT
 62
     5
 10
-6.994258886773447
 20
128.0053818129632
 30
0.0
 42
-0.2278055359034032
  0
VERTEX
  5
3EA
  8
DEFAULT
 62
     5
 10
-6.401280485824774
 20
129.277757802798
 30
0.0
 42
-0.1789409577799058
  0
VERTEX
  5
3EB
  8
DEFAULT
 62
     5
 10
-4.562931549670593
 20
129.7931898544677
 30
0.0
 42
-0.1478680227512848
  0
VERTEX
  5
3EC
  8
DEFAULT
 62
     5
 10
-2.800585729371005
 20
129.3938846109215
 30
0.0
 42
-0.1798681362132278
  0
VERTEX
  5
3ED
  8
DEFAULT
 62
     5
 10
-2.006604565785818
 20
128.2129429408875
 30
0.0
  0
VERTEX
  5
3EE
  8
DEFAULT
 62
     5
 10
-3.438703331217932
 20
127.9660293606405
 30
0.0
 42
0.1762609448244225
  0
VERTEX
  5
3EF
  8
DEFAULT
 62
     5
 10
-3.78901166707088
 20
128.5157979792375
 30
0.0
 42
0.1598214678235928
  0
VERTEX
  5
3F0
  8
DEFAULT
 62
     5
 10
-4.52512308430434
 20
128.7067701013813
 30
0.0
 42
0.13718554878575
  0
VERTEX
  5
3F1
  8
DEFAULT
 62
     5
 10
-5.388548621690365
 20
128.5354742053988
 30
0.0
 42
0.5297885667389658
  0
VERTEX
  5
3F2
  8
DEFAULT
 62
     5
 10
-5.410153889632195
 20
127.9374802958207
 30
0.0
 42
0.0664798749578793
  0
VERTEX
  5
3F3
  8
DEFAULT
 62
     5
 10
-3.986542531268412
 20
127.5003662101423
 30
0.0
 42
-0.1095214193377342
  0
VERTEX
  5
3F4
  8
DEFAULT
 62
     5
 10
-2.286696911125747
 20
126.8132520773681
 30
0.0
 42
-0.2284114958797704
  0
VERTEX
  5
3F5
  8
DEFAULT
 62
     5
 10
-1.809073701588272
 20
125.668961824398
 30
0.0
 42
-0.2276229810650845
  0
VERTEX
  5
3F6
  8
DEFAULT
 62
     5
 10
-2.471110667981713
 20
124.2939615653714
 30
0.0
 42
-0.1809722242825315
  0
VERTEX
  5
3F7
  8
DEFAULT
 62
     5
 10
-4.430214982234673
 20
123.7191157803936
 30
0.0
 42
-0.1534212868271972
  0
VERTEX
  5
3F8
  8
DEFAULT
 62
     5
 10
-6.294027269891728
 20
124.1975109834093
 30
0.0
 42
-0.1853542620165928
  0
SEQEND
  5
3F9
  8
DEFAULT
 62
     5
  0
POLYLINE
  5
3FA
  8
DEFAULT
 62
     5
 66
     1
 10
0.0
 20
0.0
 30
0.0
 70
     1
  0
VERTEX
  5
3FB
  8
DEFAULT
 62
     5
 10
-11.88314777566237
 20
126.853375392871
 30
0.0
 42
0.1662127852120613
  0
VERTEX
  5
3FC
  8
DEFAULT
 62
     5
 10
-11.5042896214577
 20
125.3803813184578
 30
0.0
 42
0.2404461653497432
  0
VERTEX
  5
3FD
  8
DEFAULT
 62
     5
 10
-10.58144997399762
 20
124.9043009655788
 30
0.0
 42
0.2413239634427037
  0
VERTEX
  5
3FE
  8
DEFAULT
 62
     5
 10
-9.711465317791857
 20
125.3414154280233
 30
0.0
 42
0.1627449374921725
  0
VERTEX
  5
3FF
  8
DEFAULT
 62
     5
 10
-9.364629257143857
 20
126.7754436120018
 30
0.0
 42
0.166197673138211
  0
VERTEX
  5
400
  8
DEFAULT
 62
     5
 10
-9.722267951762767
 20
128.1570018595503
 30
0.0
 42
0.2412377667960334
  0
VERTEX
  5
401
  8
DEFAULT
 62
     5
 10
-10.60768418868076
 20
128.6080046692825
 30
0.0
 42
0.2367422129321639
  0
VERTEX
  5
402
  8
DEFAULT
 62
     5
 10
-11.52049319564811
 20
128.1651034582625
 30
0.0
 42
0.1723447809989026
  0
SEQEND
  5
403
  8
DEFAULT
 62
     5
  0
POLYLINE
  5
404
  8
DEFAULT
 62
     5
 66
     1
 10
0.0
 20
0.0
 30
0.0
 70
     1
  0
VERTEX
  5
405
  8
DEFAULT
 62
     5
 10
-13.41401197319323
 20
129.6450417063195
 30
0.0
  0
VERTEX
  5
406
  8
DEFAULT
 62
     5
 10
-11.98191320776112
 20
129.6450417063195
 30
0.0
  0
VERTEX
  5
407
  8
DEFAULT
 62
     5
 10
-11.98191320776113
 20
128.8024498201632
 30
0.0
 42
-0.1189653659007448
  0
VERTEX
  5
408
  8
DEFAULT
 62
     5
 10
-11.24232951532272
 20
129.51386912584
 30
0.0
 42
-0.1382105598910432
  0
VERTEX
  5
409
  8
DEFAULT
 62
     5
 10
-10.20799276001244
 20
129.7931898544677
 30
0.0
 42
-0.2273648758850507
  0
VERTEX
  5
40A
  8
DEFAULT
 62
     5
 10
-8.525123084304347
 20
128.9995944992386
 30
0.0
 42
-0.183868218893613
  0
VERTEX
  5
40B
  8
DEFAULT
 62
     5
 10
-7.83376505961299
 20
126.7893319592896
 30
0.0
 42
-0.1823656645300111
  0
VERTEX
  5
40C
  8
DEFAULT
 62
     5
 10
-8.53090983287993
 20
124.5262148048523
 30
0.0
 42
-0.2285594541575015
  0
VERTEX
  5
40D
  8
DEFAULT
 62
     5
 10
-10.22033862740778
 20
123.7191157803936
 30
0.0
 42
-0.1163198006807629
  0
VERTEX
  5
40E
  8
DEFAULT
 62
     5
 10
-11.07604875120366
 20
123.9081592375228
 30
0.0
 42
-0.0904152380777497
  0
VERTEX
  5
40F
  8
DEFAULT
 62
     5
 10
-11.88314777566236
 20
124.5563078566285
 30
0.0
  0
VERTEX
  5
410
  8
DEFAULT
 62
     5
 10
-11.88314777566237
 20
121.6450417063195
 30
0.0
  0
VERTEX
  5
411
  8
DEFAULT
 62
     5
 10
-13.41401197319323
 20
121.6450417063195
 30
0.0
  0
SEQEND
  5
412
  8
DEFAULT
 62
     5
  0
POLYLINE
  5
413
  8
DEFAULT
 62
     5
 66
     1
 10
0.0
 20
0.0
 30
0.0
 70
     1
  0
VERTEX
  5
414
  8
DEFAULT
 62
     5
 10
-16.52512308430434
 20
126.6326960273072
 30
0.0
  0
VERTEX
  5
415
  8
DEFAULT
 62
     5
 10
-17.41632644656387
 20
126.3988999311678
 30
0.0
 42
0.0811165779561208
  0
VERTEX
  5
416
  8
DEFAULT
 62
     5
 10
-18.2133940769979
 20
126.1326966866477
 30
0.0
 42
0.2517191883486168
  0
VERTEX
  5
417
  8
DEFAULT
 62
     5
 10
-18.50043172627965
 20
125.5941165103777
 30
0.0
 42
0.4298150945544709
  0
VERTEX
  5
418
  8
DEFAULT
 62
     5
 10
-17.68715976812328
 20
124.80553553348
 30
0.0
 42
0.1670482644845892
  0
VERTEX
  5
419
  8
DEFAULT
 62
     5
 10
-16.93175830985058
 20
125.0771408485176
 30
0.0
 42
0.1651612454991308
  0
VERTEX
  5
41A
  8
DEFAULT
 62
     5
 10
-16.58222121394386
 20
125.5833138764068
 30
0.0
  0
VERTEX
  5
41B
  8
DEFAULT
 62
     5
 10
-16.52512308430434
 20
126.3279127007086
 30
0.0
  0
SEQEND
  5
41C
  8
DEFAULT
 62
     5
  0
POLYLINE
  5
41D
  8
DEFAULT
 62
     5
 66
     1
 10
0.0
 20
0.0
 30
0.0
 70
     1
  0
VERTEX
  5
41E
  8
DEFAULT
 62
     5
 10
-18.45104901023026
 20
127.8672639285418
 30
0.0
  0
VERTEX
  5
41F
  8
DEFAULT
 62
     5
 10
-19.83376505961299
 20
128.0647947927393
 30
0.0
 42
-0.1714833175990119
  0
VERTEX
  5
420
  8
DEFAULT
 62
     5
 10
-19.04402703441299
 20
129.3695790612529
 30
0.0
 42
-0.1608829132837474
  0
VERTEX
  5
421
  8
DEFAULT
 62
     5
 10
-17.37928922114385
 20
129.7931898544677
 30
0.0
 42
-0.1088364278880614
  0
VERTEX
  5
422
  8
DEFAULT
 62
     5
 10
-15.88546224903301
 20
129.5505201661379
 30
0.0
 42
-0.1580303644335518
  0
VERTEX
  5
423
  8
DEFAULT
 62
     5
 10
-15.19449003269775
 20
128.9340078322329
 30
0.0
 42
-0.1088017057953346
  0
VERTEX
  5
424
  8
DEFAULT
 62
     5
 10
-14.99425888677348
 20
127.5617089852309
 30
0.0
  0
VERTEX
  5
425
  8
DEFAULT
 62
     5
 10
-14.99425888677348
 20
125.7715853400578
 30
0.0
 42
0.051408021969532
  0
VERTEX
  5
426
  8
DEFAULT
 62
     5
 10
-14.91092541215289
 20
124.6446560863464
 30
0.0
 42
0.0692287864232358
  0
VERTEX
  5
427
  8
DEFAULT
 62
     5
 10
-14.59919715837841
 20
123.8672639285418
 30
0.0
  0
VERTEX
  5
428
  8
DEFAULT
 62
     5
 10
-16.13006135590928
 20
123.8672639285418
 30
0.0
  0
VERTEX
  5
429
  8
DEFAULT
 62
     5
 10
-16.276666270633
 20
124.314794839835
 30
0.0
  0
VERTEX
  5
42A
  8
DEFAULT
 62
     5
 10
-16.3306779334237
 20
124.4930360397593
 30
0.0
 42
-0.0933244186738211
  0
VERTEX
  5
42B
  8
DEFAULT
 62
     5
 10
-17.1663267762341
 20
123.9127889377961
 30
0.0
 42
-0.1040133466925768
  0
VERTEX
  5
42C
  8
DEFAULT
 62
     5
 10
-18.11617187832356
 20
123.7191157803936
 30
0.0
 42
-0.1965430357596685
  0
VERTEX
  5
42D
  8
DEFAULT
 62
     5
 10
-19.51856415386759
 20
124.2032981087508
 30
0.0
 42
-0.2154369487651091
  0
VERTEX
  5
42E
  8
DEFAULT
 62
     5
 10
-20.03129592381051
 20
125.4274495611366
 30
0.0
 42
-0.1373780248024428
  0
VERTEX
  5
42F
  8
DEFAULT
 62
     5
 10
-19.80290076789063
 20
126.3009061157813
 30
0.0
 42
-0.1473783213971144
  0
VERTEX
  5
430
  8
DEFAULT
 62
     5
 10
-19.16285412426319
 20
126.8884831997445
 30
0.0
 42
-0.0634404934847134
  0
VERTEX
  5
431
  8
DEFAULT
 62
     5
 10
-17.97573989729749
 20
127.244579037705
 30
0.0
 42
0.0472009877729036
  0
VERTEX
  5
432
  8
DEFAULT
 62
     5
 10
-16.52512308430434
 20
127.6203503482949
 30
0.0
  0
VERTEX
  5
433
  8
DEFAULT
 62
     5
 10
-16.52512308430436
 20
127.7754430468529
 30
0.0
 42
0.2070921599656616
  0
VERTEX
  5
434
  8
DEFAULT
 62
     5
 10
-16.72998393050188
 20
128.4166467387826
 30
0.0
 42
0.1777887432707931
  0
VERTEX
  5
435
  8
DEFAULT
 62
     5
 10
-17.50351800474549
 20
128.6080046692825
 30
0.0
 42
0.1651091138038751
  0
VERTEX
  5
436
  8
DEFAULT
 62
     5
 10
-18.10266896262589
 20
128.443652946944
 30
0.0
 42
0.1491587679877635
  0
SEQEND
  5
437
  8
DEFAULT
 62
     5
  0
POLYLINE
  5
438
  8
DEFAULT
 62
     5
 66
     1
 10
0.0
 20
0.0
 30
0.0
 70
     1
  0
VERTEX
  5
439
  8
DEFAULT
 62
     5
 10
-22.6485798744278
 20
123.8672639285418
 30
0.0
  0
VERTEX
  5
43A
  8
DEFAULT
 62
     5
 10
-22.6485798744278
 20
131.8178812124924
 30
0.0
  0
VERTEX
  5
43B
  8
DEFAULT
 62
     5
 10
-21.11771567689694
 20
131.8178812124924
 30
0.0
  0
VERTEX
  5
43C
  8
DEFAULT
 62
     5
 10
-21.11771567689694
 20
123.8672639285418
 30
0.0
  0
SEQEND
  5
43D
  8
DEFAULT
 62
     5
  0
POLYLINE
  5
43E
  8
DEFAULT
 62
     5
 66
     1
 10
0.0
 20
0.0
 30
0.0
 70
     1
  0
VERTEX
  5
43F
  8
DEFAULT
 62
     5
 10
-25.71030826948952
 20
123.8672639285418
 30
0.0
  0
VERTEX
  5
440
  8
DEFAULT
 62
     5
 10
-25.71030826948952
 20
131.8178812124924
 30
0.0
  0
VERTEX
  5
441
  8
DEFAULT
 62
     5
 10
-24.17944407195866
 20
131.8178812124924
 30
0.0
  0
VERTEX
  5
442
  8
DEFAULT
 62
     5
 10
-24.17944407195866
 20
123.8672639285418
 30
0.0
  0
SEQEND
  5
443
  8
DEFAULT
 62
     5
  0
POLYLINE
  5
444
  8
DEFAULT
 62
     5
 66
     1
 10
0.0
 20
0.0
 30
0.0
 70
     1
  0
VERTEX
  5
445
  8
DEFAULT
 62
     5
 10
-31.29055518306977
 20
126.7561531941966
 30
0.0
 42
0.1807696907208254
  0
VERTEX
  5
446
  8
DEFAULT
 62
     5
 10
-30.89086375440145
 20
125.4181901605901
 30
0.0
 42
0.4777036397637858
  0
VERTEX
  5
447
  8
DEFAULT
 62
     5
 10
-28.92211347771394
 20
125.4181901605901
 30
0.0
 42
0.1794408075869702
  0
VERTEX
  5
448
  8
DEFAULT
 62
     5
 10
-28.52512308430436
 20
126.7669558281676
 30
0.0
 42
0.1800932450793785
  0
VERTEX
  5
449
  8
DEFAULT
 62
     5
 10
-28.92211347771394
 20
128.0941158510373
 30
0.0
 42
0.4793729384845993
  0
VERTEX
  5
44A
  8
DEFAULT
 62
     5
 10
-30.89086375440146
 20
128.0941158510373
 30
0.0
 42
0.1807697890868514
  0
SEQEND
  5
44B
  8
DEFAULT
 62
     5
  0
POLYLINE
  5
44C
  8
DEFAULT
 62
     5
 66
     1
 10
0.0
 20
0.0
 30
0.0
 70
     1
  0
VERTEX
  5
44D
  8
DEFAULT
 62
     5
 10
-32.82141938060063
 20
126.8379430586268
 30
0.0
 42
-0.1222574291832779
  0
VERTEX
  5
44E
  8
DEFAULT
 62
     5
 10
-32.44834835173754
 20
128.3209681502987
 30
0.0
 42
-0.1509199207836214
  0
VERTEX
  5
44F
  8
DEFAULT
 62
     5
 10
-31.39124928018309
 20
129.4154895020973
 30
0.0
 42
-0.1287246067144308
  0
VERTEX
  5
450
  8
DEFAULT
 62
     5
 10
-29.86385698109119
 20
129.7931898544677
 30
0.0
 42
-0.2109274079128429
  0
VERTEX
  5
451
  8
DEFAULT
 62
     5
 10
-27.72805507710433
 20
128.9367084907256
 30
0.0
 42
-0.2026212639801669
  0
VERTEX
  5
452
  8
DEFAULT
 62
     5
 10
-26.8954934546747
 20
126.772357145153
 30
0.0
 42
-0.2022295973323171
  0
VERTEX
  5
453
  8
DEFAULT
 62
     5
 10
-27.73615667581656
 20
124.5863997781067
 30
0.0
 42
-0.2115506096601021
  0
VERTEX
  5
454
  8
DEFAULT
 62
     5
 10
-29.85305510065221
 20
123.7191157803936
 30
0.0
 42
-0.1188796278362333
  0
VERTEX
  5
455
  8
DEFAULT
 62
     5
 10
-31.35884213180228
 20
124.0802271269835
 30
0.0
 42
-0.1582355798320425
  0
VERTEX
  5
456
  8
DEFAULT
 62
     5
 10
-32.44834835173754
 20
125.1392552403184
 30
0.0
 42
-0.1239053267140389
  0
SEQEND
  5
457
  8
DEFAULT
 62
     5
  0
POLYLINE
  5
458
  8
DEFAULT
 62
     5
 66
     1
 10
0.0
 20
0.0
 30
0.0
 70
     1
  0
VERTEX
  5
459
  8
DEFAULT
 62
     5
 10
-33.66092555344014
 20
127.9660293606405
 30
0.0
  0
VERTEX
  5
45A
  8
DEFAULT
 62
     5
 10
-35.19178975097101
 20
127.7191157803936
 30
0.0
 42
0.1809968098175324
  0
VERTEX
  5
45B
  8
DEFAULT
 62
     5
 10
-35.53361030298969
 20
128.3846253987579
 30
0.0
 42
0.180476016767008
  0
VERTEX
  5
45C
  8
DEFAULT
 62
     5
 10
-36.22496870444699
 20
128.6080046692825
 30
0.0
 42
0.2329674834671479
  0
VERTEX
  5
45D
  8
DEFAULT
 62
     5
 10
-37.12697470067744
 20
128.2067703839558
 30
0.0
 42
0.1695179555120512
  0
VERTEX
  5
45E
  8
DEFAULT
 62
     5
 10
-37.4633946892426
 20
126.8641780268419
 30
0.0
 42
0.1610966817175018
  0
VERTEX
  5
45F
  8
DEFAULT
 62
     5
 10
-37.11887272519928
 20
125.3853968270872
 30
0.0
 42
0.2405540491094055
  0
VERTEX
  5
460
  8
DEFAULT
 62
     5
 10
-36.19410403595867
 20
124.9536836816282
 30
0.0
 42
0.1883458441869697
  0
VERTEX
  5
461
  8
DEFAULT
 62
     5
 10
-35.48384177858419
 20
125.1982827885045
 30
0.0
 42
0.1622604489947865
  0
VERTEX
  5
462
  8
DEFAULT
 62
     5
 10
-35.09302431887224
 20
126.0401034347146
 30
0.0
  0
VERTEX
  5
463
  8
DEFAULT
 62
     5
 10
-33.56216012134137
 20
125.8425725705171
 30
0.0
 42
-0.1724509721436119
  0
VERTEX
  5
464
  8
DEFAULT
 62
     5
 10
-34.45644995044975
 20
124.2553814832929
 30
0.0
 42
-0.1746967243539386
  0
VERTEX
  5
465
  8
DEFAULT
 62
     5
 10
-36.2295976511883
 20
123.7191157803936
 30
0.0
 42
-0.2163976905724297
  0
VERTEX
  5
466
  8
DEFAULT
 62
     5
 10
-38.24348712877403
 20
124.5235141463596
 30
0.0
 42
-0.1943870566321055
  0
VERTEX
  5
467
  8
DEFAULT
 62
     5
 10
-38.99425888677346
 20
126.7507518772112
 30
0.0
 42
-0.1945054615972563
  0
VERTEX
  5
468
  8
DEFAULT
 62
     5
 10
-38.24387293713013
 20
128.9914925237604
 30
0.0
 42
-0.2157801631579832
  0
VERTEX
  5
469
  8
DEFAULT
 62
     5
 10
-36.21416607047608
 20
129.7931898544677
 30
0.0
 42
-0.1599423076957951
  0
VERTEX
  5
46A
  8
DEFAULT
 62
     5
 10
-34.54904244885083
 20
129.3418012363794
 30
0.0
 42
-0.1682635697126456
  0
SEQEND
  5
46B
  8
DEFAULT
 62
     5
  0
POLYLINE
  5
46C
  8
DEFAULT
 62
     5
 66
     1
 10
0.0
 20
0.0
 30
0.0
 70
     1
  0
VERTEX
  5
46D
  8
DEFAULT
 62
     5
 10
-42.74734530652655
 20
129.6450417063195
 30
0.0
  0
VERTEX
  5
46E
  8
DEFAULT
 62
     5
 10
-42.74734530652655
 20
128.4598565211344
 30
0.0
  0
VERTEX
  5
46F
  8
DEFAULT
 62
     5
 10
-43.78438234356359
 20
128.4598565211344
 30
0.0
  0
VERTEX
  5
470
  8
DEFAULT
 62
     5
 10
-43.78438234356359
 20
126.0740545700518
 30
0.0
  0
VERTEX
  5
471
  8
DEFAULT
 62
     5
 10
-43.75506128526565
 20
125.2295325118169
 30
0.0
  0
VERTEX
  5
472
  8
DEFAULT
 62
     5
 10
-43.6227309029518
 20
125.0316158392633
 30
0.0
  0
VERTEX
  5
473
  8
DEFAULT
 62
     5
 10
-43.37080181407553
 20
124.9536836816282
 30
0.0
  0
VERTEX
  5
474
  8
DEFAULT
 62
     5
 10
-42.77203628778528
 20
125.0995177331717
 30
0.0
  0
VERTEX
  5
475
  8
DEFAULT
 62
     5
 10
-42.6485798744278
 20
123.9413383793818
 30
0.0
 42
-0.1009135694950967
  0
VERTEX
  5
476
  8
DEFAULT
 62
     5
 10
-43.83993723977871
 20
123.7191157803936
 30
0.0
 42
-0.1023112505793991
  0
VERTEX
  5
477
  8
DEFAULT
 62
     5
 10
-44.57489123194384
 20
123.8595481381857
 30
0.0
 42
-0.142732760251372
  0
VERTEX
  5
478
  8
DEFAULT
 62
     5
 10
-45.05521547674
 20
124.222588526556
 30
0.0
 42
-0.1112474266807636
  0
VERTEX
  5
479
  8
DEFAULT
 62
     5
 10
-45.26663468822534
 20
124.8248259512852
 30
0.0
  0
VERTEX
  5
47A
  8
DEFAULT
 62
     5
 10
-45.31524654109445
 20
125.9135605545083
 30
0.0
  0
VERTEX
  5
47B
  8
DEFAULT
 62
     5
 10
-45.31524654109445
 20
128.4598565211344
 30
0.0
  0
VERTEX
  5
47C
  8
DEFAULT
 62
     5
 10
-46.0559872818352
 20
128.4598565211344
 30
0.0
  0
VERTEX
  5
47D
  8
DEFAULT
 62
     5
 10
-46.0559872818352
 20
129.6450417063195
 30
0.0
  0
VERTEX
  5
47E
  8
DEFAULT
 62
     5
 10
-45.31524654109445
 20
129.6450417063195
 30
0.0
  0
VERTEX
  5
47F
  8
DEFAULT
 62
     5
 10
-45.31524654109445
 20
130.731461459406
 30
0.0
  0
VERTEX
  5
480
  8
DEFAULT
 62
     5
 10
-43.78438234356359
 20
131.6203503482949
 30
0.0
  0
VERTEX
  5
481
  8
DEFAULT
 62
     5
 10
-43.78438234356359
 20
129.6450417063195
 30
0.0
  0
SEQEND
  5
482
  8
DEFAULT
 62
     5
  0
POLYLINE
  5
483
  8
DEFAULT
 62
     5
 66
     1
 10
0.0
 20
0.0
 30
0.0
 70
     1
  0
VERTEX
  5
484
  8
DEFAULT
 62
     5
 10
-46.94487617072409
 20
123.8672639285418
 30
0.0
  0
VERTEX
  5
485
  8
DEFAULT
 62
     5
 10
-48.47574036825495
 20
123.8672639285418
 30
0.0
  0
VERTEX
  5
486
  8
DEFAULT
 62
     5
 10
-48.47574036825495
 20
126.8171101609291
 30
0.0
 42
0.0659043403442102
  0
VERTEX
  5
487
  8
DEFAULT
 62
     5
 10
-48.5721909502171
 20
128.0285299375634
 30
0.0
 42
0.160013069576559
  0
VERTEX
  5
488
  8
DEFAULT
 62
     5
 10
-48.885462437416
 20
128.4556130059832
 30
0.0
 42
0.1575149176298852
  0
VERTEX
  5
489
  8
DEFAULT
 62
     5
 10
-49.40706742278336
 20
128.6080046692825
 30
0.0
 42
0.1576987046345221
  0
VERTEX
  5
48A
  8
DEFAULT
 62
     5
 10
-50.10807027961134
 20
128.3904121473336
 30
0.0
 42
0.1684371822617384
  0
VERTEX
  5
48B
  8
DEFAULT
 62
     5
 10
-50.53361049137266
 20
127.8136376973412
 30
0.0
 42
0.0659809918576519
  0
VERTEX
  5
48C
  8
DEFAULT
 62
     5
 10
-50.6485798744278
 20
126.4853194958713
 30
0.0
  0
VERTEX
  5
48D
  8
DEFAULT
 62
     5
 10
-50.6485798744278
 20
123.8672639285418
 30
0.0
  0
VERTEX
  5
48E
  8
DEFAULT
 62
     5
 10
-52.17944407195866
 20
123.8672639285418
 30
0.0
  0
VERTEX
  5
48F
  8
DEFAULT
 62
     5
 10
-52.17944407195866
 20
129.6450417063195
 30
0.0
  0
VERTEX
  5
490
  8
DEFAULT
 62
     5
 10
-50.74734530652655
 20
129.6450417063195
 30
0.0
  0
VERTEX
  5
491
  8
DEFAULT
 62
     5
 10
-50.74734530652655
 20
128.8024498201632
 30
0.0
 42
-0.2486296121988585
  0
VERTEX
  5
492
  8
DEFAULT
 62
     5
 10
-48.86462916295235
 20
129.7931898544677
 30
0.0
 42
-0.1053164015608138
  0
VERTEX
  5
493
  8
DEFAULT
 62
     5
 10
-47.95066310768267
 20
129.6103197078021
 30
0.0
 42
-0.1292191717088945
  0
VERTEX
  5
494
  8
DEFAULT
 62
     5
 10
-47.32411975651888
 20
129.1438845638257
 30
0.0
 42
-0.1054932374261978
  0
VERTEX
  5
495
  8
DEFAULT
 62
     5
 10
-47.02820926857871
 20
128.4999802134032
 30
0.0
 42
-0.0533641385177095
  0
VERTEX
  5
496
  8
DEFAULT
 62
     5
 10
-46.94487617072409
 20
127.4683448701176
 30
0.0
  0
SEQEND
  5
497
  8
DEFAULT
 62
     5
  0
POLYLINE
  5
498
  8
DEFAULT
 62
     5
 66
     1
 10
0.0
 20
0.0
 30
0.0
 70
     1
  0
VERTEX
  5
499
  8
DEFAULT
 62
     5
 10
-54.89549345467471
 20
127.2746713359492
 30
0.0
 42
0.1931771868552762
  0
VERTEX
  5
49A
  8
DEFAULT
 62
     5
 10
-55.24695921559598
 20
128.2681127822784
 30
0.0
 42
0.2094545272841224
  0
VERTEX
  5
49B
  8
DEFAULT
 62
     5
 10
-56.06138822205469
 20
128.6080046692825
 30
0.0
 42
0.2175151257022727
  0
VERTEX
  5
49C
  8
DEFAULT
 62
     5
 10
-56.90938217872848
 20
128.2492089263612
 30
0.0
 42
0.1974850402976792
  0
VERTEX
  5
49D
  8
DEFAULT
 62
     5
 10
-57.23885724011778
 20
127.2746713359492
 30
0.0
  0
SEQEND
  5
49E
  8
DEFAULT
 62
     5
  0
POLYLINE
  5
49F
  8
DEFAULT
 62
     5
 66
     1
 10
0.0
 20
0.0
 30
0.0
 70
     1
  0
VERTEX
  5
4A0
  8
DEFAULT
 62
     5
 10
-54.99425888677347
 20
125.6944244223689
 30
0.0
  0
VERTEX
  5
4A1
  8
DEFAULT
 62
     5
 10
-53.4633946892426
 20
125.4968935581714
 30
0.0
 42
-0.1601948643917405
  0
VERTEX
  5
4A2
  8
DEFAULT
 62
     5
 10
-54.39395012705881
 20
124.1735912420968
 30
0.0
 42
-0.1590209405814459
  0
VERTEX
  5
4A3
  8
DEFAULT
 62
     5
 10
-55.98577053779022
 20
123.7191157803936
 30
0.0
 42
-0.2510606897924149
  0
VERTEX
  5
4A4
  8
DEFAULT
 62
     5
 10
-58.2234250942566
 20
124.7098565682301
 30
0.0
 42
-0.1603231689598215
  0
VERTEX
  5
4A5
  8
DEFAULT
 62
     5
 10
-58.79672802257594
 20
126.7121717951327
 30
0.0
 42
-0.1928988919450543
  0
VERTEX
  5
4A6
  8
DEFAULT
 62
     5
 10
-58.04094075594713
 20
128.97528894957
 30
0.0
 42
-0.2186957110499414
  0
VERTEX
  5
4A7
  8
DEFAULT
 62
     5
 10
-56.13006135590928
 20
129.7931898544677
 30
0.0
 42
-0.2248762650829731
  0
VERTEX
  5
4A8
  8
DEFAULT
 62
     5
 10
-54.08222149651832
 20
128.9424956160671
 30
0.0
 42
-0.1866850592647343
  0
VERTEX
  5
4A9
  8
DEFAULT
 62
     5
 10
-53.36462925714384
 20
126.3363997310109
 30
0.0
  0
VERTEX
  5
4AA
  8
DEFAULT
 62
     5
 10
-57.26586382504507
 20
126.3363997310109
 30
0.0
 42
0.1907233177561172
  0
VERTEX
  5
4AB
  8
DEFAULT
 62
     5
 10
-56.88816271914276
 20
125.2812300780029
 30
0.0
 42
0.2135192120775268
  0
VERTEX
  5
4AC
  8
DEFAULT
 62
     5
 10
-55.98808538792684
 20
124.9043009655788
 30
0.0
 42
0.1657236937101094
  0
VERTEX
  5
4AD
  8
DEFAULT
 62
     5
 10
-55.37195923914386
 20
125.0914153809275
 30
0.0
 42
0.1589948514629558
  0
SEQEND
  5
4AE
  8
DEFAULT
 62
     5
  0
POLYLINE
  5
4AF
  8
DEFAULT
 62
     5
 66
     1
 10
0.0
 20
0.0
 30
0.0
 70
     1
  0
VERTEX
  5
4B0
  8
DEFAULT
 62
     5
 10
-68.3275922201068
 20
129.6450417063195
 30
0.0
  0
VERTEX
  5
4B1
  8
DEFAULT
 62
     5
 10
-66.94487617072409
 20
129.6450417063195
 30
0.0
  0
VERTEX
  5
4B2
  8
DEFAULT
 62
     5
 10
-66.94487617072409
 20
128.8618627999393
 30
0.0
 42
-0.2373869490350115
  0
VERTEX
  5
4B3
  8
DEFAULT
 62
     5
 10
-65.1478079751411
 20
129.7931898544677
 30
0.0
 42
-0.1315120310734373
  0
VERTEX
  5
4B4
  8
DEFAULT
 62
     5
 10
-64.18754567067087
 20
129.561708608465
 30
0.0
 42
-0.1393853272245199
  0
VERTEX
  5
4B5
  8
DEFAULT
 62
     5
 10
-63.51972157893589
 20
128.8618627999393
 30
0.0
 42
-0.1018343532166165
  0
VERTEX
  5
4B6
  8
DEFAULT
 62
     5
 10
-62.70259191398445
 20
129.561708608465
 30
0.0
 42
-0.1239296679570986
  0
VERTEX
  5
4B7
  8
DEFAULT
 62
     5
 10
-61.76663478241683
 20
129.7931898544677
 30
0.0
 42
-0.1355305589142074
  0
VERTEX
  5
4B8
  8
DEFAULT
 62
     5
 10
-60.69487574686237
 20
129.5339307835914
 30
0.0
 42
-0.1623661969580505
  0
VERTEX
  5
4B9
  8
DEFAULT
 62
     5
 10
-60.03978295411286
 20
128.7731283850993
 30
0.0
 42
-0.0915442810314492
  0
VERTEX
  5
4BA
  8
DEFAULT
 62
     5
 10
-59.88314777566235
 20
127.5725108656699
 30
0.0
  0
VERTEX
  5
4BB
  8
DEFAULT
 62
     5
 10
-59.88314777566236
 20
123.8672639285418
 30
0.0
  0
VERTEX
  5
4BC
  8
DEFAULT
 62
     5
 10
-61.41401197319323
 20
123.8672639285418
 30
0.0
  0
VERTEX
  5
4BD
  8
DEFAULT
 62
     5
 10
-61.41401197319324
 20
127.1712769571091
 30
0.0
 42
0.1141470137910891
  0
VERTEX
  5
4BE
  8
DEFAULT
 62
     5
 10
-61.56987553493151
 20
128.281616074742
 30
0.0
 42
0.2721000606534461
  0
VERTEX
  5
4BF
  8
DEFAULT
 62
     5
 10
-62.21570892713453
 20
128.6080046692825
 30
0.0
 42
0.1575639071465958
  0
VERTEX
  5
4C0
  8
DEFAULT
 62
     5
 10
-62.81254578841025
 20
128.4120170385094
 30
0.0
 42
0.1657627374474066
  0
VERTEX
  5
4C1
  8
DEFAULT
 62
     5
 10
-63.21609530063957
 20
127.8379432470098
 30
0.0
 42
0.0723437487254976
  0
VERTEX
  5
4C2
  8
DEFAULT
 62
     5
 10
-63.33993789911915
 20
126.6434986612781
 30
0.0
  0
VERTEX
  5
4C3
  8
DEFAULT
 62
     5
 10
-63.33993789911915
 20
123.8672639285418
 30
0.0
  0
VERTEX
  5
4C4
  8
DEFAULT
 62
     5
 10
-64.87080209665001
 20
123.8672639285418
 30
0.0
  0
VERTEX
  5
4C5
  8
DEFAULT
 62
     5
 10
-64.87080209665
 20
127.0347023061121
 30
0.0
 42
0.0609892367975026
  0
VERTEX
  5
4C6
  8
DEFAULT
 62
     5
 10
-64.95066291929967
 20
128.1238227176913
 30
0.0
 42
0.1633931196984404
  0
VERTEX
  5
4C7
  8
DEFAULT
 62
     5
 10
-65.19873354784893
 20
128.4884059627201
 30
0.0
 42
0.1561218014296869
  0
VERTEX
  5
4C8
  8
DEFAULT
 62
     5
 10
-65.65475261974248
 20
128.6080046692825
 30
0.0
 42
0.1551837175468131
  0
VERTEX
  5
4C9
  8
DEFAULT
 62
     5
 10
-66.27936655235976
 20
128.4174183554948
 30
0.0
 42
0.1670025847935345
  0
VERTEX
  5
4CA
  8
DEFAULT
 62
     5
 10
-66.67674313089145
 20
127.8676501136639
 30
0.0
 42
0.0722698594962539
  0
VERTEX
  5
4CB
  8
DEFAULT
 62
     5
 10
-66.79672802257593
 20
126.6759065631909
 30
0.0
  0
VERTEX
  5
4CC
  8
DEFAULT
 62
     5
 10
-66.79672802257593
 20
123.8672639285418
 30
0.0
  0
VERTEX
  5
4CD
  8
DEFAULT
 62
     5
 10
-68.3275922201068
 20
123.8672639285418
 30
0.0
  0
SEQEND
  5
4CE
  8
DEFAULT
 62
     5
  0
POLYLINE
  5
4CF
  8
DEFAULT
 62
     5
 66
     1
 10
0.0
 20
0.0
 30
0.0
 70
     1
  0
VERTEX
  5
4D0
  8
DEFAULT
 62
     5
 10
-69.2164811089957
 20
129.6450417063195
 30
0.0
  0
VERTEX
  5
4D1
  8
DEFAULT
 62
     5
 10
-69.2164811089957
 20
128.4598565211344
 30
0.0
  0
VERTEX
  5
4D2
  8
DEFAULT
 62
     5
 10
-70.25351814603273
 20
128.4598565211344
 30
0.0
  0
VERTEX
  5
4D3
  8
DEFAULT
 62
     5
 10
-70.25351814603273
 20
126.0740545700518
 30
0.0
  0
VERTEX
  5
4D4
  8
DEFAULT
 62
     5
 10
-70.22419708773478
 20
125.2295325118169
 30
0.0
  0
VERTEX
  5
4D5
  8
DEFAULT
 62
     5
 10
-70.09186670542094
 20
125.0316158392633
 30
0.0
  0
VERTEX
  5
4D6
  8
DEFAULT
 62
     5
 10
-69.83993761654466
 20
124.9536836816282
 30
0.0
  0
VERTEX
  5
4D7
  8
DEFAULT
 62
     5
 10
-69.24117209025441
 20
125.0995177331717
 30
0.0
  0
VERTEX
  5
4D8
  8
DEFAULT
 62
     5
 10
-69.11771567689692
 20
123.9413383793818
 30
0.0
 42
-0.1009135694950941
  0
VERTEX
  5
4D9
  8
DEFAULT
 62
     5
 10
-70.30907304224783
 20
123.7191157803937
 30
0.0
 42
-0.1023112505794134
  0
VERTEX
  5
4DA
  8
DEFAULT
 62
     5
 10
-71.04402703441298
 20
123.8595481381857
 30
0.0
 42
-0.142732760251377
  0
VERTEX
  5
4DB
  8
DEFAULT
 62
     5
 10
-71.52435127920914
 20
124.222588526556
 30
0.0
 42
-0.1112474266807631
  0
VERTEX
  5
4DC
  8
DEFAULT
 62
     5
 10
-71.73577049069448
 20
124.8248259512852
 30
0.0
  0
VERTEX
  5
4DD
  8
DEFAULT
 62
     5
 10
-71.78438234356359
 20
125.9135605545083
 30
0.0
  0
VERTEX
  5
4DE
  8
DEFAULT
 62
     5
 10
-71.78438234356359
 20
128.4598565211344
 30
0.0
  0
VERTEX
  5
4DF
  8
DEFAULT
 62
     5
 10
-72.52512308430434
 20
128.4598565211344
 30
0.0
  0
VERTEX
  5
4E0
  8
DEFAULT
 62
     5
 10
-72.52512308430434
 20
129.6450417063195
 30
0.0
  0
VERTEX
  5
4E1
  8
DEFAULT
 62
     5
 10
-71.78438234356359
 20
129.6450417063195
 30
0.0
  0
VERTEX
  5
4E2
  8
DEFAULT
 62
     5
 10
-71.78438234356359
 20
130.731461459406
 30
0.0
  0
VERTEX
  5
4E3
  8
DEFAULT
 62
     5
 10
-70.25351814603273
 20
131.6203503482949
 30
0.0
  0
VERTEX
  5
4E4
  8
DEFAULT
 62
     5
 10
-70.25351814603273
 20
129.6450417063195
 30
0.0
  0
SEQEND
  5
4E5
  8
DEFAULT
 62
     5
  0
POLYLINE
  5
4E6
  8
DEFAULT
 62
     5
 66
     1
 10
0.0
 20
0.0
 30
0.0
 70
     1
  0
VERTEX
  5
4E7
  8
DEFAULT
 62
     5
 10
-74.64857987442778
 20
123.8672639285418
 30
0.0
  0
VERTEX
  5
4E8
  8
DEFAULT
 62
     5
 10
-76.17944407195866
 20
123.8672639285418
 30
0.0
  0
VERTEX
  5
4E9
  8
DEFAULT
 62
     5
 10
-76.17944407195866
 20
129.6450417063195
 30
0.0
  0
VERTEX
  5
4EA
  8
DEFAULT
 62
     5
 10
-74.74734530652655
 20
129.6450417063195
 30
0.0
  0
VERTEX
  5
4EB
  8
DEFAULT
 62
     5
 10
-74.74734530652654
 20
128.8294556515585
 30
0.0
 42
-0.0977550519460654
  0
VERTEX
  5
4EC
  8
DEFAULT
 62
     5
 10
-74.12003033865057
 20
129.6002886905434
 30
0.0
 42
-0.1561720185079793
  0
VERTEX
  5
4ED
  8
DEFAULT
 62
     5
 10
-73.48808567050133
 20
129.7931898544677
 30
0.0
 42
-0.1438170981369636
  0
VERTEX
  5
4EE
  8
DEFAULT
 62
     5
 10
-72.52512308430434
 20
129.5022948751568
 30
0.0
  0
VERTEX
  5
4EF
  8
DEFAULT
 62
     5
 10
-72.9942585100075
 20
128.1620177449456
 30
0.0
 42
0.1496770151888023
  0
VERTEX
  5
4F0
  8
DEFAULT
 62
     5
 10
-73.67635713415235
 20
128.410473805085
 30
0.0
 42
0.1810970994867616
  0
VERTEX
  5
4F1
  8
DEFAULT
 62
     5
 10
-74.19371822760256
 20
128.233390783761
 30
0.0
 42
0.1501348396488367
  0
VERTEX
  5
4F2
  8
DEFAULT
 62
     5
 10
-74.52705174931887
 20
127.5933445168995
 30
0.0
 42
0.0509111359642089
  0
VERTEX
  5
4F3
  8
DEFAULT
 62
     5
 10
-74.64857987442778
 20
125.6543011068661
 30
0.0
  0
SEQEND
  5
4F4
  8
DEFAULT
 62
     5
  0
POLYLINE
  5
4F5
  8
DEFAULT
 62
     5
 66
     1
 10
0.0
 20
0.0
 30
0.0
 70
     1
  0
VERTEX
  5
4F6
  8
DEFAULT
 62
     5
 10
-79.29055518306976
 20
126.6326960273072
 30
0.0
  0
VERTEX
  5
4F7
  8
DEFAULT
 62
     5
 10
-80.1817585453293
 20
126.3988999311678
 30
0.0
 42
0.0811165779561127
  0
VERTEX
  5
4F8
  8
DEFAULT
 62
     5
 10
-80.97882617576333
 20
126.1326966866477
 30
0.0
 42
0.2517191883486315
  0
VERTEX
  5
4F9
  8
DEFAULT
 62
     5
 10
-81.2658638250451
 20
125.5941165103777
 30
0.0
 42
0.4298150945544897
  0
VERTEX
  5
4FA
  8
DEFAULT
 62
     5
 10
-80.4525918668887
 20
124.80553553348
 30
0.0
 42
0.1670482644846032
  0
VERTEX
  5
4FB
  8
DEFAULT
 62
     5
 10
-79.69719040861602
 20
125.0771408485176
 30
0.0
 42
0.1651612454991471
  0
VERTEX
  5
4FC
  8
DEFAULT
 62
     5
 10
-79.34765331270928
 20
125.5833138764068
 30
0.0
  0
VERTEX
  5
4FD
  8
DEFAULT
 62
     5
 10
-79.29055518306976
 20
126.3279127007086
 30
0.0
  0
SEQEND
  5
4FE
  8
DEFAULT
 62
     5
  0
POLYLINE
  5
4FF
  8
DEFAULT
 62
     5
 66
     1
 10
0.0
 20
0.0
 30
0.0
 70
     1
  0
VERTEX
  5
500
  8
DEFAULT
 62
     5
 10
-81.2164811089957
 20
127.8672639285418
 30
0.0
  0
VERTEX
  5
501
  8
DEFAULT
 62
     5
 10
-82.59919715837843
 20
128.0647947927393
 30
0.0
 42
-0.1714833175990157
  0
VERTEX
  5
502
  8
DEFAULT
 62
     5
 10
-81.80945913317842
 20
129.3695790612529
 30
0.0
 42
-0.1608829132837461
  0
VERTEX
  5
503
  8
DEFAULT
 62
     5
 10
-80.14472131990928
 20
129.7931898544677
 30
0.0
 42
-0.1088364278880627
  0
VERTEX
  5
504
  8
DEFAULT
 62
     5
 10
-78.65089434779843
 20
129.5505201661379
 30
0.0
 42
-0.1580303644335662
  0
VERTEX
  5
505
  8
DEFAULT
 62
     5
 10
-77.95992213146317
 20
128.9340078322329
 30
0.0
 42
-0.1088017057953346
  0
VERTEX
  5
506
  8
DEFAULT
 62
     5
 10
-77.7596909855389
 20
127.5617089852309
 30
0.0
  0
VERTEX
  5
507
  8
DEFAULT
 62
     5
 10
-77.75969098553891
 20
125.7715853400578
 30
0.0
 42
0.0514080219695402
  0
VERTEX
  5
508
  8
DEFAULT
 62
     5
 10
-77.67635751091834
 20
124.6446560863464
 30
0.0
 42
0.0692287864232258
  0
VERTEX
  5
509
  8
DEFAULT
 62
     5
 10
-77.36462925714383
 20
123.8672639285418
 30
0.0
  0
VERTEX
  5
50A
  8
DEFAULT
 62
     5
 10
-78.8954934546747
 20
123.8672639285418
 30
0.0
  0
VERTEX
  5
50B
  8
DEFAULT
 62
     5
 10
-79.04209836939845
 20
124.314794839835
 30
0.0
  0
VERTEX
  5
50C
  8
DEFAULT
 62
     5
 10
-79.09611003218913
 20
124.4930360397593
 30
0.0
 42
-0.0933244186738355
  0
VERTEX
  5
50D
  8
DEFAULT
 62
     5
 10
-79.93175887499953
 20
123.9127889377961
 30
0.0
 42
-0.1040133466925776
  0
VERTEX
  5
50E
  8
DEFAULT
 62
     5
 10
-80.88160397708899
 20
123.7191157803936
 30
0.0
 42
-0.1965430357596696
  0
VERTEX
  5
50F
  8
DEFAULT
 62
     5
 10
-82.28399625263302
 20
124.2032981087508
 30
0.0
 42
-0.2154369487651235
  0
VERTEX
  5
510
  8
DEFAULT
 62
     5
 10
-82.79672802257593
 20
125.4274495611366
 30
0.0
 42
-0.1373780248024433
  0
VERTEX
  5
511
  8
DEFAULT
 62
     5
 10
-82.56833286665605
 20
126.3009061157813
 30
0.0
 42
-0.147378321397116
  0
VERTEX
  5
512
  8
DEFAULT
 62
     5
 10
-81.92828622302862
 20
126.8884831997445
 30
0.0
 42
-0.0634404934847092
  0
VERTEX
  5
513
  8
DEFAULT
 62
     5
 10
-80.74117199606292
 20
127.244579037705
 30
0.0
 42
0.0472009877728984
  0
VERTEX
  5
514
  8
DEFAULT
 62
     5
 10
-79.29055518306976
 20
127.6203503482949
 30
0.0
  0
VERTEX
  5
515
  8
DEFAULT
 62
     5
 10
-79.29055518306974
 20
127.7754430468529
 30
0.0
 42
0.2070921599656728
  0
VERTEX
  5
516
  8
DEFAULT
 62
     5
 10
-79.49541602926729
 20
128.4166467387826
 30
0.0
 42
0.1777887432708119
  0
VERTEX
  5
517
  8
DEFAULT
 62
     5
 10
-80.26895010351092
 20
128.6080046692825
 30
0.0
 42
0.1651091138038783
  0
VERTEX
  5
518
  8
DEFAULT
 62
     5
 10
-80.86810106139131
 20
128.443652946944
 30
0.0
 42
0.1491587679877673
  0
SEQEND
  5
519
  8
DEFAULT
 62
     5
  0
POLYLINE
  5
51A
  8
DEFAULT
 62
     5
 66
     1
 10
0.0
 20
0.0
 30
0.0
 70
     1
  0
VERTEX
  5
51B
  8
DEFAULT
 62
     5
 10
-87.58685147936606
 20
126.853375392871
 30
0.0
 42
0.1662127852120761
  0
VERTEX
  5
51C
  8
DEFAULT
 62
     5
 10
-87.2079933251614
 20
125.3803813184578
 30
0.0
 42
0.2404461653497609
  0
VERTEX
  5
51D
  8
DEFAULT
 62
     5
 10
-86.28515367770133
 20
124.9043009655788
 30
0.0
 42
0.2413239634426963
  0
VERTEX
  5
51E
  8
DEFAULT
 62
     5
 10
-85.41516902149556
 20
125.3414154280233
 30
0.0
 42
0.162744937492156
  0
VERTEX
  5
51F
  8
DEFAULT
 62
     5
 10
-85.06833296084756
 20
126.7754436120018
 30
0.0
 42
0.166197673138196
  0
VERTEX
  5
520
  8
DEFAULT
 62
     5
 10
-85.42597165546648
 20
128.1570018595503
 30
0.0
 42
0.2412377667960292
  0
VERTEX
  5
521
  8
DEFAULT
 62
     5
 10
-86.31138789238446
 20
128.6080046692825
 30
0.0
 42
0.2367422129321933
  0
VERTEX
  5
522
  8
DEFAULT
 62
     5
 10
-87.2241968993518
 20
128.1651034582625
 30
0.0
 42
0.1723447809989047
  0
SEQEND
  5
523
  8
DEFAULT
 62
     5
  0
POLYLINE
  5
524
  8
DEFAULT
 62
     5
 66
     1
 10
0.0
 20
0.0
 30
0.0
 70
     1
  0
VERTEX
  5
525
  8
DEFAULT
 62
     5
 10
-89.11771567689692
 20
129.6450417063195
 30
0.0
  0
VERTEX
  5
526
  8
DEFAULT
 62
     5
 10
-87.68561691146482
 20
129.6450417063195
 30
0.0
  0
VERTEX
  5
527
  8
DEFAULT
 62
     5
 10
-87.68561691146482
 20
128.8024498201632
 30
0.0
 42
-0.1189653659007278
  0
VERTEX
  5
528
  8
DEFAULT
 62
     5
 10
-86.94603321902642
 20
129.51386912584
 30
0.0
 42
-0.1382105598910508
  0
VERTEX
  5
529
  8
DEFAULT
 62
     5
 10
-85.91169646371614
 20
129.7931898544677
 30
0.0
 42
-0.2273648758850346
  0
VERTEX
  5
52A
  8
DEFAULT
 62
     5
 10
-84.22882678800804
 20
128.9995944992386
 30
0.0
 42
-0.1838682188936083
  0
VERTEX
  5
52B
  8
DEFAULT
 62
     5
 10
-83.53746876331668
 20
126.7893319592896
 30
0.0
 42
-0.182365664530008
  0
VERTEX
  5
52C
  8
DEFAULT
 62
     5
 10
-84.23461353658364
 20
124.5262148048523
 30
0.0
 42
-0.2285594541574996
  0
VERTEX
  5
52D
  8
DEFAULT
 62
     5
 10
-85.9240423311115
 20
123.7191157803936
 30
0.0
 42
-0.1163198006807629
  0
VERTEX
  5
52E
  8
DEFAULT
 62
     5
 10
-86.77975245490737
 20
123.9081592375228
 30
0.0
 42
-0.0904152380777432
  0
VERTEX
  5
52F
  8
DEFAULT
 62
     5
 10
-87.58685147936605
 20
124.5563078566285
 30
0.0
  0
VERTEX
  5
530
  8
DEFAULT
 62
     5
 10
-87.58685147936606
 20
121.6450417063195
 30
0.0
  0
VERTEX
  5
531
  8
DEFAULT
 62
     5
 10
-89.11771567689692
 20
121.6450417063195
 30
0.0
  0
SEQEND
  5
532
  8
DEFAULT
 62
     5
  0
POLYLINE
  5
533
  8
DEFAULT
 62
     5
 66
     1
 10
0.0
 20
0.0
 30
0.0
 70
     1
  0
VERTEX
  5
534
  8
DEFAULT
 62
     5
 10
-99.09302431887224
 20
129.6450417063195
 30
0.0
  0
VERTEX
  5
535
  8
DEFAULT
 62
     5
 10
-97.71030826948952
 20
129.6450417063195
 30
0.0
  0
VERTEX
  5
536
  8
DEFAULT
 62
     5
 10
-97.71030826948953
 20
128.8618627999393
 30
0.0
 42
-0.2373869490350093
  0
VERTEX
  5
537
  8
DEFAULT
 62
     5
 10
-95.91324007390654
 20
129.7931898544677
 30
0.0
 42
-0.1315120310734454
  0
VERTEX
  5
538
  8
DEFAULT
 62
     5
 10
-94.9529777694363
 20
129.561708608465
 30
0.0
 42
-0.1393853272245543
  0
VERTEX
  5
539
  8
DEFAULT
 62
     5
 10
-94.28515367770132
 20
128.8618627999393
 30
0.0
 42
-0.1018343532166152
  0
VERTEX
  5
53A
  8
DEFAULT
 62
     5
 10
-93.46802401274988
 20
129.561708608465
 30
0.0
 42
-0.1239296679571019
  0
VERTEX
  5
53B
  8
DEFAULT
 62
     5
 10
-92.53206688118226
 20
129.7931898544677
 30
0.0
 42
-0.1355305589141874
  0
VERTEX
  5
53C
  8
DEFAULT
 62
     5
 10
-91.46030784562781
 20
129.5339307835914
 30
0.0
 42
-0.1623661969580428
  0
VERTEX
  5
53D
  8
DEFAULT
 62
     5
 10
-90.80521505287827
 20
128.7731283850993
 30
0.0
 42
-0.0915442810314468
  0
VERTEX
  5
53E
  8
DEFAULT
 62
     5
 10
-90.6485798744278
 20
127.5725108656699
 30
0.0
  0
VERTEX
  5
53F
  8
DEFAULT
 62
     5
 10
-90.6485798744278
 20
123.8672639285418
 30
0.0
  0
VERTEX
  5
540
  8
DEFAULT
 62
     5
 10
-92.17944407195866
 20
123.8672639285418
 30
0.0
  0
VERTEX
  5
541
  8
DEFAULT
 62
     5
 10
-92.17944407195866
 20
127.1712769571091
 30
0.0
 42
0.1141470137910766
  0
VERTEX
  5
542
  8
DEFAULT
 62
     5
 10
-92.33530763369696
 20
128.281616074742
 30
0.0
 42
0.2721000606534972
  0
VERTEX
  5
543
  8
DEFAULT
 62
     5
 10
-92.98114102589996
 20
128.6080046692825
 30
0.0
 42
0.1575639071465946
  0
VERTEX
  5
544
  8
DEFAULT
 62
     5
 10
-93.57797788717566
 20
128.4120170385094
 30
0.0
 42
0.1657627374473638
  0
VERTEX
  5
545
  8
DEFAULT
 62
     5
 10
-93.98152739940502
 20
127.8379432470098
 30
0.0
 42
0.0723437487254799
  0
VERTEX
  5
546
  8
DEFAULT
 62
     5
 10
-94.10536999788458
 20
126.6434986612781
 30
0.0
  0
VERTEX
  5
547
  8
DEFAULT
 62
     5
 10
-94.10536999788458
 20
123.8672639285418
 30
0.0
  0
VERTEX
  5
548
  8
DEFAULT
 62
     5
 10
-95.63623419541544
 20
123.8672639285418
 30
0.0
  0
VERTEX
  5
549
  8
DEFAULT
 62
     5
 10
-95.63623419541544
 20
127.0347023061121
 30
0.0
 42
0.0609892367975096
  0
VERTEX
  5
54A
  8
DEFAULT
 62
     5
 10
-95.71609501806508
 20
128.1238227176913
 30
0.0
 42
0.1633931196984783
  0
VERTEX
  5
54B
  8
DEFAULT
 62
     5
 10
-95.96416564661436
 20
128.4884059627201
 30
0.0
 42
0.1561218014296854
  0
VERTEX
  5
54C
  8
DEFAULT
 62
     5
 10
-96.4201847185079
 20
128.6080046692825
 30
0.0
 42
0.1551837175467965
  0
VERTEX
  5
54D
  8
DEFAULT
 62
     5
 10
-97.04479865112518
 20
128.4174183554948
 30
0.0
 42
0.1670025847935573
  0
VERTEX
  5
54E
  8
DEFAULT
 62
     5
 10
-97.44217522965688
 20
127.8676501136638
 30
0.0
 42
0.0722698594962469
  0
VERTEX
  5
54F
  8
DEFAULT
 62
     5
 10
-97.56216012134138
 20
126.6759065631909
 30
0.0
  0
VERTEX
  5
550
  8
DEFAULT
 62
     5
 10
-97.56216012134138
 20
123.8672639285418
 30
0.0
  0
VERTEX
  5
551
  8
DEFAULT
 62
     5
 10
-99.09302431887224
 20
123.8672639285418
 30
0.0
  0
SEQEND
  5
552
  8
DEFAULT
 62
     5
  0
POLYLINE
  5
553
  8
DEFAULT
 62
     5
 66
     1
 10
0.0
 20
0.0
 30
0.0
 70
     1
  0
VERTEX
  5
554
  8
DEFAULT
 62
     5
 10
-104.5251230843043
 20
126.7561531941966
 30
0.0
 42
0.1807696907208059
  0
VERTEX
  5
555
  8
DEFAULT
 62
     5
 10
-104.125431655636
 20
125.4181901605901
 30
0.0
 42
0.477703639763803
  0
VERTEX
  5
556
  8
DEFAULT
 62
     5
 10
-102.1566813789485
 20
125.4181901605901
 30
0.0
 42
0.1794408075869772
  0
VERTEX
  5
557
  8
DEFAULT
 62
     5
 10
-101.7596909855389
 20
126.7669558281676
 30
0.0
 42
0.1800932450793843
  0
VERTEX
  5
558
  8
DEFAULT
 62
     5
 10
-102.1566813789485
 20
128.0941158510373
 30
0.0
 42
0.4793729384845993
  0
VERTEX
  5
559
  8
DEFAULT
 62
     5
 10
-104.125431655636
 20
128.0941158510373
 30
0.0
 42
0.1807697890868304
  0
SEQEND
  5
55A
  8
DEFAULT
 62
     5
  0
POLYLINE
  5
55B
  8
DEFAULT
 62
     5
 66
     1
 10
0.0
 20
0.0
 30
0.0
 70
     1
  0
VERTEX
  5
55C
  8
DEFAULT
 62
     5
 10
-106.0559872818352
 20
126.8379430586268
 30
0.0
 42
-0.1222574291832702
  0
VERTEX
  5
55D
  8
DEFAULT
 62
     5
 10
-105.6829162529721
 20
128.3209681502987
 30
0.0
 42
-0.1509199207836337
  0
VERTEX
  5
55E
  8
DEFAULT
 62
     5
 10
-104.6258171814177
 20
129.4154895020974
 30
0.0
 42
-0.1287246067144092
  0
VERTEX
  5
55F
  8
DEFAULT
 62
     5
 10
-103.0984248823258
 20
129.7931898544677
 30
0.0
 42
-0.2109274079128405
  0
VERTEX
  5
560
  8
DEFAULT
 62
     5
 10
-100.9626229783389
 20
128.9367084907256
 30
0.0
 42
-0.2026212639801764
  0
VERTEX
  5
561
  8
DEFAULT
 62
     5
 10
-100.1300613559093
 20
126.772357145153
 30
0.0
 42
-0.202229597332322
  0
VERTEX
  5
562
  8
DEFAULT
 62
     5
 10
-100.9707245770511
 20
124.5863997781067
 30
0.0
 42
-0.211550609660105
  0
VERTEX
  5
563
  8
DEFAULT
 62
     5
 10
-103.0876230018868
 20
123.7191157803936
 30
0.0
 42
-0.1188796278362326
  0
VERTEX
  5
564
  8
DEFAULT
 62
     5
 10
-104.5934100330368
 20
124.0802271269835
 30
0.0
 42
-0.1582355798320342
  0
VERTEX
  5
565
  8
DEFAULT
 62
     5
 10
-105.6829162529721
 20
125.1392552403184
 30
0.0
 42
-0.12390532671403
  0
SEQEND
  5
566
  8
DEFAULT
 62
     5
  0
POLYLINE
  5
567
  8
DEFAULT
 62
     5
 66
     1
 10
0.0
 20
0.0
 30
0.0
 70
     1
  0
VERTEX
  5
568
  8
DEFAULT
 62
     5
 10
-106.8954934546747
 20
127.9660293606405
 30
0.0
  0
VERTEX
  5
569
  8
DEFAULT
 62
     5
 10
-108.4263576522056
 20
127.7191157803936
 30
0.0
 42
0.1809968098175267
  0
VERTEX
  5
56A
  8
DEFAULT
 62
     5
 10
-108.7681782042242
 20
128.3846253987579
 30
0.0
 42
0.1804760167670099
  0
VERTEX
  5
56B
  8
DEFAULT
 62
     5
 10
-109.4595366056816
 20
128.6080046692825
 30
0.0
 42
0.2329674834671477
  0
VERTEX
  5
56C
  8
DEFAULT
 62
     5
 10
-110.361542601912
 20
128.2067703839558
 30
0.0
 42
0.1695179555120614
  0
VERTEX
  5
56D
  8
DEFAULT
 62
     5
 10
-110.6979625904772
 20
126.8641780268419
 30
0.0
 42
0.161096681717487
  0
VERTEX
  5
56E
  8
DEFAULT
 62
     5
 10
-110.3534406264338
 20
125.3853968270872
 30
0.0
 42
0.2405540491094054
  0
VERTEX
  5
56F
  8
DEFAULT
 62
     5
 10
-109.4286719371932
 20
124.9536836816282
 30
0.0
 42
0.1883458441869817
  0
VERTEX
  5
570
  8
DEFAULT
 62
     5
 10
-108.7184096798187
 20
125.1982827885044
 30
0.0
 42
0.1622604489947729
  0
VERTEX
  5
571
  8
DEFAULT
 62
     5
 10
-108.3275922201068
 20
126.0401034347146
 30
0.0
  0
VERTEX
  5
572
  8
DEFAULT
 62
     5
 10
-106.7967280225759
 20
125.8425725705171
 30
0.0
 42
-0.1724509721435945
  0
VERTEX
  5
573
  8
DEFAULT
 62
     5
 10
-107.6910178516843
 20
124.2553814832929
 30
0.0
 42
-0.1746967243539319
  0
VERTEX
  5
574
  8
DEFAULT
 62
     5
 10
-109.4641655524229
 20
123.7191157803936
 30
0.0
 42
-0.2163976905724335
  0
VERTEX
  5
575
  8
DEFAULT
 62
     5
 10
-111.4780550300086
 20
124.5235141463596
 30
0.0
 42
-0.1943870566320984
  0
VERTEX
  5
576
  8
DEFAULT
 62
     5
 10
-112.228826788008
 20
126.7507518772112
 30
0.0
 42
-0.1945054615972467
  0
VERTEX
  5
577
  8
DEFAULT
 62
     5
 10
-111.4784408383647
 20
128.9914925237604
 30
0.0
 42
-0.2157801631579859
  0
VERTEX
  5
578
  8
DEFAULT
 62
     5
 10
-109.4487339717107
 20
129.7931898544677
 30
0.0
 42
-0.1599423076957885
  0
VERTEX
  5
579
  8
DEFAULT
 62
     5
 10
-107.7836103500854
 20
129.3418012363794
 30
0.0
 42
-0.1682635697126533
  0
SEQEND
  5
57A
  8
DEFAULT
 62
     5
  0
POLYLINE
  5
57B
  8
DEFAULT
 62
     5
 66
     1
 10
0.0
 20
0.0
 30
0.0
 70
     1
  0
VERTEX
  5
57C
  8
DEFAULT
 62
     5
 10
-121.4633946892426
 20
125.9559987201478
 30
0.0
  0
VERTEX
  5
57D
  8
DEFAULT
 62
     5
 10
-119.9819132077611
 20
126.1388688668134
 30
0.0
 42
0.1650819786197892
  0
VERTEX
  5
57E
  8
DEFAULT
 62
     5
 10
-119.6231167113079
 20
125.2584677617588
 30
0.0
 42
0.4630773411364375
  0
VERTEX
  5
57F
  8
DEFAULT
 62
     5
 10
-118.1636259293584
 20
125.318267303423
 30
0.0
 42
0.1790940725875003
  0
VERTEX
  5
580
  8
DEFAULT
 62
     5
 10
-117.8584564176377
 20
126.3009061157813
 30
0.0
 42
0.1786245012159382
  0
VERTEX
  5
581
  8
DEFAULT
 62
     5
 10
-118.1443358883191
 20
127.2287608951048
 30
0.0
 42
0.2334851323206726
  0
VERTEX
  5
582
  8
DEFAULT
 62
     5
 10
-118.8414810383521
 20
127.5709676322455
 30
0.0
  0
VERTEX
  5
583
  8
DEFAULT
 62
     5
 10
-119.4880860472673
 20
127.4575422361467
 30
0.0
  0
VERTEX
  5
584
  8
DEFAULT
 62
     5
 10
-119.3260487982994
 20
128.7561528174307
 30
0.0
 42
0.1943853181742621
  0
VERTEX
  5
585
  8
DEFAULT
 62
     5
 10
-118.4182556767274
 20
129.0208135820584
 30
0.0
 42
0.2225799870409288
  0
VERTEX
  5
586
  8
DEFAULT
 62
     5
 10
-118.1053699978846
 20
129.7669556397846
 30
0.0
 42
0.2038146599003866
  0
VERTEX
  5
587
  8
DEFAULT
 62
     5
 10
-118.3376228605995
 20
130.3973566977434
 30
0.0
 42
0.20799555853597
  0
VERTEX
  5
588
  8
DEFAULT
 62
     5
 10
-118.9556780511631
 20
130.6326960273072
 30
0.0
 42
0.204569412591987
  0
VERTEX
  5
589
  8
DEFAULT
 62
     5
 10
-119.6053699036931
 20
130.3680356394455
 30
0.0
 42
0.1737486280438914
  0
VERTEX
  5
58A
  8
DEFAULT
 62
     5
 10
-119.9325304917117
 20
129.5956589902702
 30
0.0
  0
VERTEX
  5
58B
  8
DEFAULT
 62
     5
 10
-121.3152465410944
 20
129.8286842232293
 30
0.0
 42
-0.0995259801341715
  0
VERTEX
  5
58C
  8
DEFAULT
 62
     5
 10
-120.8796749353085
 20
130.9594708069698
 30
0.0
 42
-0.1361252198309243
  0
VERTEX
  5
58D
  8
DEFAULT
 62
     5
 10
-120.0671749706303
 20
131.6249800485681
 30
0.0
 42
-0.1102338458577739
  0
VERTEX
  5
58E
  8
DEFAULT
 62
     5
 10
-118.8993507847038
 20
131.8672639285418
 30
0.0
 42
-0.2157814625878476
  0
VERTEX
  5
58F
  8
DEFAULT
 62
     5
 10
-117.1246594737749
 20
131.1550730061527
 30
0.0
 42
-0.198260836066753
  0
VERTEX
  5
590
  8
DEFAULT
 62
     5
 10
-116.5745058003537
 20
129.8379436237758
 30
0.0
 42
-0.2943566957663452
  0
VERTEX
  5
591
  8
DEFAULT
 62
     5
 10
-117.7195669165041
 20
128.1751344755212
 30
0.0
 42
-0.178973577386952
  0
VERTEX
  5
592
  8
DEFAULT
 62
     5
 10
-116.6350765819641
 20
127.5119400840595
 30
0.0
 42
-0.1730634533809977
  0
VERTEX
  5
593
  8
DEFAULT
 62
     5
 10
-116.228826788008
 20
126.2677273506883
 30
0.0
 42
-0.2095155100759154
  0
VERTEX
  5
594
  8
DEFAULT
 62
     5
 10
-116.9865427196514
 20
124.4644862214076
 30
0.0
 42
-0.2045493014711449
  0
VERTEX
  5
595
  8
DEFAULT
 62
     5
 10
-118.8731165700207
 20
123.7191157803936
 30
0.0
 42
-0.1878216052731436
  0
VERTEX
  5
596
  8
DEFAULT
 62
     5
 10
-120.6466504558813
 20
124.3379429644353
 30
0.0
 42
-0.1930129161498501
  0
SEQEND
  5
597
  8
DEFAULT
 62
     5
  0
LINE
  5
599
  8
BACK
  6
CONTINUOUS
 62
     5
 10
-118.3233875019174
 20
-13.57662653594608
 30
0.0
 11
-42.32338750191744
 21
-13.57662653594608
 31
0.0
  0
LINE
  5
59A
  8
BACK
  6
CONTINUOUS
 62
     5
 10
-36.32338750191744
 20
-13.57662653594608
 30
0.0
 11
39.67661249808256
 21
-13.57662653594608
 31
0.0
  0
LINE
  5
59B
  8
BACK
  6
CONTINUOUS
 62
     5
 10
45.67661249808256
 20
-13.57662653594608
 30
0.0
 11
121.6766124980826
 21
-13.57662653594608
 31
0.0
  0
LINE
  5
59C
  8
BACK
  6
CONTINUOUS
 62
     5
 10
127.6766124980826
 20
14.92337346405392
 30
0.0
 11
127.6766124980826
 21
-13.57662653594608
 31
0.0
  0
LINE
  5
59D
  8
BACK
  6
CONTINUOUS
 62
     5
 10
121.6766124980826
 20
14.92337346405392
 30
0.0
 11
127.6766124980826
 21
14.92337346405392
 31
0.0
  0
LINE
  5
59E
  8
BACK
  6
CONTINUOUS
 62
     5
 10
121.6766124980826
 20
-13.57662653594608
 30
0.0
 11
121.6766124980826
 21
14.92337346405392
 31
0.0
  0
LINE
  5
59F
  8
BACK
  6
CONTINUOUS
 62
     5
 10
45.67661249808256
 20
14.92337346405392
 30
0.0
 11
45.67661249808256
 21
-13.57662653594608
 31
0.0
  0
LINE
  5
5A0
  8
BACK
  6
CONTINUOUS
 62
     5
 10
39.67661249808256
 20
14.92337346405392
 30
0.0
 11
45.67661249808256
 21
14.92337346405392
 31
0.0
  0
LINE
  5
5A1
  8
BACK
  6
CONTINUOUS
 62
     5
 10
39.67661249808256
 20
-13.57662653594608
 30
0.0
 11
39.67661249808256
 21
14.92337346405392
 31
0.0
  0
LINE
  5
5A2
  8
BACK
  6
CONTINUOUS
 62
     5
 10
-36.32338750191744
 20
14.92337346405392
 30
0.0
 11
-36.32338750191744
 21
-13.57662653594608
 31
0.0
  0
LINE
  5
5A3
  8
BACK
  6
CONTINUOUS
 62
     5
 10
-42.32338750191744
 20
14.92337346405392
 30
0.0
 11
-36.32338750191744
 21
14.92337346405392
 31
0.0
  0
LINE
  5
5A4
  8
BACK
  6
CONTINUOUS
 62
     5
 10
-42.32338750191744
 20
-13.57662653594608
 30
0.0
 11
-42.32338750191744
 21
14.92337346405392
 31
0.0
  0
LINE
  5
5A5
  8
BACK
  6
CONTINUOUS
 62
     5
 10
-118.3233875019174
 20
14.92337346405392
 30
0.0
 11
-118.3233875019174
 21
-13.57662653594608
 31
0.0
  0
LINE
  5
5A6
  8
BACK
  6
CONTINUOUS
 62
     5
 10
-124.3233875019174
 20
14.92337346405392
 30
0.0
 11
-118.3233875019174
 21
14.92337346405392
 31
0.0
  0
LINE
  5
5A7
  8
BACK
  6
CONTINUOUS
 62
     5
 10
-124.3233875019174
 20
-13.57662653594608
 30
0.0
 11
-124.3233875019174
 21
14.92337346405392
 31
0.0
  0
LINE
  5
5A8
  8
BACK
  6
CONTINUOUS
 62
     5
 10
-130.3233875019174
 20
43.9233734640539
 30
0.0
 11
-130.3233875019174
 21
-7.576626535946076
 31
0.0
  0
ARC
  5
5A9
  8
BACK
  6
CONTINUOUS
 62
     5
 10
-124.3233875019174
 20
43.9233734640539
 30
0.0
 40
5.999999999999998
 50
90.0
 51
180.0
  0
LINE
  5
5AA
  8
BACK
  6
CONTINUOUS
 62
     5
 10
133.6766124980826
 20
-7.576626535946076
 30
0.0
 11
133.6766124980826
 21
43.9233734640539
 31
0.0
  0
ARC
  5
5AB
  8
BACK
  6
CONTINUOUS
 62
     5
 10
127.6766124980826
 20
-7.576626535946076
 30
0.0
 40
5.999999999999998
 50
270.0
 51
0.0
  0
LINE
  5
5AC
  8
BACK
  6
CONTINUOUS
 62
     5
 10
127.6766124980826
 20
49.9233734640539
 30
0.0
 11
-124.3233875019174
 21
49.9233734640539
 31
0.0
  0
ARC
  5
5AD
  8
BACK
  6
CONTINUOUS
 62
     5
 10
127.6766124980826
 20
43.9233734640539
 30
0.0
 40
6.000000000000005
 50
0.0
 51
90.0
  0
ARC
  5
5AE
  8
BACK
  6
CONTINUOUS
 62
     5
 10
-124.3233875019174
 20
-7.576626535946076
 30
0.0
 40
6.000000000000005
 50
180.0
 51
270.0
  0
LINE
  5
5B0
  8
FRONT
  6
CONTINUOUS
 62
     5
 10
-120.2365944816174
 20
70.34744655815393
 30
0.0
 11
-44.23659448161743
 21
70.34744655815393
 31
0.0
  0
LINE
  5
5B1
  8
FRONT
  6
CONTINUOUS
 62
     5
 10
-38.23659448161743
 20
70.34744655815393
 30
0.0
 11
37.76340551838254
 21
70.34744655815393
 31
0.0
  0
LINE
  5
5B2
  8
FRONT
  6
CONTINUOUS
 62
     5
 10
43.76340551838254
 20
70.34744655815393
 30
0.0
 11
119.7634055183825
 21
70.34744655815393
 31
0.0
  0
LINE
  5
5B3
  8
FRONT
  6
CONTINUOUS
 62
     5
 10
125.7634055183825
 20
90.84744655815393
 30
0.0
 11
125.7634055183825
 21
70.34744655815393
 31
0.0
  0
LINE
  5
5B4
  8
FRONT
  6
CONTINUOUS
 62
     5
 10
119.7634055183825
 20
90.84744655815393
 30
0.0
 11
125.7634055183825
 21
90.84744655815393
 31
0.0
  0
LINE
  5
5B5
  8
FRONT
  6
CONTINUOUS
 62
     5
 10
119.7634055183825
 20
70.34744655815393
 30
0.0
 11
119.7634055183825
 21
90.84744655815393
 31
0.0
  0
LINE
  5
5B6
  8
FRONT
  6
CONTINUOUS
 62
     5
 10
43.76340551838254
 20
90.84744655815393
 30
0.0
 11
43.76340551838254
 21
70.34744655815393
 31
0.0
  0
LINE
  5
5B7
  8
FRONT
  6
CONTINUOUS
 62
     5
 10
37.76340551838254
 20
90.84744655815393
 30
0.0
 11
43.76340551838254
 21
90.84744655815393
 31
0.0
  0
LINE
  5
5B8
  8
FRONT
  6
CONTINUOUS
 62
     5
 10
37.76340551838254
 20
70.34744655815393
 30
0.0
 11
37.76340551838254
 21
90.84744655815393
 31
0.0
  0
LINE
  5
5B9
  8
FRONT
  6
CONTINUOUS
 62
     5
 10
-38.23659448161743
 20
90.84744655815393
 30
0.0
 11
-38.23659448161743
 21
70.34744655815393
 31
0.0
  0
LINE
  5
5BA
  8
FRONT
  6
CONTINUOUS
 62
     5
 10
-44.23659448161743
 20
90.84744655815393
 30
0.0
 11
-38.23659448161743
 21
90.84744655815393
 31
0.0
  0
LINE
  5
5BB
  8
FRONT
  6
CONTINUOUS
 62
     5
 10
-44.23659448161743
 20
70.34744655815393
 30
0.0
 11
-44.23659448161743
 21
90.84744655815393
 31
0.0
  0
LINE
  5
5BC
  8
FRONT
  6
CONTINUOUS
 62
     5
 10
-120.2365944816174
 20
90.84744655815393
 30
0.0
 11
-120.2365944816174
 21
70.34744655815393
 31
0.0
  0
LINE
  5
5BD
  8
FRONT
  6
CONTINUOUS
 62
     5
 10
-126.2365944816174
 20
90.84744655815393
 30
0.0
 11
-120.2365944816174
 21
90.84744655815393
 31
0.0
  0
LINE
  5
5BE
  8
FRONT
  6
CONTINUOUS
 62
     5
 10
-126.2365944816174
 20
70.34744655815393
 30
0.0
 11
-126.2365944816174
 21
90.84744655815393
 31
0.0
  0
LINE
  5
5BF
  8
FRONT
  6
CONTINUOUS
 62
     5
 10
125.7634055183825
 20
108.3474465581539
 30
0.0
 11
-126.2365944816174
 21
108.3474465581539
 31
0.0
  0
ARC
  5
5C0
  8
FRONT
  6
CONTINUOUS
 62
     5
 10
125.7634055183825
 20
102.3474465581539
 30
0.0
 40
6.000000000000005
 50
0.0
 51
90.0
  0
ARC
  5
5C1
  8
FRONT
  6
CONTINUOUS
 62
     5
 10
-126.2365944816174
 20
76.34744655815393
 30
0.0
 40
6.000000000000005
 50
180.0
 51
270.0
  0
LINE
  5
5C2
  8
FRONT
  6
CONTINUOUS
 62
     5
 10
131.7634055183825
 20
76.34744655815393
 30
0.0
 11
131.7634055183825
 21
102.3474465581539
 31
0.0
  0
ARC
  5
5C3
  8
FRONT
  6
CONTINUOUS
 62
     5
 10
125.7634055183825
 20
76.34744655815393
 30
0.0
 40
5.999999999999998
 50
270.0
 51
0.0
  0
LINE
  5
5C4
  8
FRONT
  6
CONTINUOUS
 62
     5
 10
-132.2365944816174
 20
102.3474465581539
 30
0.0
 11
-132.2365944816174
 21
76.34744655815393
 31
0.0
  0
ARC
  5
5C5
  8
FRONT
  6
CONTINUOUS
 62
     5
 10
-126.2365944816174
 20
102.3474465581539
 30
0.0
 40
6.0
 50
90.0
 51
180.0
  0
LINE
  5
5C7
  8
BOTTOM_2
  6
CONTINUOUS
 62
     5
 10
54.69126857768256
 20
-49.60109110454607
 30
0.0
 11
-21.30873142231744
 21
-49.60109110454607
 31
0.0
  0
LINE
  5
5C8
  8
BOTTOM_2
  6
CONTINUOUS
 62
     5
 10
-21.30873142231744
 20
-49.60109110454607
 30
0.0
 11
-21.30873142231744
 21
-63.10109110454607
 31
0.0
  0
LINE
  5
5C9
  8
BOTTOM_2
  6
CONTINUOUS
 62
     5
 10
-21.30873142231744
 20
-101.6010911045461
 30
0.0
 11
54.69126857768256
 21
-101.6010911045461
 31
0.0
  0
LINE
  5
5CA
  8
BOTTOM_2
  6
CONTINUOUS
 62
     5
 10
54.69126857768256
 20
-101.6010911045461
 30
0.0
 11
54.69126857768256
 21
-74.10109110454607
 31
0.0
  0
LINE
  5
5CB
  8
BOTTOM_2
  6
CONTINUOUS
 62
     5
 10
-21.30873142231744
 20
-74.10109110454607
 30
0.0
 11
-21.30873142231744
 21
-101.6010911045461
 31
0.0
  0
LINE
  5
5CC
  8
BOTTOM_2
  6
CONTINUOUS
 62
     5
 10
-27.30873142231744
 20
-63.10109110454607
 30
0.0
 11
-21.30873142231744
 21
-63.10109110454607
 31
0.0
  0
LINE
  5
5CD
  8
BOTTOM_2
  6
CONTINUOUS
 62
     5
 10
54.69126857768256
 20
-63.10109110454607
 30
0.0
 11
54.69126857768256
 21
-49.60109110454607
 31
0.0
  0
LINE
  5
5CE
  8
BOTTOM_2
  6
CONTINUOUS
 62
     5
 10
54.69126857768256
 20
-63.10109110454607
 30
0.0
 11
60.69126857768256
 21
-63.10109110454607
 31
0.0
  0
LINE
  5
5CF
  8
BOTTOM_2
  6
CONTINUOUS
 62
     5
 10
60.69126857768256
 20
-63.10109110454607
 30
0.0
 11
60.69126857768256
 21
-74.10109110454607
 31
0.0
  0
LINE
  5
5D0
  8
BOTTOM_2
  6
CONTINUOUS
 62
     5
 10
-27.30873142231744
 20
-74.10109110454607
 30
0.0
 11
-27.30873142231744
 21
-63.10109110454607
 31
0.0
  0
LINE
  5
5D1
  8
BOTTOM_2
  6
CONTINUOUS
 62
     5
 10
-27.30873142231744
 20
-74.10109110454607
 30
0.0
 11
-21.30873142231744
 21
-74.10109110454607
 31
0.0
  0
LINE
  5
5D2
  8
BOTTOM_2
  6
CONTINUOUS
 62
     5
 10
54.69126857768256
 20
-74.10109110454607
 30
0.0
 11
60.69126857768256
 21
-74.10109110454607
 31
0.0
  0
LINE
  5
5D4
  8
BOTTOM
  6
CONTINUOUS
 62
     5
 10
-48.80202954091743
 20
-50.64240599244607
 30
0.0
 11
-124.8020295409174
 21
-50.64240599244607
 31
0.0
  0
LINE
  5
5D5
  8
BOTTOM
  6
CONTINUOUS
 62
     5
 10
-124.8020295409174
 20
-50.64240599244607
 30
0.0
 11
-124.8020295409174
 21
-75.14240599244607
 31
0.0
  0
LINE
  5
5D6
  8
BOTTOM
  6
CONTINUOUS
 62
     5
 10
-124.8020295409174
 20
-102.6424059924461
 30
0.0
 11
-48.80202954091743
 21
-102.6424059924461
 31
0.0
  0
LINE
  5
5D7
  8
BOTTOM
  6
CONTINUOUS
 62
     5
 10
-48.80202954091743
 20
-102.6424059924461
 30
0.0
 11
-48.80202954091743
 21
-86.14240599244607
 31
0.0
  0
LINE
  5
5D8
  8
BOTTOM
  6
CONTINUOUS
 62
     5
 10
-124.8020295409174
 20
-86.14240599244607
 30
0.0
 11
-124.8020295409174
 21
-102.6424059924461
 31
0.0
  0
LINE
  5
5D9
  8
BOTTOM
  6
CONTINUOUS
 62
     5
 10
-124.8020295409174
 20
-86.14240599244607
 30
0.0
 11
-130.8020295409174
 21
-86.14240599244607
 31
0.0
  0
LINE
  5
5DA
  8
BOTTOM
  6
CONTINUOUS
 62
     5
 10
-130.8020295409174
 20
-86.14240599244607
 30
0.0
 11
-130.8020295409174
 21
-75.14240599244607
 31
0.0
  0
LINE
  5
5DB
  8
BOTTOM
  6
CONTINUOUS
 62
     5
 10
-48.80202954091743
 20
-64.14240599244607
 30
0.0
 11
-48.80202954091743
 21
-50.64240599244607
 31
0.0
  0
LINE
  5
5DC
  8
BOTTOM
  6
CONTINUOUS
 62
     5
 10
-48.80202954091743
 20
-64.14240599244607
 30
0.0
 11
-42.80202954091743
 21
-64.14240599244607
 31
0.0
  0
LINE
  5
5DD
  8
BOTTOM
  6
CONTINUOUS
 62
     5
 10
-42.80202954091743
 20
-64.14240599244607
 30
0.0
 11
-42.80202954091743
 21
-86.14240599244607
 31
0.0
  0
LINE
  5
5DE
  8
BOTTOM
  6
CONTINUOUS
 62
     5
 10
-42.80202954091743
 20
-86.14240599244607
 30
0.0
 11
-48.80202954091743
 21
-86.14240599244607
 31
0.0
  0
LINE
  5
5DF
  8
BOTTOM
  6
CONTINUOUS
 62
     5
 10
-124.8020295409174
 20
-75.14240599244607
 30
0.0
 11
-130.8020295409174
 21
-75.14240599244607
 31
0.0
  0
LINE
  5
5E1
  8
SIDE
  6
CONTINUOUS
 62
     5
 10
153.5476849749826
 20
-101.7601694291461
 30
0.0
 11
89.54768497498256
 21
-101.7601694291461
 31
0.0
  0
LINE
  5
5E2
  8
SIDE
  6
CONTINUOUS
 62
     5
 10
141.5476849749826
 20
-63.76016942914609
 30
0.0
 11
141.5476849749826
 21
-81.26016942914609
 31
0.0
  0
LINE
  5
5E3
  8
SIDE
  6
CONTINUOUS
 62
     5
 10
141.5476849749826
 20
-81.26016942914609
 30
0.0
 11
147.5476849749826
 21
-81.26016942914609
 31
0.0
  0
LINE
  5
5E4
  8
SIDE
  6
CONTINUOUS
 62
     5
 10
147.5476849749826
 20
-81.26016942914609
 30
0.0
 11
147.5476849749826
 21
-63.76016942914609
 31
0.0
  0
LINE
  5
5E5
  8
SIDE
  6
CONTINUOUS
 62
     5
 10
83.54768497498256
 20
-101.7601694291461
 30
0.0
 11
83.54768497498256
 21
-66.76016942914609
 31
0.0
  0
LINE
  5
5E6
  8
SIDE
  6
CONTINUOUS
 62
     5
 10
83.54768497498256
 20
-66.76016942914609
 30
0.0
 11
89.54768497498256
 21
-66.76016942914609
 31
0.0
  0
LINE
  5
5E7
  8
SIDE
  6
CONTINUOUS
 62
     5
 10
89.54768497498256
 20
-66.76016942914609
 30
0.0
 11
89.54768497498256
 21
-101.7601694291461
 31
0.0
  0
LINE
  5
5E8
  8
SIDE
  6
CONTINUOUS
 62
     5
 10
77.54768497498256
 20
-95.76016942914607
 30
0.0
 11
77.54768497498256
 21
-36.34300620104608
 31
0.0
  0
ARC
  5
5E9
  8
SIDE
  6
CONTINUOUS
 62
     5
 10
83.54768497498256
 20
-95.76016942914607
 30
0.0
 40
6.000000000000005
 50
180.0
 51
270.0
  0
LINE
  5
5EA
  8
SIDE
  6
CONTINUOUS
 62
     5
 10
86.62869572698256
 20
-31.19447507594609
 30
0.0
 11
96.62869572698256
 21
-37.17872704444608
 31
0.0
  0
ARC
  5
5EB
  8
SIDE
  6
CONTINUOUS
 62
     5
 10
83.54768497498256
 20
-36.34300620104608
 30
0.0
 40
5.999999999999995
 50
59.10263483969993
 51
179.9999999999999
  0
LINE
  5
5EC
  8
SIDE
  6
CONTINUOUS
 62
     5
 10
159.5476849749826
 20
-82.76016942914609
 30
0.0
 11
182.5476849749826
 21
-82.76016942914609
 31
0.0
  0
ARC
  5
5ED
  8
SIDE
  6
CONTINUOUS
 62
     5
 10
159.5476849749826
 20
-76.76016942914609
 30
0.0
 40
6.000000000000002
 50
180.0
 51
270.0
  0
LINE
  5
5EE
  8
SIDE
  6
CONTINUOUS
 62
     5
 10
187.1005992455826
 20
-92.76969314654608
 30
0.0
 11
153.5476849749826
 21
-101.7601694291461
 31
0.0
  0
ARC
  5
5EF
  8
SIDE
  6
CONTINUOUS
 62
     5
 10
185.5476849749826
 20
-86.97413818884608
 30
0.0
 40
6.000000000000003
 50
285.0000000000001
 51
0.0000000000001357
  0
LINE
  5
5F0
  8
SIDE
  6
CONTINUOUS
 62
     5
 10
191.5476849749826
 20
-79.76016942914609
 30
0.0
 11
191.5476849749826
 21
-86.97413818884608
 31
0.0
  0
ARC
  5
5F1
  8
SIDE
  6
CONTINUOUS
 62
     5
 10
188.5476849749826
 20
-79.76016942914609
 30
0.0
 40
3.000000000000003
 50
0.0
 51
180.0
  0
ARC
  5
5F2
  8
SIDE
  6
CONTINUOUS
 62
     5
 10
182.5476849749826
 20
-79.76016942914609
 30
0.0
 40
3.000000000000003
 50
270.0
 51
0.0
  0
LINE
  5
5F3
  8
SIDE
  6
CONTINUOUS
 62
     5
 10
118.5476849749826
 20
-63.76016942914609
 30
0.0
 11
141.5476849749826
 21
-63.76016942914609
 31
0.0
  0
ARC
  5
5F4
  8
SIDE
  6
CONTINUOUS
 62
     5
 10
118.5476849749826
 20
-44.76016942914609
 30
0.0
 40
19.00000000000001
 50
180.0
 51
270.0
  0
LINE
  5
5F5
  8
SIDE
  6
CONTINUOUS
 62
     5
 10
99.54768497498256
 20
-42.32725816954607
 30
0.0
 11
99.54768497498256
 21
-44.76016942914609
 31
0.0
  0
ARC
  5
5F6
  8
SIDE
  6
CONTINUOUS
 62
     5
 10
93.54768497498256
 20
-42.32725816954607
 30
0.0
 40
5.999999999999998
 50
0.0
 51
59.10263483969998
  0
LINE
  5
5F7
  8
SIDE
  6
CONTINUOUS
 62
     5
 10
103.0476849749826
 20
-95.76016942914607
 30
0.0
 11
103.0476849749826
 21
-89.76016942914607
 31
0.0
  0
LINE
  5
5F8
  8
SIDE
  6
CONTINUOUS
 62
     5
 10
103.0476849749826
 20
-89.76016942914607
 30
0.0
 11
125.0476849749826
 21
-89.76016942914607
 31
0.0
  0
LINE
  5
5F9
  8
SIDE
  6
CONTINUOUS
 62
     5
 10
125.0476849749826
 20
-89.76016942914607
 30
0.0
 11
125.0476849749826
 21
-95.76016942914607
 31
0.0
  0
LINE
  5
5FA
  8
SIDE
  6
CONTINUOUS
 62
     5
 10
125.0476849749826
 20
-95.76016942914607
 30
0.0
 11
103.0476849749826
 21
-95.76016942914607
 31
0.0
  0
LINE
  5
5FB
  8
SIDE
  6
CONTINUOUS
 62
     5
 10
153.5476849749826
 20
-69.76016942914609
 30
0.0
 11
153.5476849749826
 21
-76.76016942914609
 31
0.0
  0
ARC
  5
5FC
  8
SIDE
  6
CONTINUOUS
 62
     5
 10
147.5476849749826
 20
-69.76016942914609
 30
0.0
 40
6.000000000000005
 50
0.0
 51
90.0
  0
ENDSEC
  0
EOF
