  0
SECTION
  2
HEADER
  9
$ACADVER
  1
AC1009
  9
$DWGCODEPAGE
  3
ansi_1252
  9
$INSBASE
 10
0.0
 20
0.0
 30
0.0
  9
$EXTMIN
 10
-87.7275712169035
 20
-34.1116338470295
 30
0.0
  9
$EXTMAX
 10
76.59258824529653
 20
69.71522482773477
 30
0.0
  9
$LIMMIN
 10
0.0
 20
0.0
  9
$LIMMAX
 10
12.0
 20
9.0
  9
$ORTHOMODE
 70
     0
  9
$REGENMODE
 70
     1
  9
$FILLMODE
 70
     1
  9
$QTEXTMODE
 70
     0
  9
$MIRRTEXT
 70
     1
  9
$DRAGMODE
 70
     2
  9
$LTSCALE
 40
1.0
  9
$OSMODE
 70
    37
  9
$ATTMODE
 70
     1
  9
$TEXTSIZE
 40
0.2
  9
$TRACEWID
 40
0.05
  9
$TEXTSTYLE
  7
STANDARD
  9
$CLAYER
  8
DEFAULT
  9
$CELTYPE
  6
BYLAYER
  9
$CECOLOR
 62
   256
  9
$DIMSCALE
 40
1.0
  9
$DIMASZ
 40
0.18
  9
$DIMEXO
 40
0.0625
  9
$DIMDLI
 40
0.38
  9
$DIMRND
 40
0.0
  9
$DIMDLE
 40
0.0
  9
$DIMEXE
 40
0.18
  9
$DIMTP
 40
0.0
  9
$DIMTM
 40
0.0
  9
$DIMTXT
 40
0.18
  9
$DIMCEN
 40
0.09
  9
$DIMTSZ
 40
0.0
  9
$DIMTOL
 70
     0
  9
$DIMLIM
 70
     0
  9
$DIMTIH
 70
     1
  9
$DIMTOH
 70
     1
  9
$DIMSE1
 70
     0
  9
$DIMSE2
 70
     0
  9
$DIMTAD
 70
     0
  9
$DIMZIN
 70
     0
  9
$DIMBLK
  1

  9
$DIMASO
 70
     1
  9
$DIMSHO
 70
     1
  9
$DIMPOST
  1

  9
$DIMAPOST
  1

  9
$DIMALT
 70
     0
  9
$DIMALTD
 70
     2
  9
$DIMALTF
 40
25.4
  9
$DIMLFAC
 40
1.0
  9
$DIMTOFL
 70
     0
  9
$DIMTVP
 40
0.0
  9
$DIMTIX
 70
     0
  9
$DIMSOXD
 70
     0
  9
$DIMSAH
 70
     0
  9
$DIMBLK1
  1

  9
$DIMBLK2
  1

  9
$DIMSTYLE
  2
STANDARD
  9
$DIMCLRD
 70
     0
  9
$DIMCLRE
 70
     0
  9
$DIMCLRT
 70
     0
  9
$DIMTFAC
 40
1.0
  9
$DIMGAP
 40
0.09
  9
$LUNITS
 70
     2
  9
$LUPREC
 70
     4
  9
$SKETCHINC
 40
0.1
  9
$FILLETRAD
 40
0.5
  9
$AUNITS
 70
     0
  9
$AUPREC
 70
     0
  9
$MENU
  1
.
  9
$ELEVATION
 40
0.0
  9
$PELEVATION
 40
0.0
  9
$THICKNESS
 40
0.0
  9
$LIMCHECK
 70
     0
  9
$CHAMFERA
 40
0.0
  9
$CHAMFERB
 40
0.0
  9
$SKPOLY
 70
     0
  9
$TDCREATE
 40
2458782.899009977
  9
$TDUPDATE
 40
2458782.899049132
  9
$TDINDWG
 40
0.0000000116
  9
$TDUSRTIMER
 40
0.0000000116
  9
$USRTIMER
 70
     1
  9
$ANGBASE
 50
0.0
  9
$ANGDIR
 70
     0
  9
$PDMODE
 70
     0
  9
$PDSIZE
 40
0.0
  9
$PLINEWID
 40
0.0
  9
$COORDS
 70
     1
  9
$SPLFRAME
 70
     0
  9
$SPLINETYPE
 70
     6
  9
$SPLINESEGS
 70
     8
  9
$ATTDIA
 70
     0
  9
$ATTREQ
 70
     1
  9
$HANDLING
 70
     1
  9
$HANDSEED
  5
4C4
  9
$SURFTAB1
 70
     6
  9
$SURFTAB2
 70
     6
  9
$SURFTYPE
 70
     6
  9
$SURFU
 70
     6
  9
$SURFV
 70
     6
  9
$UCSNAME
  2

  9
$UCSORG
 10
0.0
 20
0.0
 30
0.0
  9
$UCSXDIR
 10
1.0
 20
0.0
 30
0.0
  9
$UCSYDIR
 10
0.0
 20
1.0
 30
0.0
  9
$PUCSNAME
  2

  9
$PUCSORG
 10
0.0
 20
0.0
 30
0.0
  9
$PUCSXDIR
 10
1.0
 20
0.0
 30
0.0
  9
$PUCSYDIR
 10
0.0
 20
1.0
 30
0.0
  9
$USERI1
 70
     0
  9
$USERI2
 70
     0
  9
$USERI3
 70
     0
  9
$USERI4
 70
     0
  9
$USERI5
 70
     0
  9
$USERR1
 40
0.0
  9
$USERR2
 40
0.0
  9
$USERR3
 40
0.0
  9
$USERR4
 40
0.0
  9
$USERR5
 40
0.0
  9
$WORLDVIEW
 70
     1
  9
$SHADEDGE
 70
     3
  9
$SHADEDIF
 70
    70
  9
$TILEMODE
 70
     1
  9
$MAXACTVP
 70
    64
  9
$PLIMCHECK
 70
     0
  9
$PEXTMIN
 10
1.000000000000000E+20
 20
1.000000000000000E+20
 30
1.000000000000000E+20
  9
$PEXTMAX
 10
-1.000000000000000E+20
 20
-1.000000000000000E+20
 30
-1.000000000000000E+20
  9
$PLIMMIN
 10
0.0
 20
0.0
  9
$PLIMMAX
 10
12.0
 20
9.0
  9
$UNITMODE
 70
     0
  9
$VISRETAIN
 70
     1
  9
$PLINEGEN
 70
     0
  9
$PSLTSCALE
 70
     1
  0
ENDSEC
  0
SECTION
  2
TABLES
  0
TABLE
  2
VPORT
 70
     1
  0
VPORT
  2
*ACTIVE
 70
     0
 10
0.0
 20
0.0
 11
1.0
 21
1.0
 12
-5.567491485803487
 22
17.80179549035264
 13
0.0
 23
0.0
 14
0.5
 24
0.5
 15
0.5
 25
0.5
 16
0.0
 26
0.0
 36
1.0
 17
0.0
 27
0.0
 37
0.0
 40
105.9033958482596
 41
1.582636338608008
 42
50.0
 43
0.0
 44
0.0
 50
0.0
 51
0.0
 71
     0
 72
   100
 73
     1
 74
     3
 75
     0
 76
     0
 77
     0
 78
     0
  0
ENDTAB
  0
TABLE
  2
LTYPE
 70
     1
  0
LTYPE
  2
CONTINUOUS
 70
     0
  3
Solid line
 72
    65
 73
     0
 40
0.0
  0
ENDTAB
  0
TABLE
  2
LAYER
 70
     8
  0
LAYER
  2
0
 70
     0
 62
     7
  6
CONTINUOUS
  0
LAYER
  2
DEFAULT
 70
     0
 62
     7
  6
CONTINUOUS
  0
LAYER
  2
PART5
 70
     0
 62
     7
  6
CONTINUOUS
  0
LAYER
  2
PART4
 70
     0
 62
     7
  6
CONTINUOUS
  0
LAYER
  2
PRT0001
 70
     0
 62
     7
  6
CONTINUOUS
  0
LAYER
  2
OPENER_V3_-_NO_H
 70
     0
 62
     7
  6
CONTINUOUS
  0
LAYER
  2
BOTTLE_OPENER
 70
     0
 62
     7
  6
CONTINUOUS
  0
LAYER
  2
BOTTLE_OPENER_1
 70
     0
 62
     7
  6
CONTINUOUS
  0
ENDTAB
  0
TABLE
  2
STYLE
 70
     1
  0
STYLE
  2
STANDARD
 70
     0
 40
0.0
 41
1.0
 50
0.0
 71
     0
 42
0.2
  3
txt
  4

  0
ENDTAB
  0
TABLE
  2
VIEW
 70
     0
  0
ENDTAB
  0
TABLE
  2
UCS
 70
     0
  0
ENDTAB
  0
TABLE
  2
APPID
 70
     1
  0
APPID
  2
ACAD
 70
     0
  0
ENDTAB
  0
TABLE
  2
DIMSTYLE
 70
     1
  0
DIMSTYLE
  2
STANDARD
 70
     0
  3

  4

  5

  6

  7

 40
1.0
 41
0.18
 42
0.0625
 43
0.38
 44
0.18
 45
0.0
 46
0.0
 47
0.0
 48
0.0
140
0.18
141
0.09
142
0.0
143
25.4
144
1.0
145
0.0
146
1.0
147
0.09
 71
     0
 72
     0
 73
     1
 74
     1
 75
     0
 76
     0
 77
     0
 78
     0
170
     0
171
     2
172
     0
173
     0
174
     0
175
     0
176
     0
177
     0
178
     0
  0
ENDTAB
  0
ENDSEC
  0
SECTION
  2
BLOCKS
  0
BLOCK
  8
0
  2
$MODEL_SPACE
 70
     0
 10
0.0
 20
0.0
 30
0.0
  3
$MODEL_SPACE
  1

  0
ENDBLK
  5
21
  8
0
  0
BLOCK
 67
     1
  8
0
  2
$PAPER_SPACE
 70
     0
 10
0.0
 20
0.0
 30
0.0
  3
$PAPER_SPACE
  1

  0
ENDBLK
  5
1D
 67
     1
  8
0
  0
BLOCK
  8
0
  2
SE
 70
     0
 10
0.0
 20
0.0
 30
0.0
  3
SE
  1

  0
CIRCLE
  5
441
  8
BOTTLE_OPENER_1
  6
CONTINUOUS
 62
     7
 10
142.3501170284
 20
220.1840366902
 30
0.0
 40
3.0
  0
ARC
  5
442
  8
BOTTLE_OPENER_1
  6
CONTINUOUS
 62
     7
 10
123.2225626746
 20
218.5992475023
 30
0.0
 40
0.2499999999999863
 50
250.3694575310987
 51
29.9999999999949
  0
LINE
  5
443
  8
BOTTLE_OPENER_1
  6
CONTINUOUS
 62
     7
 10
121.9057504645
 20
221.3800331541
 30
0.0
 11
123.4390690255
 21
218.7242475023
 31
0.0
  0
ARC
  5
444
  8
BOTTLE_OPENER_1
  6
CONTINUOUS
 62
     7
 10
122.3387631664
 20
221.6300331541
 30
0.0
 40
0.4999999999999954
 50
109.3145795678
 51
210.0000000000005
  0
ARC
  5
445
  8
BOTTLE_OPENER_1
  6
CONTINUOUS
 62
     7
 10
156.9023007144
 20
123.0115162713
 30
0.0
 40
105.0000000000018
 50
106.5375672667
 51
109.3143990521
  0
ARC
  5
446
  8
BOTTLE_OPENER_1
  6
CONTINUOUS
 62
     7
 10
128.722559096
 20
217.916216694
 30
0.0
 40
6.000000000000001
 50
78.62059680080006
 51
106.5376664806
  0
ARC
  5
447
  8
BOTTLE_OPENER_1
  6
CONTINUOUS
 62
     7
 10
127.9333149971
 20
213.9948529322
 30
0.0
 40
9.999999999999998
 50
24.75535142179996
 51
78.6204545011999
  0
ARC
  5
448
  8
BOTTLE_OPENER_1
  6
CONTINUOUS
 62
     7
 10
136.1061116161
 20
217.7638576475
 30
0.0
 40
0.9999999999999981
 50
299.9999999800007
 51
24.73619070850111
  0
LINE
  5
449
  8
BOTTLE_OPENER_1
  6
CONTINUOUS
 62
     7
 10
134.4970610072
 20
215.680171307
 30
0.0
 11
136.6061116158
 21
216.8978322435
 31
0.0
  0
ARC
  5
44A
  8
BOTTLE_OPENER_1
  6
CONTINUOUS
 62
     7
 10
134.6220610072
 20
215.463664956
 30
0.0
 40
0.2500000000001124
 50
119.9999999999988
 51
258.9888323071984
  0
ARC
  5
44B
  8
BOTTLE_OPENER_1
  6
CONTINUOUS
 62
     7
 10
147.622321609
 20
282.2746798121
 30
0.0
 40
68.31407629440334
 50
258.9888323073
 51
265.1465760606
  0
LINE
  5
44C
  8
BOTTLE_OPENER_1
  6
CONTINUOUS
 62
     7
 10
137.9876128137
 20
227.1840366902
 30
0.0
 11
184.4225626746
 21
227.1840366902
 31
0.0
  0
ARC
  5
44D
  8
BOTTLE_OPENER_1
  6
CONTINUOUS
 62
     7
 10
137.9876128137
 20
160.1255271372
 30
0.0
 40
67.05850955304679
 50
90.0
 51
107.2246398182
  0
ARC
  5
44E
  8
BOTTLE_OPENER_1
  6
CONTINUOUS
 62
     7
 10
118.7225626746
 20
222.2662344747
 30
0.0
 40
2.0
 50
107.2246398182001
 51
246.3478186073003
  0
ARC
  5
44F
  8
BOTTLE_OPENER_1
  6
CONTINUOUS
 62
     7
 10
150.0148703669
 20
293.7140579495
 30
0.0
 40
80.00000000000007
 50
246.3478186073
 51
250.3694575311
  0
LINE
  5
450
  8
BOTTLE_OPENER_1
  6
CONTINUOUS
 62
     7
 10
184.7225626746
 20
226.8840366902
 30
0.0
 11
184.7225626746
 21
223.4840366902
 31
0.0
  0
ARC
  5
451
  8
BOTTLE_OPENER_1
  6
CONTINUOUS
 62
     7
 10
184.4225626746
 20
226.8840366902
 30
0.0
 40
0.2999999999999999
 50
0.0
 51
90.0
  0
LINE
  5
452
  8
BOTTLE_OPENER_1
  6
CONTINUOUS
 62
     7
 10
184.4225626746
 20
223.1840366902
 30
0.0
 11
151.3501170284
 21
223.1840366902
 31
0.0
  0
ARC
  5
453
  8
BOTTLE_OPENER_1
  6
CONTINUOUS
 62
     7
 10
184.4225626746
 20
223.4840366902
 30
0.0
 40
0.2999999999999999
 50
270.0
 51
0.0
  0
ARC
  5
454
  8
BOTTLE_OPENER_1
  6
CONTINUOUS
 62
     7
 10
142.3501170284
 20
220.1840366902
 30
0.0
 40
5.999999999999998
 50
265.1465760606
 51
0.0
  0
ARC
  5
455
  8
BOTTLE_OPENER_1
  6
CONTINUOUS
 62
     7
 10
151.3501170284
 20
220.1840366902
 30
0.0
 40
3.000000000000003
 50
90.0
 51
180.0
  0
ENDBLK
  5
457
  8
0
  0
BLOCK
  8
0
  2
SE1
 70
     0
 10
0.0
 20
0.0
 30
0.0
  3
SE1
  1

  0
ARC
  5
459
  8
BOTTLE_OPENER
  6
CONTINUOUS
 62
     7
 10
178.6126505465
 20
201.1418345781
 30
0.0
 40
2.999999999999994
 50
109.4712206345
 51
250.5287793655002
  0
ARC
  5
45A
  8
BOTTLE_OPENER
  6
CONTINUOUS
 62
     7
 10
171.6844473162
 20
202.1418345781
 30
0.0
 40
2.0
 50
270.0
 51
351.7867892982999
  0
LINE
  5
45B
  8
BOTTLE_OPENER
  6
CONTINUOUS
 62
     7
 10
150.5329607633
 20
200.1418345781
 30
0.0
 11
171.6844473162
 21
200.1418345781
 31
0.0
  0
ARC
  5
45C
  8
BOTTLE_OPENER
  6
CONTINUOUS
 62
     7
 10
150.5329607633
 20
213.4486715534
 30
0.0
 40
13.30683697529481
 50
210.0
 51
270.0
  0
LINE
  5
45D
  8
BOTTLE_OPENER
  6
CONTINUOUS
 62
     7
 10
138.3757902673
 20
207.8918345781
 30
0.0
 11
139.0089018987
 21
206.7952530658
 31
0.0
  0
ARC
  5
45E
  8
BOTTLE_OPENER
  6
CONTINUOUS
 62
     7
 10
134.9116886522
 20
205.8918345781
 30
0.0
 40
4.000000000000002
 50
29.99999999999993
 51
119.9999999999999
  0
LINE
  5
45F
  8
BOTTLE_OPENER
  6
CONTINUOUS
 62
     7
 10
134.9116886522
 20
205.8918345781
 30
0.0
 11
132.9116886522
 21
209.3559361933
 31
0.0
  0
ARC
  5
460
  8
BOTTLE_OPENER
  6
CONTINUOUS
 62
     7
 10
133.6126505465
 20
205.1418345781
 30
0.0
 40
1.5
 50
270.0
 51
30.0
  0
LINE
  5
461
  8
BOTTLE_OPENER
  6
CONTINUOUS
 62
     7
 10
125.1126505465
 20
203.6418345781
 30
0.0
 11
133.6126505465
 21
203.6418345781
 31
0.0
  0
ARC
  5
462
  8
BOTTLE_OPENER
  6
CONTINUOUS
 62
     7
 10
125.1126505465
 20
207.6418345781
 30
0.0
 40
4.000000000000004
 50
180.0
 51
270.0
  0
LINE
  5
463
  8
BOTTLE_OPENER
  6
CONTINUOUS
 62
     7
 10
121.1126505465
 20
207.9140018548
 30
0.0
 11
121.1126505465
 21
207.6418345781
 31
0.0
  0
ARC
  5
464
  8
BOTTLE_OPENER
  6
CONTINUOUS
 62
     7
 10
119.1126505465
 20
207.9140018548
 30
0.0
 40
2.000000000000002
 50
0.0
 51
59.99999999999986
  0
LINE
  5
465
  8
BOTTLE_OPENER
  6
CONTINUOUS
 62
     7
 10
118.8626505465
 20
210.3677404988
 30
0.0
 11
120.1126505465
 21
209.6460526623
 31
0.0
  0
ARC
  5
466
  8
BOTTLE_OPENER
  6
CONTINUOUS
 62
     7
 10
118.6126505465
 20
209.9347277969
 30
0.0
 40
0.5000000000000073
 50
60.00000000000109
 51
180.0
  0
LINE
  5
467
  8
BOTTLE_OPENER
  6
CONTINUOUS
 62
     7
 10
118.1126505465
 20
207.6418345781
 30
0.0
 11
118.1126505465
 21
209.9347277969
 31
0.0
  0
ARC
  5
468
  8
BOTTLE_OPENER
  6
CONTINUOUS
 62
     7
 10
125.1126505465
 20
207.6418345781
 30
0.0
 40
7.0
 50
180.0
 51
270.0
  0
LINE
  5
469
  8
BOTTLE_OPENER
  6
CONTINUOUS
 62
     7
 10
138.1126505465
 20
200.6418345781
 30
0.0
 11
125.1126505465
 21
200.6418345781
 31
0.0
  0
LINE
  5
46A
  8
BOTTLE_OPENER
  6
CONTINUOUS
 62
     7
 10
138.1126505465
 20
198.6418345781
 30
0.0
 11
138.1126505465
 21
200.6418345781
 31
0.0
  0
LINE
  5
46B
  8
BOTTLE_OPENER
  6
CONTINUOUS
 62
     7
 10
127.7292313002
 20
198.6418345781
 30
0.0
 11
138.1126505465
 21
198.6418345781
 31
0.0
  0
ARC
  5
46C
  8
BOTTLE_OPENER
  6
CONTINUOUS
 62
     7
 10
127.7292313002
 20
198.3418345781
 30
0.0
 40
0.3000000000000003
 50
90.0
 51
149.9999999999996
  0
LINE
  5
46D
  8
BOTTLE_OPENER
  6
CONTINUOUS
 62
     7
 10
126.3724581676
 20
196.5918345781
 30
0.0
 11
127.4694236791
 21
198.4918345781
 31
0.0
  0
ARC
  5
46E
  8
BOTTLE_OPENER
  6
CONTINUOUS
 62
     7
 10
126.6322657888
 20
196.4418345781
 30
0.0
 40
0.2999999999999999
 50
149.9999999999996
 51
270.0
  0
ARC
  5
46F
  8
BOTTLE_OPENER
  6
CONTINUOUS
 62
     7
 10
178.6126505465
 20
201.1418345781
 30
0.0
 40
4.999999999999996
 50
101.5369590327999
 51
171.7867892982995
  0
LINE
  5
470
  8
BOTTLE_OPENER
  6
CONTINUOUS
 62
     7
 10
177.6126505465
 20
196.1418345781
 30
0.0
 11
126.6322657888
 21
196.1418345781
 31
0.0
  0
ARC
  5
471
  8
BOTTLE_OPENER
  6
CONTINUOUS
 62
     7
 10
178.6126505465
 20
201.1418345781
 30
0.0
 40
4.999999999999999
 50
270.0
 51
101.5369590327999
  0
ARC
  5
472
  8
BOTTLE_OPENER
  6
CONTINUOUS
 62
     7
 10
178.6126505465
 20
201.1418345781
 30
0.0
 40
3.0
 50
250.5287793655
 51
109.4712206344998
  0
LINE
  5
473
  8
BOTTLE_OPENER
  6
CONTINUOUS
 62
     7
 10
177.6126505465
 20
196.1418345781
 30
0.0
 11
178.6126505465
 21
196.1418345781
 31
0.0
  0
ENDBLK
  5
475
  8
0
  0
BLOCK
  8
0
  2
SE2
 70
     0
 10
0.0
 20
0.0
 30
0.0
  3
SE2
  1

  0
LINE
  5
477
  8
OPENER_V3_-_NO_H
  6
CONTINUOUS
 62
     7
 10
172.4831787322
 20
191.1829307646
 30
0.0
 11
157.247254052
 21
191.1829307646
 31
0.0
  0
ARC
  5
478
  8
OPENER_V3_-_NO_H
  6
CONTINUOUS
 62
     7
 10
172.4831787322
 20
186.6829307646
 30
0.0
 40
4.500000000000004
 50
316.3487240581999
 51
90.0
  0
ARC
  5
479
  8
OPENER_V3_-_NO_H
  6
CONTINUOUS
 62
     7
 10
154.03254134
 20
204.2847482793
 30
0.0
 40
30.0
 50
220.366431919
 51
316.3487240581999
  0
ARC
  5
47A
  8
OPENER_V3_-_NO_H
  6
CONTINUOUS
 62
     7
 10
133.8417171724
 20
187.1213972244
 30
0.0
 40
3.500000000000001
 50
28.18141542730011
 51
220.366431919
  0
ARC
  5
47B
  8
OPENER_V3_-_NO_H
  6
CONTINUOUS
 62
     7
 10
149.9018712037
 20
195.7260704201
 30
0.0
 40
14.72001504700121
 50
208.1814154273
 51
269.9668958481
  0
ARC
  5
47C
  8
OPENER_V3_-_NO_H
  6
CONTINUOUS
 62
     7
 10
149.8981428054
 20
189.273059173
 30
0.0
 40
8.267002722807025
 50
269.9668958481001
 51
344.9321312421002
  0
LINE
  5
47D
  8
OPENER_V3_-_NO_H
  6
CONTINUOUS
 62
     7
 10
154.0184398682
 20
188.1637961968
 30
0.0
 11
157.8809141439
 21
187.1239440586
 31
0.0
  0
CIRCLE
  5
47E
  8
OPENER_V3_-_NO_H
  6
CONTINUOUS
 62
     7
 10
172.4831787322
 20
186.6829307646
 30
0.0
 40
2.000000000000002
  0
LINE
  5
47F
  8
OPENER_V3_-_NO_H
  6
CONTINUOUS
 62
     7
 10
154.4533767725
 20
189.2757481086
 30
0.0
 11
154.0184398682
 21
188.1637961968
 31
0.0
  0
ARC
  5
480
  8
OPENER_V3_-_NO_H
  6
CONTINUOUS
 62
     7
 10
157.247254052
 20
188.1829307646
 30
0.0
 40
2.999999999999999
 50
90.0
 51
158.6371852265999
  0
ENDBLK
  5
482
  8
0
  0
BLOCK
  8
0
  2
SE3
 70
     0
 10
0.0
 20
0.0
 30
0.0
  3
SE3
  1

  0
LINE
  5
484
  8
PRT0001
  6
CONTINUOUS
 62
     7
 10
148.7651847614
 20
234.0890801094
 30
0.0
 11
128.7651847614
 21
234.0890801094
 31
0.0
  0
LINE
  5
485
  8
PRT0001
  6
CONTINUOUS
 62
     7
 10
186.1058047016
 20
246.8092893653
 30
0.0
 11
148.7651847614
 21
234.0890801094
 31
0.0
  0
ARC
  5
486
  8
PRT0001
  6
CONTINUOUS
 62
     7
 10
184.8965906175
 20
250.3589796755
 30
0.0
 40
3.75
 50
288.8115844783998
 51
89.99999999999957
  0
LINE
  5
487
  8
PRT0001
  6
CONTINUOUS
 62
     7
 10
145.4669950771
 20
249.0890801094
 30
0.0
 11
145.4669950771
 21
250.2805525508
 31
0.0
  0
LINE
  5
488
  8
PRT0001
  6
CONTINUOUS
 62
     7
 10
149.3952243369
 20
249.0890801094
 30
0.0
 11
145.4669950771
 21
249.0890801094
 31
0.0
  0
LINE
  5
489
  8
PRT0001
  6
CONTINUOUS
 62
     7
 10
149.3952243369
 20
242.0890801094
 30
0.0
 11
149.3952243369
 21
249.0890801094
 31
0.0
  0
LINE
  5
48A
  8
PRT0001
  6
CONTINUOUS
 62
     7
 10
133.6674039646
 20
242.0890801094
 30
0.0
 11
149.3952243369
 21
242.0890801094
 31
0.0
  0
ARC
  5
48B
  8
PRT0001
  6
CONTINUOUS
 62
     7
 10
128.7651847614
 20
239.5910646791
 30
0.0
 40
5.501984569756851
 50
27.00194839499997
 51
270.0
  0
LINE
  5
48C
  8
PRT0001
  6
CONTINUOUS
 62
     7
 10
146.0527815148
 20
251.6947661132
 30
0.0
 11
147.8812086395
 21
253.5231932379
 31
0.0
  0
ARC
  5
48D
  8
PRT0001
  6
CONTINUOUS
 62
     7
 10
147.4669950771
 20
250.2805525508
 30
0.0
 40
2.0
 50
135.0
 51
180.0
  0
LINE
  5
48E
  8
PRT0001
  6
CONTINUOUS
 62
     7
 10
149.2954222019
 20
254.1089796755
 30
0.0
 11
184.8965906175
 21
254.1089796755
 31
0.0
  0
ARC
  5
48F
  8
PRT0001
  6
CONTINUOUS
 62
     7
 10
149.2954222019
 20
252.1089796755
 30
0.0
 40
2.0
 50
90.0
 51
135.0
  0
ENDBLK
  5
491
  8
0
  0
BLOCK
  8
0
  2
SE4
 70
     0
 10
0.0
 20
0.0
 30
0.0
  3
SE4
  1

  0
ARC
  5
493
  8
PART4
  6
CONTINUOUS
 62
     7
 10
210.5427221368
 20
235.4628104122
 30
0.0
 40
13.5
 50
53.13010235420005
 51
306.8698976458
  0
ARC
  5
494
  8
PART4
  6
CONTINUOUS
 62
     7
 10
218.0427221368
 20
245.4628104122
 30
0.0
 40
1.000000000000001
 50
0.0
 51
53.13010235419962
  0
LINE
  5
495
  8
PART4
  6
CONTINUOUS
 62
     7
 10
219.0427221368
 20
225.4628104122
 30
0.0
 11
219.0427221368
 21
245.4628104122
 31
0.0
  0
ARC
  5
496
  8
PART4
  6
CONTINUOUS
 62
     7
 10
218.0427221368
 20
225.4628104122
 30
0.0
 40
1.000000000000002
 50
306.8698976458003
 51
0.0
  0
LINE
  5
497
  8
PART4
  6
CONTINUOUS
 62
     7
 10
275.0427221368
 20
222.7628104122
 30
0.0
 11
227.879388483
 21
222.7628104122
 31
0.0
  0
ARC
  5
498
  8
PART4
  6
CONTINUOUS
 62
     7
 10
275.0427221368
 20
228.7628104122
 30
0.0
 40
6.0
 50
270.0
 51
0.0
  0
LINE
  5
499
  8
PART4
  6
CONTINUOUS
 62
     7
 10
227.879388483
 20
248.1628104122
 30
0.0
 11
275.0427221368
 21
248.1628104122
 31
0.0
  0
ARC
  5
49A
  8
PART4
  6
CONTINUOUS
 62
     7
 10
227.879388483
 20
254.1628104122
 30
0.0
 40
6.000000000000002
 50
227.1665719338999
 51
269.9999999999997
  0
ARC
  5
49B
  8
PART4
  6
CONTINUOUS
 62
     7
 10
210.5427221368
 20
235.4628104122
 30
0.0
 40
19.49999999999999
 50
47.16657193390001
 51
312.8334280660999
  0
ARC
  5
49C
  8
PART4
  6
CONTINUOUS
 62
     7
 10
227.879388483
 20
216.7628104122
 30
0.0
 40
6.000000000000001
 50
90.0
 51
132.8334280660999
  0
LINE
  5
49D
  8
PART4
  6
CONTINUOUS
 62
     7
 10
281.0427221368
 20
242.1628104122
 30
0.0
 11
281.0427221368
 21
228.7628104122
 31
0.0
  0
ARC
  5
49E
  8
PART4
  6
CONTINUOUS
 62
     7
 10
275.0427221368
 20
242.1628104122
 30
0.0
 40
6.000000000000005
 50
0.0
 51
90.0
  0
ENDBLK
  5
4A0
  8
0
  0
BLOCK
  8
0
  2
SE5
 70
     0
 10
0.0
 20
0.0
 30
0.0
  3
SE5
  1

  0
ARC
  5
4A2
  8
PART5
  6
CONTINUOUS
 62
     7
 10
239.5439347357
 20
163.0132531398
 30
0.0
 40
19.05
 50
62.15353592570003
 51
90.0
  0
LINE
  5
4A3
  8
PART5
  6
CONTINUOUS
 62
     7
 10
248.4422628648
 20
179.8573101483
 30
0.0
 11
266.004026914
 21
170.5798338872
 31
0.0
  0
ARC
  5
4A4
  8
PART5
  6
CONTINUOUS
 62
     7
 10
269.507305705
 20
177.2113523945
 30
0.0
 40
7.499999999999996
 50
242.1535359257
 51
0.0
  0
LINE
  5
4A5
  8
PART5
  6
CONTINUOUS
 62
     7
 10
277.007305705
 20
177.2113523945
 30
0.0
 11
277.007305705
 21
204.9151538851
 31
0.0
  0
ARC
  5
4A6
  8
PART5
  6
CONTINUOUS
 62
     7
 10
269.507305705
 20
204.9151538851
 30
0.0
 40
7.500000000000002
 50
0.0
 51
117.8464640743
  0
LINE
  5
4A7
  8
PART5
  6
CONTINUOUS
 62
     7
 10
266.004026914
 20
211.5466723924
 30
0.0
 11
248.4422628648
 21
202.2691961313
 31
0.0
  0
ARC
  5
4A8
  8
PART5
  6
CONTINUOUS
 62
     7
 10
239.5439347357
 20
219.1132531398
 30
0.0
 40
19.05
 50
270.0
 51
297.8464640742999
  0
LINE
  5
4A9
  8
PART5
  6
CONTINUOUS
 62
     7
 10
239.5439347357
 20
200.0632531398
 30
0.0
 11
199.507305705
 21
200.0632531398
 31
0.0
  0
LINE
  5
4AA
  8
PART5
  6
CONTINUOUS
 62
     7
 10
268.339546108
 20
207.1256600542
 30
0.0
 11
256.6358570238
 21
200.9428701396
 31
0.0
  0
ARC
  5
4AB
  8
PART5
  6
CONTINUOUS
 62
     7
 10
269.507305705
 20
204.9151538851
 30
0.0
 40
2.5
 50
0.0
 51
117.8464640742998
  0
LINE
  5
4AC
  8
PART5
  6
CONTINUOUS
 62
     7
 10
272.007305705
 20
177.2113523945
 30
0.0
 11
272.007305705
 21
204.9151538851
 31
0.0
  0
ARC
  5
4AD
  8
PART5
  6
CONTINUOUS
 62
     7
 10
269.507305705
 20
177.2113523945
 30
0.0
 40
2.499999999999996
 50
242.1535359257003
 51
0.0000000000006514
  0
LINE
  5
4AE
  8
PART5
  6
CONTINUOUS
 62
     7
 10
256.6358570238
 20
181.18363614
 30
0.0
 11
268.339546108
 21
175.0008462254
 31
0.0
  0
ARC
  5
4AF
  8
PART5
  6
CONTINUOUS
 62
     7
 10
257.1029608626
 20
200.058667672
 30
0.0
 40
1.000000000000004
 50
117.8464640743006
 51
197.8058130345019
  0
ARC
  5
4B0
  8
PART5
  6
CONTINUOUS
 62
     7
 10
257.1029608626
 20
182.0678386076
 30
0.0
 40
0.9999999999999998
 50
162.1941869654997
 51
242.1535359256994
  0
ARC
  5
4B1
  8
PART5
  6
CONTINUOUS
 62
     7
 10
320.0628367868
 20
191.0632531398
 30
0.0
 40
64.50000000000031
 50
172.2574071144
 51
187.7425928855999
  0
ARC
  5
4B2
  8
PART5
  6
CONTINUOUS
 62
     7
 10
257.1029608626
 20
200.058667672
 30
0.0
 40
1.000000000000015
 50
197.8058130345003
 51
264.5109706923016
  0
LINE
  5
4B3
  8
PART5
  6
CONTINUOUS
 62
     7
 10
257.007305705
 20
199.0632531398
 30
0.0
 11
257.007305705
 21
198.5632531398
 31
0.0
  0
ARC
  5
4B4
  8
PART5
  6
CONTINUOUS
 62
     7
 10
320.0628367868
 20
191.0632531398
 30
0.0
 40
63.5
 50
173.2169485366
 51
186.7830514634
  0
LINE
  5
4B5
  8
PART5
  6
CONTINUOUS
 62
     7
 10
257.007305705
 20
183.5632531398
 30
0.0
 11
257.007305705
 21
183.0632531398
 31
0.0
  0
ARC
  5
4B6
  8
PART5
  6
CONTINUOUS
 62
     7
 10
257.1029608626
 20
182.0678386076
 30
0.0
 40
0.9999999999999103
 50
95.48902930769886
 51
162.1941869654977
  0
LINE
  5
4B7
  8
PART5
  6
CONTINUOUS
 62
     7
 10
199.507305705
 20
182.0632531398
 30
0.0
 11
239.5439347357
 21
182.0632531398
 31
0.0
  0
ARC
  5
4B8
  8
PART5
  6
CONTINUOUS
 62
     7
 10
199.507305705
 20
188.0632531398
 30
0.0
 40
5.999999999999998
 50
180.0
 51
270.0
  0
LINE
  5
4B9
  8
PART5
  6
CONTINUOUS
 62
     7
 10
193.507305705
 20
194.0632531398
 30
0.0
 11
193.507305705
 21
188.0632531398
 31
0.0
  0
ARC
  5
4BA
  8
PART5
  6
CONTINUOUS
 62
     7
 10
199.507305705
 20
194.0632531398
 30
0.0
 40
6.0
 50
90.0
 51
180.0
  0
ENDBLK
  5
4BC
  8
0
  0
ENDSEC
  0
SECTION
  2
ENTITIES
  0
POLYLINE
  5
6F
  8
DEFAULT
 62
     5
 66
     1
 10
0.0
 20
0.0
 30
0.0
 70
     1
  0
VERTEX
  5
70
  8
DEFAULT
 62
     5
 10
39.48017463064184
 20
68.26368729090726
 30
0.0
  0
VERTEX
  5
71
  8
DEFAULT
 62
     5
 10
40.34437216150604
 20
68.26368729090726
 30
0.0
  0
VERTEX
  5
72
  8
DEFAULT
 62
     5
 10
40.34437216150604
 20
67.7742004744196
 30
0.0
 42
-0.2373869490350152
  0
VERTEX
  5
73
  8
DEFAULT
 62
     5
 10
41.46753978374541
 20
68.35627988349984
 30
0.0
 42
-0.131512031073464
  0
VERTEX
  5
74
  8
DEFAULT
 62
     5
 10
42.0677037240393
 20
68.21160410474813
 30
0.0
 42
-0.1393853272244893
  0
VERTEX
  5
75
  8
DEFAULT
 62
     5
 10
42.48509378137366
 20
67.7742004744196
 30
0.0
 42
-0.1018343532165465
  0
VERTEX
  5
76
  8
DEFAULT
 62
     5
 10
42.99579982196833
 20
68.21160410474813
 30
0.0
 42
-0.1239296679571245
  0
VERTEX
  5
77
  8
DEFAULT
 62
     5
 10
43.58077302919807
 20
68.35627988349987
 30
0.0
 42
-0.1355305589141767
  0
VERTEX
  5
78
  8
DEFAULT
 62
     5
 10
44.25062242641961
 20
68.19424296420218
 30
0.0
 42
-0.1623661969580497
  0
VERTEX
  5
79
  8
DEFAULT
 62
     5
 10
44.66005542188805
 20
67.71874146514456
 30
0.0
 42
-0.0915442810314506
  0
VERTEX
  5
7A
  8
DEFAULT
 62
     5
 10
44.75795240841963
 20
66.96835551550122
 30
0.0
  0
VERTEX
  5
7B
  8
DEFAULT
 62
     5
 10
44.75795240841963
 20
64.65257617979614
 30
0.0
  0
VERTEX
  5
7C
  8
DEFAULT
 62
     5
 10
43.80116228496283
 20
64.65257617979614
 30
0.0
  0
VERTEX
  5
7D
  8
DEFAULT
 62
     5
 10
43.80116228496284
 20
66.71758432265072
 30
0.0
 42
0.1141470137910692
  0
VERTEX
  5
7E
  8
DEFAULT
 62
     5
 10
43.7037475588764
 20
67.4115462711713
 30
0.0
 42
0.272100060653383
  0
VERTEX
  5
7F
  8
DEFAULT
 62
     5
 10
43.30010168874952
 20
67.61553914275908
 30
0.0
 42
0.1575639071466662
  0
VERTEX
  5
80
  8
DEFAULT
 62
     5
 10
42.92707865045221
 20
67.49304687352591
 30
0.0
 42
0.1657627374474245
  0
VERTEX
  5
81
  8
DEFAULT
 62
     5
 10
42.67486020530885
 20
67.13425075383866
 30
0.0
 42
0.0723437487254881
  0
VERTEX
  5
82
  8
DEFAULT
 62
     5
 10
42.59745858125913
 20
66.38772288775635
 30
0.0
  0
VERTEX
  5
83
  8
DEFAULT
 62
     5
 10
42.59745858125913
 20
64.65257617979614
 30
0.0
  0
VERTEX
  5
84
  8
DEFAULT
 62
     5
 10
41.64066845780233
 20
64.65257617979614
 30
0.0
  0
VERTEX
  5
85
  8
DEFAULT
 62
     5
 10
41.64066845780233
 20
66.63222516577763
 30
0.0
  0
VERTEX
  5
86
  8
DEFAULT
 62
     5
 10
41.5907554436463
 20
67.31292542301459
 30
0.0
  0
VERTEX
  5
87
  8
DEFAULT
 62
     5
 10
41.43571130080302
 20
67.54078995115759
 30
0.0
  0
VERTEX
  5
88
  8
DEFAULT
 62
     5
 10
41.15069938086955
 20
67.6155391427591
 30
0.0
 42
0.3306618495400885
  0
VERTEX
  5
89
  8
DEFAULT
 62
     5
 10
40.51195531140144
 20
67.15281754549743
 30
0.0
 42
0.0722698594962424
  0
VERTEX
  5
8A
  8
DEFAULT
 62
     5
 10
40.43696475409864
 20
66.40797782645183
 30
0.0
  0
VERTEX
  5
8B
  8
DEFAULT
 62
     5
 10
40.43696475409864
 20
64.65257617979614
 30
0.0
  0
VERTEX
  5
8C
  8
DEFAULT
 62
     5
 10
39.48017463064184
 20
64.65257617979614
 30
0.0
  0
SEQEND
  5
8D
  8
DEFAULT
 62
     5
  0
POLYLINE
  5
8E
  8
DEFAULT
 62
     5
 66
     1
 10
0.0
 20
0.0
 30
0.0
 70
     1
  0
VERTEX
  5
8F
  8
DEFAULT
 62
     5
 10
36.08511290224678
 20
66.45813197083044
 30
0.0
 42
0.180769690720844
  0
VERTEX
  5
90
  8
DEFAULT
 62
     5
 10
36.33492004516449
 20
65.62190507482632
 30
0.0
 42
0.4777036397638018
  0
VERTEX
  5
91
  8
DEFAULT
 62
     5
 10
37.56538896809418
 20
65.6219050748263
 30
0.0
 42
0.1794408075869619
  0
VERTEX
  5
92
  8
DEFAULT
 62
     5
 10
37.81350796397518
 20
66.46488361706226
 30
0.0
 42
0.1800932450793956
  0
VERTEX
  5
93
  8
DEFAULT
 62
     5
 10
37.56538896809417
 20
67.29435863135579
 30
0.0
 42
0.4793729384846653
  0
VERTEX
  5
94
  8
DEFAULT
 62
     5
 10
36.33492004516448
 20
67.2943586313558
 30
0.0
 42
0.180769789086866
  0
SEQEND
  5
95
  8
DEFAULT
 62
     5
  0
POLYLINE
  5
96
  8
DEFAULT
 62
     5
 66
     1
 10
0.0
 20
0.0
 30
0.0
 70
     1
  0
VERTEX
  5
97
  8
DEFAULT
 62
     5
 10
35.12832277878999
 20
66.5092506360993
 30
0.0
 42
-0.1222574291832779
  0
VERTEX
  5
98
  8
DEFAULT
 62
     5
 10
35.36149217182943
 20
67.43614131839422
 30
0.0
 42
-0.1509199207836111
  0
VERTEX
  5
99
  8
DEFAULT
 62
     5
 10
36.02217909155097
 20
68.12021716326836
 30
0.0
 42
-0.1287246067144142
  0
VERTEX
  5
9A
  8
DEFAULT
 62
     5
 10
36.9767992784834
 20
68.35627988349985
 30
0.0
 42
-0.2109274079128369
  0
VERTEX
  5
9B
  8
DEFAULT
 62
     5
 10
38.31167546847517
 20
67.82097903116103
 30
0.0
 42
-0.2026212639801773
  0
VERTEX
  5
9C
  8
DEFAULT
 62
     5
 10
38.8320264824937
 20
66.46825944017816
 30
0.0
 42
-0.2022295973323117
  0
VERTEX
  5
9D
  8
DEFAULT
 62
     5
 10
38.30661196928004
 20
65.10203608577419
 30
0.0
 42
-0.2115506096600995
  0
VERTEX
  5
9E
  8
DEFAULT
 62
     5
 10
36.98355045375776
 20
64.55998358720355
 30
0.0
 42
-0.1188796278362537
  0
VERTEX
  5
9F
  8
DEFAULT
 62
     5
 10
36.04243355928897
 20
64.78567817882218
 30
0.0
 42
-0.1582355798320179
  0
VERTEX
  5
A0
  8
DEFAULT
 62
     5
 10
35.36149217182943
 20
65.44757074965656
 30
0.0
 42
-0.1239053267140402
  0
SEQEND
  5
A1
  8
DEFAULT
 62
     5
  0
POLYLINE
  5
A2
  8
DEFAULT
 62
     5
 66
     1
 10
0.0
 20
0.0
 30
0.0
 70
     1
  0
VERTEX
  5
A3
  8
DEFAULT
 62
     5
 10
34.6036314207653
 20
67.21430457485788
 30
0.0
  0
VERTEX
  5
A4
  8
DEFAULT
 62
     5
 10
33.6468412973085
 20
67.05998358720355
 30
0.0
 42
0.180996809817544
  0
VERTEX
  5
A5
  8
DEFAULT
 62
     5
 10
33.43320345229687
 20
67.47592709868125
 30
0.0
 42
0.1804760167669876
  0
VERTEX
  5
A6
  8
DEFAULT
 62
     5
 10
33.00110445138601
 20
67.6155391427591
 30
0.0
 42
0.2329674834671089
  0
VERTEX
  5
A7
  8
DEFAULT
 62
     5
 10
32.437350703742
 20
67.36476771442987
 30
0.0
 42
0.1695179555120505
  0
VERTEX
  5
A8
  8
DEFAULT
 62
     5
 10
32.22708821088874
 20
66.52564749123373
 30
0.0
 42
0.1610966817174978
  0
VERTEX
  5
A9
  8
DEFAULT
 62
     5
 10
32.44241443841586
 20
65.60140924138702
 30
0.0
 42
0.2405540491094136
  0
VERTEX
  5
AA
  8
DEFAULT
 62
     5
 10
33.02039486919122
 20
65.33158852547517
 30
0.0
 42
0.1883458441869238
  0
VERTEX
  5
AB
  8
DEFAULT
 62
     5
 10
33.46430878005027
 20
65.48446296727282
 30
0.0
 42
0.1622604489947918
  0
VERTEX
  5
AC
  8
DEFAULT
 62
     5
 10
33.70856969237024
 20
66.01060087115417
 30
0.0
  0
VERTEX
  5
AD
  8
DEFAULT
 62
     5
 10
34.66535981582703
 20
65.88714408103071
 30
0.0
 42
-0.1724509721436257
  0
VERTEX
  5
AE
  8
DEFAULT
 62
     5
 10
34.1064286726343
 20
64.89514965151562
 30
0.0
 42
-0.1746967243539286
  0
VERTEX
  5
AF
  8
DEFAULT
 62
     5
 10
32.9982113596727
 20
64.55998358720355
 30
0.0
 42
-0.2163976905724309
  0
VERTEX
  5
B0
  8
DEFAULT
 62
     5
 10
31.73953043618163
 20
65.06273256593228
 30
0.0
 42
-0.1943870566321103
  0
VERTEX
  5
B1
  8
DEFAULT
 62
     5
 10
31.27029808743196
 20
66.45475614771452
 30
0.0
 42
-0.1945054615972516
  0
VERTEX
  5
B2
  8
DEFAULT
 62
     5
 10
31.73928930595907
 20
67.85521905180778
 30
0.0
 42
-0.2157801631579852
  0
VERTEX
  5
B3
  8
DEFAULT
 62
     5
 10
33.00785609761783
 20
68.35627988349985
 30
0.0
 42
-0.159942307695792
  0
VERTEX
  5
B4
  8
DEFAULT
 62
     5
 10
34.04855836113362
 20
68.07416199719464
 30
0.0
 42
-0.168263569712632
  0
SEQEND
  5
B5
  8
DEFAULT
 62
     5
  0
POLYLINE
  5
B6
  8
DEFAULT
 62
     5
 66
     1
 10
0.0
 20
0.0
 30
0.0
 70
     1
  0
VERTEX
  5
B7
  8
DEFAULT
 62
     5
 10
29.54190302570358
 20
64.65257617979614
 30
0.0
  0
VERTEX
  5
B8
  8
DEFAULT
 62
     5
 10
29.54190302570358
 20
65.60936630325293
 30
0.0
  0
VERTEX
  5
B9
  8
DEFAULT
 62
     5
 10
30.49869314916036
 20
65.60936630325293
 30
0.0
  0
VERTEX
  5
BA
  8
DEFAULT
 62
     5
 10
30.49869314916036
 20
64.65257617979614
 30
0.0
  0
SEQEND
  5
BB
  8
DEFAULT
 62
     5
  0
POLYLINE
  5
BC
  8
DEFAULT
 62
     5
 66
     1
 10
0.0
 20
0.0
 30
0.0
 70
     1
  0
VERTEX
  5
BD
  8
DEFAULT
 62
     5
 10
27.8752363590369
 20
66.78220580942578
 30
0.0
 42
0.1931771868552619
  0
VERTEX
  5
BE
  8
DEFAULT
 62
     5
 10
27.65557025846111
 20
67.40310671338153
 30
0.0
 42
0.4344367687048139
  0
VERTEX
  5
BF
  8
DEFAULT
 62
     5
 10
26.6165559065033
 20
67.3912918034333
 30
0.0
 42
0.1974850402976384
  0
VERTEX
  5
C0
  8
DEFAULT
 62
     5
 10
26.41063399313498
 20
66.78220580942578
 30
0.0
  0
SEQEND
  5
C1
  8
DEFAULT
 62
     5
  0
POLYLINE
  5
C2
  8
DEFAULT
 62
     5
 66
     1
 10
0.0
 20
0.0
 30
0.0
 70
     1
  0
VERTEX
  5
C3
  8
DEFAULT
 62
     5
 10
27.81350796397518
 20
65.79455148843812
 30
0.0
  0
VERTEX
  5
C4
  8
DEFAULT
 62
     5
 10
28.77029808743196
 20
65.67109469831466
 30
0.0
 42
-0.1601948643917241
  0
VERTEX
  5
C5
  8
DEFAULT
 62
     5
 10
28.18870093879685
 20
64.84403075076801
 30
0.0
 42
-0.1590209405814328
  0
VERTEX
  5
C6
  8
DEFAULT
 62
     5
 10
27.19381318208971
 20
64.55998358720353
 30
0.0
 42
-0.2510606897924284
  0
VERTEX
  5
C7
  8
DEFAULT
 62
     5
 10
25.79527908429821
 20
65.17919657960135
 30
0.0
 42
-0.1603231689598255
  0
VERTEX
  5
C8
  8
DEFAULT
 62
     5
 10
25.43696475409863
 20
66.43064359641548
 30
0.0
 42
-0.1928988919450498
  0
VERTEX
  5
C9
  8
DEFAULT
 62
     5
 10
25.90933179574164
 20
67.8450918179388
 30
0.0
 42
-0.2186957110499538
  0
VERTEX
  5
CA
  8
DEFAULT
 62
     5
 10
27.1036314207653
 20
68.35627988349984
 30
0.0
 42
-0.2248762650829822
  0
VERTEX
  5
CB
  8
DEFAULT
 62
     5
 10
28.38353133288464
 20
67.82459598449948
 30
0.0
 42
-0.1866850592647335
  0
VERTEX
  5
CC
  8
DEFAULT
 62
     5
 10
28.83202648249371
 20
66.19578605633936
 30
0.0
  0
VERTEX
  5
CD
  8
DEFAULT
 62
     5
 10
26.39375487755542
 20
66.19578605633937
 30
0.0
 42
0.1907233177561267
  0
VERTEX
  5
CE
  8
DEFAULT
 62
     5
 10
26.62981806874437
 20
65.53630502320938
 30
0.0
 42
0.2135192120775374
  0
VERTEX
  5
CF
  8
DEFAULT
 62
     5
 10
27.19236640075432
 20
65.3007243279443
 30
0.0
 42
0.1657236937101064
  0
VERTEX
  5
D0
  8
DEFAULT
 62
     5
 10
27.57744524374371
 20
65.41767083753722
 30
0.0
 42
0.1589948514629171
  0
SEQEND
  5
D1
  8
DEFAULT
 62
     5
  0
POLYLINE
  5
D2
  8
DEFAULT
 62
     5
 66
     1
 10
0.0
 20
0.0
 30
0.0
 70
     1
  0
VERTEX
  5
D3
  8
DEFAULT
 62
     5
 10
24.97400179113568
 20
67.21430457485788
 30
0.0
  0
VERTEX
  5
D4
  8
DEFAULT
 62
     5
 10
24.01721166767888
 20
67.05998358720355
 30
0.0
 42
0.1809968098175544
  0
VERTEX
  5
D5
  8
DEFAULT
 62
     5
 10
23.80357382266723
 20
67.47592709868127
 30
0.0
 42
0.1804760167669796
  0
VERTEX
  5
D6
  8
DEFAULT
 62
     5
 10
23.37147482175638
 20
67.6155391427591
 30
0.0
 42
0.232967483467111
  0
VERTEX
  5
D7
  8
DEFAULT
 62
     5
 10
22.80772107411235
 20
67.36476771442989
 30
0.0
 42
0.1695179555120452
  0
VERTEX
  5
D8
  8
DEFAULT
 62
     5
 10
22.59745858125912
 20
66.52564749123373
 30
0.0
 42
0.1610966817174969
  0
VERTEX
  5
D9
  8
DEFAULT
 62
     5
 10
22.81278480878622
 20
65.60140924138702
 30
0.0
 42
0.2405540491094028
  0
VERTEX
  5
DA
  8
DEFAULT
 62
     5
 10
23.39076523956159
 20
65.33158852547517
 30
0.0
 42
0.188345844186955
  0
VERTEX
  5
DB
  8
DEFAULT
 62
     5
 10
23.83467915042064
 20
65.48446296727283
 30
0.0
 42
0.1622604489948029
  0
VERTEX
  5
DC
  8
DEFAULT
 62
     5
 10
24.07894006274061
 20
66.01060087115417
 30
0.0
  0
VERTEX
  5
DD
  8
DEFAULT
 62
     5
 10
25.03573018619741
 20
65.88714408103071
 30
0.0
 42
-0.1724509721436263
  0
VERTEX
  5
DE
  8
DEFAULT
 62
     5
 10
24.47679904300466
 20
64.89514965151562
 30
0.0
 42
-0.1746967243539332
  0
VERTEX
  5
DF
  8
DEFAULT
 62
     5
 10
23.36858173004308
 20
64.55998358720356
 30
0.0
 42
-0.2163976905724344
  0
VERTEX
  5
E0
  8
DEFAULT
 62
     5
 10
22.109900806552
 20
65.06273256593228
 30
0.0
 42
-0.1943870566321051
  0
VERTEX
  5
E1
  8
DEFAULT
 62
     5
 10
21.64066845780234
 20
66.45475614771452
 30
0.0
 42
-0.1945054615972487
  0
VERTEX
  5
E2
  8
DEFAULT
 62
     5
 10
22.10965967632943
 20
67.8552190518078
 30
0.0
 42
-0.2157801631579826
  0
VERTEX
  5
E3
  8
DEFAULT
 62
     5
 10
23.37822646798821
 20
68.35627988349987
 30
0.0
 42
-0.1599423076957884
  0
VERTEX
  5
E4
  8
DEFAULT
 62
     5
 10
24.41892873150399
 20
68.07416199719465
 30
0.0
 42
-0.168263569712632
  0
SEQEND
  5
E5
  8
DEFAULT
 62
     5
  0
POLYLINE
  5
E6
  8
DEFAULT
 62
     5
 66
     1
 10
0.0
 20
0.0
 30
0.0
 70
     1
  0
VERTEX
  5
E7
  8
DEFAULT
 62
     5
 10
19.91227339607394
 20
66.38097124152453
 30
0.0
  0
VERTEX
  5
E8
  8
DEFAULT
 62
     5
 10
19.35527129466173
 20
66.23484868143743
 30
0.0
  0
VERTEX
  5
E9
  8
DEFAULT
 62
     5
 10
18.85710402564047
 20
66.06847165361232
 30
0.0
 42
0.2517191883486221
  0
VERTEX
  5
EA
  8
DEFAULT
 62
     5
 10
18.67770549483937
 20
65.73185904344359
 30
0.0
 42
0.4298150945544518
  0
VERTEX
  5
EB
  8
DEFAULT
 62
     5
 10
19.18600046868711
 20
65.23899593288256
 30
0.0
 42
0.1670482644846221
  0
VERTEX
  5
EC
  8
DEFAULT
 62
     5
 10
19.65812638010755
 20
65.40874925478103
 30
0.0
 42
0.1651612454991346
  0
VERTEX
  5
ED
  8
DEFAULT
 62
     5
 10
19.87658706504925
 20
65.72510739721177
 30
0.0
  0
VERTEX
  5
EE
  8
DEFAULT
 62
     5
 10
19.91227339607394
 20
66.19048166240039
 30
0.0
  0
SEQEND
  5
EF
  8
DEFAULT
 62
     5
  0
POLYLINE
  5
F0
  8
DEFAULT
 62
     5
 66
     1
 10
0.0
 20
0.0
 30
0.0
 70
     1
  0
VERTEX
  5
F1
  8
DEFAULT
 62
     5
 10
18.70856969237024
 20
67.15257617979614
 30
0.0
  0
VERTEX
  5
F2
  8
DEFAULT
 62
     5
 10
17.84437216150604
 20
67.2760329699196
 30
0.0
 42
-0.1714833175990263
  0
VERTEX
  5
F3
  8
DEFAULT
 62
     5
 10
18.33795842725604
 20
68.09152313774058
 30
0.0
 42
-0.1608829132837535
  0
VERTEX
  5
F4
  8
DEFAULT
 62
     5
 10
19.37841956054925
 20
68.35627988349985
 30
0.0
 42
-0.1088364278881123
  0
VERTEX
  5
F5
  8
DEFAULT
 62
     5
 10
20.31206141811852
 20
68.20461132829374
 30
0.0
 42
-0.1580303644335476
  0
VERTEX
  5
F6
  8
DEFAULT
 62
     5
 10
20.74391905332806
 20
67.81929111960306
 30
0.0
 42
-0.1088017057953463
  0
VERTEX
  5
F7
  8
DEFAULT
 62
     5
 10
20.86906351953073
 20
66.96160434022686
 30
0.0
  0
VERTEX
  5
F8
  8
DEFAULT
 62
     5
 10
20.86906351953073
 20
65.84277706199367
 30
0.0
  0
VERTEX
  5
F9
  8
DEFAULT
 62
     5
 10
20.92114694116859
 20
65.13844627842406
 30
0.0
  0
VERTEX
  5
FA
  8
DEFAULT
 62
     5
 10
21.11597709977764
 20
64.65257617979614
 30
0.0
  0
VERTEX
  5
FB
  8
DEFAULT
 62
     5
 10
20.15918697632086
 20
64.65257617979614
 30
0.0
  0
VERTEX
  5
FC
  8
DEFAULT
 62
     5
 10
20.06755890461853
 20
64.93228299935444
 30
0.0
  0
VERTEX
  5
FD
  8
DEFAULT
 62
     5
 10
20.03380161537434
 20
65.0436837493071
 30
0.0
 42
-0.093324418673817
  0
VERTEX
  5
FE
  8
DEFAULT
 62
     5
 10
19.51152108861784
 20
64.68102931058009
 30
0.0
 42
-0.1040133466925799
  0
VERTEX
  5
FF
  8
DEFAULT
 62
     5
 10
18.91786789981193
 20
64.55998358720355
 30
0.0
 42
-0.1965430357596574
  0
VERTEX
  5
100
  8
DEFAULT
 62
     5
 10
18.04137272759691
 20
64.86259754242678
 30
0.0
 42
-0.2154369487651334
  0
VERTEX
  5
101
  8
DEFAULT
 62
     5
 10
17.72091537138259
 20
65.62769220016787
 30
0.0
 42
-0.1373780248024411
  0
VERTEX
  5
102
  8
DEFAULT
 62
     5
 10
17.86366234383252
 20
66.17360254682083
 30
0.0
 42
-0.1473783213971604
  0
VERTEX
  5
103
  8
DEFAULT
 62
     5
 10
18.26369149609966
 20
66.54083822429787
 30
0.0
  0
VERTEX
  5
104
  8
DEFAULT
 62
     5
 10
19.00563788795323
 20
66.76339812302317
 30
0.0
  0
VERTEX
  5
105
  8
DEFAULT
 62
     5
 10
19.91227339607394
 20
66.99825519214183
 30
0.0
  0
VERTEX
  5
106
  8
DEFAULT
 62
     5
 10
19.91227339607394
 20
67.09518812874059
 30
0.0
 42
0.2070921599656337
  0
VERTEX
  5
107
  8
DEFAULT
 62
     5
 10
19.78423536720049
 20
67.49594043619669
 30
0.0
 42
0.177788743270765
  0
VERTEX
  5
108
  8
DEFAULT
 62
     5
 10
19.30077657079822
 20
67.6155391427591
 30
0.0
 42
0.1651091138039242
  0
VERTEX
  5
109
  8
DEFAULT
 62
     5
 10
18.92630722212298
 20
67.51281931629751
 30
0.0
 42
0.1491587679877574
  0
SEQEND
  5
10A
  8
DEFAULT
 62
     5
  0
POLYLINE
  5
10B
  8
DEFAULT
 62
     5
 66
     1
 10
0.0
 20
0.0
 30
0.0
 70
     1
  0
VERTEX
  5
10C
  8
DEFAULT
 62
     5
 10
14.72708821088876
 20
66.5188958450019
 30
0.0
 42
0.1662127852120698
  0
VERTEX
  5
10D
  8
DEFAULT
 62
     5
 10
14.96387455726666
 20
65.59827454849368
 30
0.0
 42
0.2404461653497502
  0
VERTEX
  5
10E
  8
DEFAULT
 62
     5
 10
15.54064933692922
 20
65.3007243279443
 30
0.0
 42
0.2413239634427093
  0
VERTEX
  5
10F
  8
DEFAULT
 62
     5
 10
16.08438974705782
 20
65.57392086697206
 30
0.0
 42
0.1627449374921736
  0
VERTEX
  5
110
  8
DEFAULT
 62
     5
 10
16.30116228496284
 20
66.47018848195869
 30
0.0
 42
0.1661976731382077
  0
VERTEX
  5
111
  8
DEFAULT
 62
     5
 10
16.077638100826
 20
67.33366238667644
 30
0.0
 42
0.241237766796074
  0
VERTEX
  5
112
  8
DEFAULT
 62
     5
 10
15.52425295275226
 20
67.6155391427591
 30
0.0
 42
0.2367422129321908
  0
VERTEX
  5
113
  8
DEFAULT
 62
     5
 10
14.95374732339768
 20
67.33872588587157
 30
0.0
 42
0.172344780998901
  0
SEQEND
  5
114
  8
DEFAULT
 62
     5
  0
POLYLINE
  5
115
  8
DEFAULT
 62
     5
 66
     1
 10
0.0
 20
0.0
 30
0.0
 70
     1
  0
VERTEX
  5
116
  8
DEFAULT
 62
     5
 10
13.77029808743197
 20
68.26368729090726
 30
0.0
  0
VERTEX
  5
117
  8
DEFAULT
 62
     5
 10
14.66535981582703
 20
68.26368729090726
 30
0.0
  0
VERTEX
  5
118
  8
DEFAULT
 62
     5
 10
14.66535981582703
 20
67.7370673620595
 30
0.0
 42
-0.1189653659007446
  0
VERTEX
  5
119
  8
DEFAULT
 62
     5
 10
15.12759962360103
 20
68.18170442810752
 30
0.0
 42
-0.1382105598910191
  0
VERTEX
  5
11A
  8
DEFAULT
 62
     5
 10
15.77406009566996
 20
68.35627988349987
 30
0.0
 42
-0.2273648758850117
  0
VERTEX
  5
11B
  8
DEFAULT
 62
     5
 10
16.82585364298752
 20
67.86028278648166
 30
0.0
 42
-0.1838682188936152
  0
VERTEX
  5
11C
  8
DEFAULT
 62
     5
 10
17.25795240841962
 20
66.47886869901356
 30
0.0
 42
-0.1823656645300182
  0
VERTEX
  5
11D
  8
DEFAULT
 62
     5
 10
16.82223692512778
 20
65.06442047749024
 30
0.0
 42
-0.2285594541574772
  0
VERTEX
  5
11E
  8
DEFAULT
 62
     5
 10
15.76634392854788
 20
64.55998358720355
 30
0.0
 42
-0.116319800680804
  0
VERTEX
  5
11F
  8
DEFAULT
 62
     5
 10
15.23152510117545
 20
64.67813574790932
 30
0.0
 42
-0.0904152380777453
  0
VERTEX
  5
120
  8
DEFAULT
 62
     5
 10
14.72708821088876
 20
65.08322863485031
 30
0.0
  0
VERTEX
  5
121
  8
DEFAULT
 62
     5
 10
14.72708821088876
 20
63.26368729090726
 30
0.0
  0
VERTEX
  5
122
  8
DEFAULT
 62
     5
 10
13.77029808743197
 20
63.26368729090726
 30
0.0
  0
SEQEND
  5
123
  8
DEFAULT
 62
     5
  0
POLYLINE
  5
124
  8
DEFAULT
 62
     5
 66
     1
 10
0.0
 20
0.0
 30
0.0
 70
     1
  0
VERTEX
  5
125
  8
DEFAULT
 62
     5
 10
9.572767223234436
 20
65.67109469831466
 30
0.0
  0
VERTEX
  5
126
  8
DEFAULT
 62
     5
 10
10.52955734669123
 20
65.79455148843812
 30
0.0
 42
0.1817134537413021
  0
VERTEX
  5
127
  8
DEFAULT
 62
     5
 10
10.77719455308457
 20
65.3802961239971
 30
0.0
 42
0.1637490318832528
  0
VERTEX
  5
128
  8
DEFAULT
 62
     5
 10
11.29875145369465
 20
65.23899593288256
 30
0.0
 42
0.158154859031623
  0
VERTEX
  5
129
  8
DEFAULT
 62
     5
 10
11.85478926969533
 20
65.37740279680506
 30
0.0
 42
0.2454173628753004
  0
VERTEX
  5
12A
  8
DEFAULT
 62
     5
 10
11.98017463064184
 20
65.63685514862536
 30
0.0
  0
VERTEX
  5
12B
  8
DEFAULT
 62
     5
 10
11.91217732075089
 20
65.82011129203002
 30
0.0
  0
VERTEX
  5
12C
  8
DEFAULT
 62
     5
 10
11.59196109475913
 20
65.94790842615964
 30
0.0
 42
-0.0750101977649255
  0
VERTEX
  5
12D
  8
DEFAULT
 62
     5
 10
10.12494742663155
 20
66.42003386662263
 30
0.0
 42
-0.2630575377237323
  0
VERTEX
  5
12E
  8
DEFAULT
 62
     5
 10
9.696224013357902
 20
67.2388998575595
 30
0.0
 42
-0.2278055359033947
  0
VERTEX
  5
12F
  8
DEFAULT
 62
     5
 10
10.06683551395083
 20
68.03413485120628
 30
0.0
 42
-0.1789409577799125
  0
VERTEX
  5
130
  8
DEFAULT
 62
     5
 10
11.21580359904719
 20
68.35627988349985
 30
0.0
 42
-0.1478680227512771
  0
VERTEX
  5
131
  8
DEFAULT
 62
     5
 10
12.31726973673443
 20
68.10671410628345
 30
0.0
 42
-0.1798681362132253
  0
VERTEX
  5
132
  8
DEFAULT
 62
     5
 10
12.81350796397517
 20
67.3686255625122
 30
0.0
  0
VERTEX
  5
133
  8
DEFAULT
 62
     5
 10
11.91844623558012
 20
67.21430457485788
 30
0.0
 42
0.1762609448243997
  0
VERTEX
  5
134
  8
DEFAULT
 62
     5
 10
11.69950352567202
 20
67.55790996148099
 30
0.0
 42
0.1598214678236433
  0
VERTEX
  5
135
  8
DEFAULT
 62
     5
 10
11.23943388990111
 20
67.67726753782084
 30
0.0
 42
0.1371855487857244
  0
VERTEX
  5
136
  8
DEFAULT
 62
     5
 10
10.69979292903484
 20
67.5702076028318
 30
0.0
 42
0.2593740206710667
  0
VERTEX
  5
137
  8
DEFAULT
 62
     5
 10
10.59128574175296
 20
67.37296590651836
 30
0.0
  0
VERTEX
  5
138
  8
DEFAULT
 62
     5
 10
10.6862896365712
 20
67.19646140934552
 30
0.0
 42
0.0664798749578962
  0
VERTEX
  5
139
  8
DEFAULT
 62
     5
 10
11.57604673554857
 20
66.92326510579647
 30
0.0
 42
-0.1095214193377412
  0
VERTEX
  5
13A
  8
DEFAULT
 62
     5
 10
12.63845024813772
 20
66.49381877281259
 30
0.0
 42
-0.2284114958797809
  0
VERTEX
  5
13B
  8
DEFAULT
 62
     5
 10
12.93696475409863
 20
65.77863736470628
 30
0.0
 42
-0.2276229810650902
  0
VERTEX
  5
13C
  8
DEFAULT
 62
     5
 10
12.52319165010276
 20
64.91926220281466
 30
0.0
 42
-0.1809722242825329
  0
VERTEX
  5
13D
  8
DEFAULT
 62
     5
 10
11.29875145369465
 20
64.55998358720353
 30
0.0
 42
-0.1534212868272024
  0
VERTEX
  5
13E
  8
DEFAULT
 62
     5
 10
10.133868773909
 20
64.85898058908832
 30
0.0
 42
-0.1853542620165991
  0
SEQEND
  5
13F
  8
DEFAULT
 62
     5
  0
POLYLINE
  5
140
  8
DEFAULT
 62
     5
 66
     1
 10
0.0
 20
0.0
 30
0.0
 70
     1
  0
VERTEX
  5
141
  8
DEFAULT
 62
     5
 10
8.955483272617158
 20
64.65257617979614
 30
0.0
  0
VERTEX
  5
142
  8
DEFAULT
 62
     5
 10
7.998693149160367
 20
64.65257617979614
 30
0.0
  0
VERTEX
  5
143
  8
DEFAULT
 62
     5
 10
7.998693149160367
 20
66.49623007503824
 30
0.0
  0
VERTEX
  5
144
  8
DEFAULT
 62
     5
 10
7.93841153543403
 20
67.25336743543468
 30
0.0
 42
0.3361246103438002
  0
VERTEX
  5
145
  8
DEFAULT
 62
     5
 10
7.416613740080116
 20
67.6155391427591
 30
0.0
 42
0.1576987046344867
  0
VERTEX
  5
146
  8
DEFAULT
 62
     5
 10
6.978486954562622
 20
67.479543816541
 30
0.0
 42
0.1684371822617512
  0
VERTEX
  5
147
  8
DEFAULT
 62
     5
 10
6.712524322211797
 20
67.11905978529579
 30
0.0
 42
0.0659809918576598
  0
VERTEX
  5
148
  8
DEFAULT
 62
     5
 10
6.640668457802342
 20
66.28886090937708
 30
0.0
  0
VERTEX
  5
149
  8
DEFAULT
 62
     5
 10
6.640668457802342
 20
64.65257617979614
 30
0.0
  0
VERTEX
  5
14A
  8
DEFAULT
 62
     5
 10
5.68387833434555
 20
64.65257617979614
 30
0.0
  0
VERTEX
  5
14B
  8
DEFAULT
 62
     5
 10
5.68387833434555
 20
68.26368729090726
 30
0.0
  0
VERTEX
  5
14C
  8
DEFAULT
 62
     5
 10
6.578940062740614
 20
68.26368729090726
 30
0.0
  0
VERTEX
  5
14D
  8
DEFAULT
 62
     5
 10
6.578940062740616
 20
67.73706736205949
 30
0.0
 42
-0.248629612198844
  0
VERTEX
  5
14E
  8
DEFAULT
 62
     5
 10
7.755637652474491
 20
68.35627988349987
 30
0.0
 42
-0.1053164015607991
  0
VERTEX
  5
14F
  8
DEFAULT
 62
     5
 10
8.32686643701805
 20
68.24198604183387
 30
0.0
 42
-0.1292191717088561
  0
VERTEX
  5
150
  8
DEFAULT
 62
     5
 10
8.718456031495407
 20
67.9504640768486
 30
0.0
  0
VERTEX
  5
151
  8
DEFAULT
 62
     5
 10
8.903400086458028
 20
67.54802385783455
 30
0.0
  0
VERTEX
  5
152
  8
DEFAULT
 62
     5
 10
8.955483272617158
 20
66.90325176828104
 30
0.0
  0
SEQEND
  5
153
  8
DEFAULT
 62
     5
  0
POLYLINE
  5
154
  8
DEFAULT
 62
     5
 66
     1
 10
0.0
 20
0.0
 30
0.0
 70
     1
  0
VERTEX
  5
155
  8
DEFAULT
 62
     5
 10
3.739433889901107
 20
66.38097124152453
 30
0.0
  0
VERTEX
  5
156
  8
DEFAULT
 62
     5
 10
3.182431788488891
 20
66.23484868143743
 30
0.0
  0
VERTEX
  5
157
  8
DEFAULT
 62
     5
 10
2.68426451946762
 20
66.06847165361233
 30
0.0
 42
0.2517191883485902
  0
VERTEX
  5
158
  8
DEFAULT
 62
     5
 10
2.504865988666535
 20
65.73185904344359
 30
0.0
 42
0.429815094554479
  0
VERTEX
  5
159
  8
DEFAULT
 62
     5
 10
3.01316096251427
 20
65.23899593288257
 30
0.0
 42
0.1670482644846303
  0
VERTEX
  5
15A
  8
DEFAULT
 62
     5
 10
3.485286873934707
 20
65.40874925478103
 30
0.0
 42
0.1651612454991331
  0
VERTEX
  5
15B
  8
DEFAULT
 62
     5
 10
3.703747558876406
 20
65.72510739721177
 30
0.0
  0
VERTEX
  5
15C
  8
DEFAULT
 62
     5
 10
3.739433889901107
 20
66.19048166240039
 30
0.0
  0
SEQEND
  5
15D
  8
DEFAULT
 62
     5
  0
POLYLINE
  5
15E
  8
DEFAULT
 62
     5
 66
     1
 10
0.0
 20
0.0
 30
0.0
 70
     1
  0
VERTEX
  5
15F
  8
DEFAULT
 62
     5
 10
2.535730186197405
 20
67.15257617979614
 30
0.0
  0
VERTEX
  5
160
  8
DEFAULT
 62
     5
 10
1.671532655333202
 20
67.2760329699196
 30
0.0
 42
-0.1714833175990119
  0
VERTEX
  5
161
  8
DEFAULT
 62
     5
 10
2.165118921083195
 20
68.09152313774058
 30
0.0
 42
-0.1608829132837547
  0
VERTEX
  5
162
  8
DEFAULT
 62
     5
 10
3.205580054376405
 20
68.35627988349985
 30
0.0
 42
-0.1088364278881136
  0
VERTEX
  5
163
  8
DEFAULT
 62
     5
 10
4.139221911945686
 20
68.20461132829374
 30
0.0
 42
-0.1580303644335583
  0
VERTEX
  5
164
  8
DEFAULT
 62
     5
 10
4.571079547155216
 20
67.81929111960306
 30
0.0
 42
-0.1088017057953545
  0
VERTEX
  5
165
  8
DEFAULT
 62
     5
 10
4.696224013357901
 20
66.96160434022686
 30
0.0
  0
VERTEX
  5
166
  8
DEFAULT
 62
     5
 10
4.696224013357899
 20
65.84277706199367
 30
0.0
  0
VERTEX
  5
167
  8
DEFAULT
 62
     5
 10
4.748307434995752
 20
65.13844627842406
 30
0.0
  0
VERTEX
  5
168
  8
DEFAULT
 62
     5
 10
4.94313759360481
 20
64.65257617979614
 30
0.0
  0
VERTEX
  5
169
  8
DEFAULT
 62
     5
 10
3.986347470148019
 20
64.65257617979614
 30
0.0
  0
VERTEX
  5
16A
  8
DEFAULT
 62
     5
 10
3.894719398445687
 20
64.93228299935444
 30
0.0
  0
VERTEX
  5
16B
  8
DEFAULT
 62
     5
 10
3.860962109201512
 20
65.04368374930709
 30
0.0
 42
-0.0933244186738108
  0
VERTEX
  5
16C
  8
DEFAULT
 62
     5
 10
3.338681582444998
 20
64.68102931058009
 30
0.0
 42
-0.1040133466925818
  0
VERTEX
  5
16D
  8
DEFAULT
 62
     5
 10
2.745028393639096
 20
64.55998358720355
 30
0.0
 42
-0.1965430357596576
  0
VERTEX
  5
16E
  8
DEFAULT
 62
     5
 10
1.868533221424087
 20
64.86259754242681
 30
0.0
 42
-0.2154369487651218
  0
VERTEX
  5
16F
  8
DEFAULT
 62
     5
 10
1.548075865209743
 20
65.62769220016787
 30
0.0
 42
-0.1373780248024459
  0
VERTEX
  5
170
  8
DEFAULT
 62
     5
 10
1.69082283765968
 20
66.17360254682083
 30
0.0
 42
-0.1473783213971373
  0
VERTEX
  5
171
  8
DEFAULT
 62
     5
 10
2.090851989926816
 20
66.54083822429786
 30
0.0
  0
VERTEX
  5
172
  8
DEFAULT
 62
     5
 10
2.832798381780385
 20
66.76339812302317
 30
0.0
  0
VERTEX
  5
173
  8
DEFAULT
 62
     5
 10
3.739433889901107
 20
66.99825519214183
 30
0.0
  0
VERTEX
  5
174
  8
DEFAULT
 62
     5
 10
3.739433889901107
 20
67.09518812874059
 30
0.0
 42
0.2070921599656357
  0
VERTEX
  5
175
  8
DEFAULT
 62
     5
 10
3.611395861027642
 20
67.49594043619669
 30
0.0
 42
0.1777887432707611
  0
VERTEX
  5
176
  8
DEFAULT
 62
     5
 10
3.127937064625386
 20
67.6155391427591
 30
0.0
 42
0.1651091138039148
  0
VERTEX
  5
177
  8
DEFAULT
 62
     5
 10
2.753467715950135
 20
67.51281931629751
 30
0.0
 42
0.1491587679877575
  0
SEQEND
  5
178
  8
DEFAULT
 62
     5
  0
POLYLINE
  5
179
  8
DEFAULT
 62
     5
 66
     1
 10
0.0
 20
0.0
 30
0.0
 70
     1
  0
VERTEX
  5
17A
  8
DEFAULT
 62
     5
 10
-4.408714258247045
 20
68.26368729090726
 30
0.0
  0
VERTEX
  5
17B
  8
DEFAULT
 62
     5
 10
-3.544516727382842
 20
68.26368729090726
 30
0.0
  0
VERTEX
  5
17C
  8
DEFAULT
 62
     5
 10
-3.54451672738284
 20
67.7742004744196
 30
0.0
 42
-0.2373869490350259
  0
VERTEX
  5
17D
  8
DEFAULT
 62
     5
 10
-2.421349105143477
 20
68.35627988349985
 30
0.0
 42
-0.1315120310734479
  0
VERTEX
  5
17E
  8
DEFAULT
 62
     5
 10
-1.821185164849582
 20
68.21160410474812
 30
0.0
 42
-0.1393853272244978
  0
VERTEX
  5
17F
  8
DEFAULT
 62
     5
 10
-1.403795107515224
 20
67.7742004744196
 30
0.0
 42
-0.1018343532165679
  0
VERTEX
  5
180
  8
DEFAULT
 62
     5
 10
-0.8930890669205738
 20
68.21160410474813
 30
0.0
 42
-0.1239296679571086
  0
VERTEX
  5
181
  8
DEFAULT
 62
     5
 10
-0.3081158596908082
 20
68.35627988349985
 30
0.0
 42
-0.1355305589141882
  0
VERTEX
  5
182
  8
DEFAULT
 62
     5
 10
0.3617335375307286
 20
68.19424296420216
 30
0.0
 42
-0.1623661969580475
  0
VERTEX
  5
183
  8
DEFAULT
 62
     5
 10
0.7711665329991803
 20
67.71874146514456
 30
0.0
 42
-0.0915442810314413
  0
VERTEX
  5
184
  8
DEFAULT
 62
     5
 10
0.8690635195307328
 20
66.96835551550122
 30
0.0
  0
VERTEX
  5
185
  8
DEFAULT
 62
     5
 10
0.8690635195307337
 20
64.65257617979614
 30
0.0
  0
VERTEX
  5
186
  8
DEFAULT
 62
     5
 10
-0.0877266039260576
 20
64.65257617979614
 30
0.0
  0
VERTEX
  5
187
  8
DEFAULT
 62
     5
 10
-0.0877266039260582
 20
66.71758432265072
 30
0.0
 42
0.1141470137910631
  0
VERTEX
  5
188
  8
DEFAULT
 62
     5
 10
-0.1851413300124806
 20
67.4115462711713
 30
0.0
 42
0.2721000606533834
  0
VERTEX
  5
189
  8
DEFAULT
 62
     5
 10
-0.5887872001393645
 20
67.61553914275908
 30
0.0
 42
0.1575639071466632
  0
VERTEX
  5
18A
  8
DEFAULT
 62
     5
 10
-0.9618102384366767
 20
67.4930468735259
 30
0.0
 42
0.1657627374474187
  0
VERTEX
  5
18B
  8
DEFAULT
 62
     5
 10
-1.214028683580034
 20
67.13425075383866
 30
0.0
 42
0.0723437487254968
  0
VERTEX
  5
18C
  8
DEFAULT
 62
     5
 10
-1.291430307629758
 20
66.38772288775635
 30
0.0
  0
VERTEX
  5
18D
  8
DEFAULT
 62
     5
 10
-1.29143030762976
 20
64.65257617979614
 30
0.0
  0
VERTEX
  5
18E
  8
DEFAULT
 62
     5
 10
-2.248220431086551
 20
64.65257617979614
 30
0.0
  0
VERTEX
  5
18F
  8
DEFAULT
 62
     5
 10
-2.248220431086551
 20
66.63222516577763
 30
0.0
  0
VERTEX
  5
190
  8
DEFAULT
 62
     5
 10
-2.298133445242584
 20
67.31292542301459
 30
0.0
  0
VERTEX
  5
191
  8
DEFAULT
 62
     5
 10
-2.453177588085872
 20
67.54078995115759
 30
0.0
  0
VERTEX
  5
192
  8
DEFAULT
 62
     5
 10
-2.738189508019332
 20
67.6155391427591
 30
0.0
 42
0.3306618495400707
  0
VERTEX
  5
193
  8
DEFAULT
 62
     5
 10
-3.376933577487461
 20
67.15281754549744
 30
0.0
 42
0.07226985949624
  0
VERTEX
  5
194
  8
DEFAULT
 62
     5
 10
-3.451924134790257
 20
66.40797782645183
 30
0.0
  0
VERTEX
  5
195
  8
DEFAULT
 62
     5
 10
-3.451924134790254
 20
64.65257617979614
 30
0.0
  0
VERTEX
  5
196
  8
DEFAULT
 62
     5
 10
-4.408714258247045
 20
64.65257617979614
 30
0.0
  0
SEQEND
  5
197
  8
DEFAULT
 62
     5
  0
POLYLINE
  5
198
  8
DEFAULT
 62
     5
 66
     1
 10
0.0
 20
0.0
 30
0.0
 70
     1
  0
VERTEX
  5
199
  8
DEFAULT
 62
     5
 10
-8.513652529851981
 20
65.67109469831466
 30
0.0
  0
VERTEX
  5
19A
  8
DEFAULT
 62
     5
 10
-7.556862406395189
 20
65.79455148843812
 30
0.0
 42
0.1817134537413012
  0
VERTEX
  5
19B
  8
DEFAULT
 62
     5
 10
-7.309225200001848
 20
65.38029612399708
 30
0.0
 42
0.1637490318832477
  0
VERTEX
  5
19C
  8
DEFAULT
 62
     5
 10
-6.787668299391768
 20
65.23899593288256
 30
0.0
 42
0.1581548590316339
  0
VERTEX
  5
19D
  8
DEFAULT
 62
     5
 10
-6.231630483391089
 20
65.37740279680506
 30
0.0
 42
0.2454173628753013
  0
VERTEX
  5
19E
  8
DEFAULT
 62
     5
 10
-6.106245122444567
 20
65.63685514862536
 30
0.0
  0
VERTEX
  5
19F
  8
DEFAULT
 62
     5
 10
-6.174242432335525
 20
65.82011129203002
 30
0.0
  0
VERTEX
  5
1A0
  8
DEFAULT
 62
     5
 10
-6.494458658327289
 20
65.94790842615964
 30
0.0
 42
-0.0750101977649276
  0
VERTEX
  5
1A1
  8
DEFAULT
 62
     5
 10
-7.961472326454865
 20
66.42003386662262
 30
0.0
 42
-0.263057537723732
  0
VERTEX
  5
1A2
  8
DEFAULT
 62
     5
 10
-8.390195739728531
 20
67.2388998575595
 30
0.0
 42
-0.2278055359033895
  0
VERTEX
  5
1A3
  8
DEFAULT
 62
     5
 10
-8.019584239135586
 20
68.03413485120628
 30
0.0
 42
-0.1789409577799135
  0
VERTEX
  5
1A4
  8
DEFAULT
 62
     5
 10
-6.870616154039227
 20
68.35627988349985
 30
0.0
 42
-0.1478680227512771
  0
VERTEX
  5
1A5
  8
DEFAULT
 62
     5
 10
-5.769150016351993
 20
68.10671410628345
 30
0.0
 42
-0.1798681362132337
  0
VERTEX
  5
1A6
  8
DEFAULT
 62
     5
 10
-5.272911789111239
 20
67.3686255625122
 30
0.0
  0
VERTEX
  5
1A7
  8
DEFAULT
 62
     5
 10
-6.167973517506302
 20
67.21430457485788
 30
0.0
 42
0.1762609448243884
  0
VERTEX
  5
1A8
  8
DEFAULT
 62
     5
 10
-6.3869162274144
 20
67.55790996148099
 30
0.0
 42
0.1598214678236456
  0
VERTEX
  5
1A9
  8
DEFAULT
 62
     5
 10
-6.84698586318531
 20
67.67726753782082
 30
0.0
 42
0.1371855487857323
  0
VERTEX
  5
1AA
  8
DEFAULT
 62
     5
 10
-7.386626824051578
 20
67.5702076028318
 30
0.0
 42
0.2593740206710629
  0
VERTEX
  5
1AB
  8
DEFAULT
 62
     5
 10
-7.495134011333461
 20
67.37296590651836
 30
0.0
  0
VERTEX
  5
1AC
  8
DEFAULT
 62
     5
 10
-7.400130116515221
 20
67.19646140934552
 30
0.0
 42
0.0664798749578933
  0
VERTEX
  5
1AD
  8
DEFAULT
 62
     5
 10
-6.510373017537852
 20
66.92326510579647
 30
0.0
 42
-0.1095214193377406
  0
VERTEX
  5
1AE
  8
DEFAULT
 62
     5
 10
-5.447969504948694
 20
66.4938187728126
 30
0.0
 42
-0.2284114958797676
  0
VERTEX
  5
1AF
  8
DEFAULT
 62
     5
 10
-5.149454998987783
 20
65.77863736470628
 30
0.0
 42
-0.227622981065093
  0
VERTEX
  5
1B0
  8
DEFAULT
 62
     5
 10
-5.563228102983665
 20
64.91926220281466
 30
0.0
 42
-0.1809722242825348
  0
VERTEX
  5
1B1
  8
DEFAULT
 62
     5
 10
-6.787668299391768
 20
64.55998358720355
 30
0.0
 42
-0.1534212868272027
  0
VERTEX
  5
1B2
  8
DEFAULT
 62
     5
 10
-7.95255097917742
 20
64.85898058908832
 30
0.0
 42
-0.1853542620166108
  0
SEQEND
  5
1B3
  8
DEFAULT
 62
     5
  0
POLYLINE
  5
1B4
  8
DEFAULT
 62
     5
 66
     1
 10
0.0
 20
0.0
 30
0.0
 70
     1
  0
VERTEX
  5
1B5
  8
DEFAULT
 62
     5
 10
-8.82229450516062
 20
68.26368729090726
 30
0.0
  0
VERTEX
  5
1B6
  8
DEFAULT
 62
     5
 10
-8.82229450516062
 20
67.52294655016651
 30
0.0
  0
VERTEX
  5
1B7
  8
DEFAULT
 62
     5
 10
-9.470442653308773
 20
67.52294655016651
 30
0.0
  0
VERTEX
  5
1B8
  8
DEFAULT
 62
     5
 10
-9.470442653308773
 20
66.03182033073989
 30
0.0
  0
VERTEX
  5
1B9
  8
DEFAULT
 62
     5
 10
-9.452116991872558
 20
65.50399404434313
 30
0.0
  0
VERTEX
  5
1BA
  8
DEFAULT
 62
     5
 10
-9.3694105029264
 20
65.3802961239971
 30
0.0
  0
VERTEX
  5
1BB
  8
DEFAULT
 62
     5
 10
-9.211954822378729
 20
65.33158852547515
 30
0.0
  0
VERTEX
  5
1BC
  8
DEFAULT
 62
     5
 10
-8.83772636844732
 20
65.42273480768982
 30
0.0
  0
VERTEX
  5
1BD
  8
DEFAULT
 62
     5
 10
-8.760566110098893
 20
64.69887271157117
 30
0.0
 42
-0.1009135694951038
  0
VERTEX
  5
1BE
  8
DEFAULT
 62
     5
 10
-9.505164463443208
 20
64.55998358720355
 30
0.0
  0
VERTEX
  5
1BF
  8
DEFAULT
 62
     5
 10
-9.964510708546426
 20
64.64775381082357
 30
0.0
 42
-0.1427327602514036
  0
VERTEX
  5
1C0
  8
DEFAULT
 62
     5
 10
-10.26471336154402
 20
64.87465405355505
 30
0.0
  0
VERTEX
  5
1C1
  8
DEFAULT
 62
     5
 10
-10.39685036872236
 20
65.25105244401081
 30
0.0
  0
VERTEX
  5
1C2
  8
DEFAULT
 62
     5
 10
-10.42723277676556
 20
65.93151157102523
 30
0.0
  0
VERTEX
  5
1C3
  8
DEFAULT
 62
     5
 10
-10.42723277676556
 20
67.52294655016651
 30
0.0
  0
VERTEX
  5
1C4
  8
DEFAULT
 62
     5
 10
-10.89019573972852
 20
67.52294655016651
 30
0.0
  0
VERTEX
  5
1C5
  8
DEFAULT
 62
     5
 10
-10.89019573972852
 20
68.26368729090726
 30
0.0
  0
VERTEX
  5
1C6
  8
DEFAULT
 62
     5
 10
-10.42723277676556
 20
68.26368729090726
 30
0.0
  0
VERTEX
  5
1C7
  8
DEFAULT
 62
     5
 10
-10.42723277676556
 20
68.94269963658627
 30
0.0
  0
VERTEX
  5
1C8
  8
DEFAULT
 62
     5
 10
-9.470442653308773
 20
69.49825519214183
 30
0.0
  0
VERTEX
  5
1C9
  8
DEFAULT
 62
     5
 10
-9.470442653308773
 20
68.26368729090726
 30
0.0
  0
SEQEND
  5
1CA
  8
DEFAULT
 62
     5
  0
POLYLINE
  5
1CB
  8
DEFAULT
 62
     5
 66
     1
 10
0.0
 20
0.0
 30
0.0
 70
     1
  0
VERTEX
  5
1CC
  8
DEFAULT
 62
     5
 10
-13.17414635701248
 20
68.26368729090726
 30
0.0
  0
VERTEX
  5
1CD
  8
DEFAULT
 62
     5
 10
-12.68031919651865
 20
68.26368729090726
 30
0.0
  0
VERTEX
  5
1CE
  8
DEFAULT
 62
     5
 10
-12.68031919651864
 20
68.53423163296554
 30
0.0
 42
-0.0950504639922822
  0
VERTEX
  5
1CF
  8
DEFAULT
 62
     5
 10
-12.58483304125527
 20
69.21035041597378
 30
0.0
 42
-0.1716707163023888
  0
VERTEX
  5
1D0
  8
DEFAULT
 62
     5
 10
-12.23302922706495
 20
69.57396914011233
 30
0.0
 42
-0.1257658996646366
  0
VERTEX
  5
1D1
  8
DEFAULT
 62
     5
 10
-11.58463994869424
 20
69.71430457485786
 30
0.0
 42
-0.0781428993827162
  0
VERTEX
  5
1D2
  8
DEFAULT
 62
     5
 10
-10.79760314713593
 20
69.59084778473441
 30
0.0
  0
VERTEX
  5
1D3
  8
DEFAULT
 62
     5
 10
-10.90562760301522
 20
68.91955160617748
 30
0.0
  0
VERTEX
  5
1D4
  8
DEFAULT
 62
     5
 10
-11.33965541022784
 20
68.97356383411713
 30
0.0
 42
0.2070684672812199
  0
VERTEX
  5
1D5
  8
DEFAULT
 62
     5
 10
-11.63431206810645
 20
68.87856017477762
 30
0.0
 42
0.177352410053155
  0
VERTEX
  5
1D6
  8
DEFAULT
 62
     5
 10
-11.72352907306185
 20
68.51349443382495
 30
0.0
  0
VERTEX
  5
1D7
  8
DEFAULT
 62
     5
 10
-11.72352907306185
 20
68.26368729090726
 30
0.0
  0
VERTEX
  5
1D8
  8
DEFAULT
 62
     5
 10
-11.04451672738285
 20
68.26368729090726
 30
0.0
  0
VERTEX
  5
1D9
  8
DEFAULT
 62
     5
 10
-11.04451672738285
 20
67.52294655016651
 30
0.0
  0
VERTEX
  5
1DA
  8
DEFAULT
 62
     5
 10
-11.72352907306185
 20
67.52294655016651
 30
0.0
  0
VERTEX
  5
1DB
  8
DEFAULT
 62
     5
 10
-11.72352907306185
 20
64.65257617979614
 30
0.0
  0
VERTEX
  5
1DC
  8
DEFAULT
 62
     5
 10
-12.68031919651865
 20
64.65257617979614
 30
0.0
  0
VERTEX
  5
1DD
  8
DEFAULT
 62
     5
 10
-12.68031919651865
 20
67.52294655016651
 30
0.0
  0
VERTEX
  5
1DE
  8
DEFAULT
 62
     5
 10
-13.17414635701248
 20
67.52294655016651
 30
0.0
  0
SEQEND
  5
1DF
  8
DEFAULT
 62
     5
  0
POLYLINE
  5
1E0
  8
DEFAULT
 62
     5
 66
     1
 10
0.0
 20
0.0
 30
0.0
 70
     1
  0
VERTEX
  5
1E1
  8
DEFAULT
 62
     5
 10
-14.74822043108655
 20
66.38097124152453
 30
0.0
  0
VERTEX
  5
1E2
  8
DEFAULT
 62
     5
 10
-15.30522253249876
 20
66.23484868143743
 30
0.0
  0
VERTEX
  5
1E3
  8
DEFAULT
 62
     5
 10
-15.80338980152003
 20
66.06847165361233
 30
0.0
 42
0.2517191883486126
  0
VERTEX
  5
1E4
  8
DEFAULT
 62
     5
 10
-15.98278833232111
 20
65.73185904344359
 30
0.0
 42
0.429815094554476
  0
VERTEX
  5
1E5
  8
DEFAULT
 62
     5
 10
-15.47449335847339
 20
65.23899593288256
 30
0.0
 42
0.1670482644846486
  0
VERTEX
  5
1E6
  8
DEFAULT
 62
     5
 10
-15.00236744705295
 20
65.40874925478101
 30
0.0
 42
0.1651612454991236
  0
VERTEX
  5
1E7
  8
DEFAULT
 62
     5
 10
-14.78390676211124
 20
65.72510739721177
 30
0.0
  0
VERTEX
  5
1E8
  8
DEFAULT
 62
     5
 10
-14.74822043108655
 20
66.19048166240039
 30
0.0
  0
SEQEND
  5
1E9
  8
DEFAULT
 62
     5
  0
POLYLINE
  5
1EA
  8
DEFAULT
 62
     5
 66
     1
 10
0.0
 20
0.0
 30
0.0
 70
     1
  0
VERTEX
  5
1EB
  8
DEFAULT
 62
     5
 10
-15.95192413479025
 20
67.15257617979614
 30
0.0
  0
VERTEX
  5
1EC
  8
DEFAULT
 62
     5
 10
-16.81612166565445
 20
67.2760329699196
 30
0.0
 42
-0.1714833175990247
  0
VERTEX
  5
1ED
  8
DEFAULT
 62
     5
 10
-16.32253539990445
 20
68.09152313774058
 30
0.0
 42
-0.1608829132837545
  0
VERTEX
  5
1EE
  8
DEFAULT
 62
     5
 10
-15.28207426661124
 20
68.35627988349985
 30
0.0
 42
-0.1088364278881137
  0
VERTEX
  5
1EF
  8
DEFAULT
 62
     5
 10
-14.34843240904197
 20
68.20461132829374
 30
0.0
 42
-0.1580303644335496
  0
VERTEX
  5
1F0
  8
DEFAULT
 62
     5
 10
-13.91657477383243
 20
67.81929111960306
 30
0.0
 42
-0.1088017057953461
  0
VERTEX
  5
1F1
  8
DEFAULT
 62
     5
 10
-13.79143030762976
 20
66.96160434022686
 30
0.0
  0
VERTEX
  5
1F2
  8
DEFAULT
 62
     5
 10
-13.79143030762976
 20
65.84277706199367
 30
0.0
  0
VERTEX
  5
1F3
  8
DEFAULT
 62
     5
 10
-13.7393468859919
 20
65.13844627842406
 30
0.0
  0
VERTEX
  5
1F4
  8
DEFAULT
 62
     5
 10
-13.54451672738285
 20
64.65257617979614
 30
0.0
  0
VERTEX
  5
1F5
  8
DEFAULT
 62
     5
 10
-14.50130685083963
 20
64.65257617979614
 30
0.0
  0
VERTEX
  5
1F6
  8
DEFAULT
 62
     5
 10
-14.59293492254196
 20
64.93228299935444
 30
0.0
  0
VERTEX
  5
1F7
  8
DEFAULT
 62
     5
 10
-14.62669221178615
 20
65.0436837493071
 30
0.0
 42
-0.0933244186738172
  0
VERTEX
  5
1F8
  8
DEFAULT
 62
     5
 10
-15.14897273854266
 20
64.68102931058009
 30
0.0
 42
-0.1040133466925813
  0
VERTEX
  5
1F9
  8
DEFAULT
 62
     5
 10
-15.74262592734856
 20
64.55998358720355
 30
0.0
 42
-0.1965430357596654
  0
VERTEX
  5
1FA
  8
DEFAULT
 62
     5
 10
-16.61912109956358
 20
64.8625975424268
 30
0.0
 42
-0.2154369487651185
  0
VERTEX
  5
1FB
  8
DEFAULT
 62
     5
 10
-16.93957845577791
 20
65.62769220016787
 30
0.0
 42
-0.1373780248024379
  0
VERTEX
  5
1FC
  8
DEFAULT
 62
     5
 10
-16.79683148332798
 20
66.17360254682083
 30
0.0
 42
-0.1473783213971375
  0
VERTEX
  5
1FD
  8
DEFAULT
 62
     5
 10
-16.39680233106084
 20
66.54083822429786
 30
0.0
  0
VERTEX
  5
1FE
  8
DEFAULT
 62
     5
 10
-15.65485593920727
 20
66.76339812302317
 30
0.0
  0
VERTEX
  5
1FF
  8
DEFAULT
 62
     5
 10
-14.74822043108655
 20
66.99825519214183
 30
0.0
  0
VERTEX
  5
200
  8
DEFAULT
 62
     5
 10
-14.74822043108653
 20
67.09518812874059
 30
0.0
 42
0.2070921599656121
  0
VERTEX
  5
201
  8
DEFAULT
 62
     5
 10
-14.87625845996001
 20
67.49594043619669
 30
0.0
 42
0.17778874327076
  0
VERTEX
  5
202
  8
DEFAULT
 62
     5
 10
-15.35971725636227
 20
67.6155391427591
 30
0.0
 42
0.1651091138039122
  0
VERTEX
  5
203
  8
DEFAULT
 62
     5
 10
-15.73418660503752
 20
67.51281931629752
 30
0.0
 42
0.1491587679877786
  0
SEQEND
  5
204
  8
DEFAULT
 62
     5
  0
POLYLINE
  5
205
  8
DEFAULT
 62
     5
 66
     1
 10
0.0
 20
0.0
 30
0.0
 70
     1
  0
VERTEX
  5
206
  8
DEFAULT
 62
     5
 10
-18.39019573972852
 20
64.65257617979614
 30
0.0
  0
VERTEX
  5
207
  8
DEFAULT
 62
     5
 10
-19.34698586318531
 20
64.65257617979614
 30
0.0
  0
VERTEX
  5
208
  8
DEFAULT
 62
     5
 10
-19.34698586318531
 20
68.26368729090726
 30
0.0
  0
VERTEX
  5
209
  8
DEFAULT
 62
     5
 10
-18.45192413479025
 20
68.26368729090726
 30
0.0
  0
VERTEX
  5
20A
  8
DEFAULT
 62
     5
 10
-18.45192413479025
 20
67.7539460066816
 30
0.0
 42
-0.0977550519460689
  0
VERTEX
  5
20B
  8
DEFAULT
 62
     5
 10
-18.05985227986775
 20
68.23571665604717
 30
0.0
 42
-0.156172018507917
  0
VERTEX
  5
20C
  8
DEFAULT
 62
     5
 10
-17.66488686227448
 20
68.35627988349985
 30
0.0
 42
-0.143817098136998
  0
VERTEX
  5
20D
  8
DEFAULT
 62
     5
 10
-17.06303524590136
 20
68.17447052143058
 30
0.0
  0
VERTEX
  5
20E
  8
DEFAULT
 62
     5
 10
-17.35624488696584
 20
67.33679731504853
 30
0.0
 42
0.1496770151887448
  0
VERTEX
  5
20F
  8
DEFAULT
 62
     5
 10
-17.78255652705638
 20
67.49208235263563
 30
0.0
 42
0.1810970994866417
  0
VERTEX
  5
210
  8
DEFAULT
 62
     5
 10
-18.10590721046276
 20
67.38140546430816
 30
0.0
 42
0.1501348396488296
  0
VERTEX
  5
211
  8
DEFAULT
 62
     5
 10
-18.31424066153546
 20
66.98137654751973
 30
0.0
 42
0.0509111359642149
  0
VERTEX
  5
212
  8
DEFAULT
 62
     5
 10
-18.39019573972852
 20
65.76947441624881
 30
0.0
  0
SEQEND
  5
213
  8
DEFAULT
 62
     5
  0
POLYLINE
  5
214
  8
DEFAULT
 62
     5
 66
     1
 10
0.0
 20
0.0
 30
0.0
 70
     1
  0
VERTEX
  5
215
  8
DEFAULT
 62
     5
 10
-20.08772660392605
 20
67.21430457485788
 30
0.0
  0
VERTEX
  5
216
  8
DEFAULT
 62
     5
 10
-21.04451672738283
 20
67.05998358720355
 30
0.0
 42
0.1809968098175313
  0
VERTEX
  5
217
  8
DEFAULT
 62
     5
 10
-21.25815457239451
 20
67.47592709868125
 30
0.0
 42
0.1804760167669918
  0
VERTEX
  5
218
  8
DEFAULT
 62
     5
 10
-21.69025357330534
 20
67.61553914275909
 30
0.0
 42
0.2329674834671184
  0
VERTEX
  5
219
  8
DEFAULT
 62
     5
 10
-22.25400732094938
 20
67.36476771442989
 30
0.0
 42
0.169517955512045
  0
VERTEX
  5
21A
  8
DEFAULT
 62
     5
 10
-22.46426981380259
 20
66.52564749123373
 30
0.0
 42
0.1610966817174997
  0
VERTEX
  5
21B
  8
DEFAULT
 62
     5
 10
-22.2489435862755
 20
65.60140924138702
 30
0.0
 42
0.2405540491094164
  0
VERTEX
  5
21C
  8
DEFAULT
 62
     5
 10
-21.67096315550014
 20
65.33158852547517
 30
0.0
 42
0.1883458441869661
  0
VERTEX
  5
21D
  8
DEFAULT
 62
     5
 10
-21.22704924464107
 20
65.48446296727282
 30
0.0
 42
0.1622604489947913
  0
VERTEX
  5
21E
  8
DEFAULT
 62
     5
 10
-20.98278833232111
 20
66.01060087115417
 30
0.0
  0
VERTEX
  5
21F
  8
DEFAULT
 62
     5
 10
-20.02599820886432
 20
65.88714408103071
 30
0.0
 42
-0.1724509721436147
  0
VERTEX
  5
220
  8
DEFAULT
 62
     5
 10
-20.58492935205707
 20
64.89514965151562
 30
0.0
 42
-0.1746967243539315
  0
VERTEX
  5
221
  8
DEFAULT
 62
     5
 10
-21.69314666501866
 20
64.55998358720355
 30
0.0
 42
-0.2163976905724379
  0
VERTEX
  5
222
  8
DEFAULT
 62
     5
 10
-22.95182758850973
 20
65.06273256593228
 30
0.0
 42
-0.1943870566321048
  0
VERTEX
  5
223
  8
DEFAULT
 62
     5
 10
-23.42105993725939
 20
66.45475614771452
 30
0.0
 42
-0.1945054615972494
  0
VERTEX
  5
224
  8
DEFAULT
 62
     5
 10
-22.95206871873229
 20
67.85521905180778
 30
0.0
 42
-0.2157801631579875
  0
VERTEX
  5
225
  8
DEFAULT
 62
     5
 10
-21.68350192707351
 20
68.35627988349985
 30
0.0
 42
-0.159942307695794
  0
VERTEX
  5
226
  8
DEFAULT
 62
     5
 10
-20.64279966355774
 20
68.07416199719465
 30
0.0
 42
-0.168263569712632
  0
SEQEND
  5
227
  8
DEFAULT
 62
     5
  0
POLYLINE
  5
228
  8
DEFAULT
 62
     5
 66
     1
 10
0.0
 20
0.0
 30
0.0
 70
     1
  0
VERTEX
  5
229
  8
DEFAULT
 62
     5
 10
-25.14945499898778
 20
64.65257617979614
 30
0.0
  0
VERTEX
  5
22A
  8
DEFAULT
 62
     5
 10
-25.14945499898778
 20
65.60936630325293
 30
0.0
  0
VERTEX
  5
22B
  8
DEFAULT
 62
     5
 10
-24.19266487553099
 20
65.60936630325293
 30
0.0
  0
VERTEX
  5
22C
  8
DEFAULT
 62
     5
 10
-24.19266487553099
 20
64.65257617979614
 30
0.0
  0
SEQEND
  5
22D
  8
DEFAULT
 62
     5
  0
POLYLINE
  5
22E
  8
DEFAULT
 62
     5
 66
     1
 10
0.0
 20
0.0
 30
0.0
 70
     1
  0
VERTEX
  5
22F
  8
DEFAULT
 62
     5
 10
-29.79837457546515
 20
64.65257617979614
 30
0.0
  0
VERTEX
  5
230
  8
DEFAULT
 62
     5
 10
-30.95192413479025
 20
68.26368729090726
 30
0.0
  0
VERTEX
  5
231
  8
DEFAULT
 62
     5
 10
-30.01490621862633
 20
68.26368729090726
 30
0.0
  0
VERTEX
  5
232
  8
DEFAULT
 62
     5
 10
-29.33155352894115
 20
65.89727155037845
 30
0.0
  0
VERTEX
  5
233
  8
DEFAULT
 62
     5
 10
-28.69015702702482
 20
68.26368729090726
 30
0.0
  0
VERTEX
  5
234
  8
DEFAULT
 62
     5
 10
-27.7627843197635
 20
68.26368729090726
 30
0.0
  0
VERTEX
  5
235
  8
DEFAULT
 62
     5
 10
-27.17105970178065
 20
65.89727155037845
 30
0.0
  0
VERTEX
  5
236
  8
DEFAULT
 62
     5
 10
-26.48577797031495
 20
68.26368729090726
 30
0.0
  0
VERTEX
  5
237
  8
DEFAULT
 62
     5
 10
-25.55068956688902
 20
68.26368729090726
 30
0.0
  0
VERTEX
  5
238
  8
DEFAULT
 62
     5
 10
-26.701827353031
 20
64.65257617979614
 30
0.0
  0
VERTEX
  5
239
  8
DEFAULT
 62
     5
 10
-27.60894559255431
 20
64.65257617979614
 30
0.0
  0
VERTEX
  5
23A
  8
DEFAULT
 62
     5
 10
-28.22044241783004
 20
66.97510716173304
 30
0.0
  0
VERTEX
  5
23B
  8
DEFAULT
 62
     5
 10
-28.85122966091096
 20
64.65257617979614
 30
0.0
  0
SEQEND
  5
23C
  8
DEFAULT
 62
     5
  0
POLYLINE
  5
23D
  8
DEFAULT
 62
     5
 66
     1
 10
0.0
 20
0.0
 30
0.0
 70
     1
  0
VERTEX
  5
23E
  8
DEFAULT
 62
     5
 10
-35.16874494583552
 20
64.65257617979614
 30
0.0
  0
VERTEX
  5
23F
  8
DEFAULT
 62
     5
 10
-36.32229450516062
 20
68.26368729090726
 30
0.0
  0
VERTEX
  5
240
  8
DEFAULT
 62
     5
 10
-35.3852765889967
 20
68.26368729090726
 30
0.0
  0
VERTEX
  5
241
  8
DEFAULT
 62
     5
 10
-34.70192389931152
 20
65.89727155037845
 30
0.0
  0
VERTEX
  5
242
  8
DEFAULT
 62
     5
 10
-34.06052739739519
 20
68.26368729090726
 30
0.0
  0
VERTEX
  5
243
  8
DEFAULT
 62
     5
 10
-33.13315469013388
 20
68.26368729090726
 30
0.0
  0
VERTEX
  5
244
  8
DEFAULT
 62
     5
 10
-32.54143007215102
 20
65.89727155037845
 30
0.0
  0
VERTEX
  5
245
  8
DEFAULT
 62
     5
 10
-31.85614834068532
 20
68.26368729090726
 30
0.0
  0
VERTEX
  5
246
  8
DEFAULT
 62
     5
 10
-30.92105993725939
 20
68.26368729090726
 30
0.0
  0
VERTEX
  5
247
  8
DEFAULT
 62
     5
 10
-32.07219772340137
 20
64.65257617979614
 30
0.0
  0
VERTEX
  5
248
  8
DEFAULT
 62
     5
 10
-32.97931596292469
 20
64.65257617979614
 30
0.0
  0
VERTEX
  5
249
  8
DEFAULT
 62
     5
 10
-33.59081278820041
 20
66.97510716173304
 30
0.0
  0
VERTEX
  5
24A
  8
DEFAULT
 62
     5
 10
-34.22160003128133
 20
64.65257617979614
 30
0.0
  0
SEQEND
  5
24B
  8
DEFAULT
 62
     5
  0
POLYLINE
  5
24C
  8
DEFAULT
 62
     5
 66
     1
 10
0.0
 20
0.0
 30
0.0
 70
     1
  0
VERTEX
  5
24D
  8
DEFAULT
 62
     5
 10
-40.53911531620589
 20
64.65257617979614
 30
0.0
  0
VERTEX
  5
24E
  8
DEFAULT
 62
     5
 10
-41.69266487553099
 20
68.26368729090726
 30
0.0
  0
VERTEX
  5
24F
  8
DEFAULT
 62
     5
 10
-40.75564695936707
 20
68.26368729090726
 30
0.0
  0
VERTEX
  5
250
  8
DEFAULT
 62
     5
 10
-40.07229426968189
 20
65.89727155037845
 30
0.0
  0
VERTEX
  5
251
  8
DEFAULT
 62
     5
 10
-39.43089776776556
 20
68.26368729090726
 30
0.0
  0
VERTEX
  5
252
  8
DEFAULT
 62
     5
 10
-38.50352506050424
 20
68.26368729090726
 30
0.0
  0
VERTEX
  5
253
  8
DEFAULT
 62
     5
 10
-37.9118004425214
 20
65.89727155037845
 30
0.0
  0
VERTEX
  5
254
  8
DEFAULT
 62
     5
 10
-37.22651871105569
 20
68.26368729090726
 30
0.0
  0
VERTEX
  5
255
  8
DEFAULT
 62
     5
 10
-36.29143030762975
 20
68.26368729090726
 30
0.0
  0
VERTEX
  5
256
  8
DEFAULT
 62
     5
 10
-37.44256809377174
 20
64.65257617979614
 30
0.0
  0
VERTEX
  5
257
  8
DEFAULT
 62
     5
 10
-38.34968633329505
 20
64.65257617979614
 30
0.0
  0
VERTEX
  5
258
  8
DEFAULT
 62
     5
 10
-38.96118315857078
 20
66.97510716173304
 30
0.0
  0
VERTEX
  5
259
  8
DEFAULT
 62
     5
 10
-39.59197040165171
 20
64.65257617979614
 30
0.0
  0
SEQEND
  5
25A
  8
DEFAULT
 62
     5
  0
POLYLINE
  5
25B
  8
DEFAULT
 62
     5
 66
     1
 10
0.0
 20
0.0
 30
0.0
 70
     1
  0
VERTEX
  5
25C
  8
DEFAULT
 62
     5
 10
32.66389837949791
 20
57.70046879438673
 30
0.0
  0
VERTEX
  5
25D
  8
DEFAULT
 62
     5
 10
33.62068850295471
 20
57.82392558451019
 30
0.0
 42
0.1817134537413083
  0
VERTEX
  5
25E
  8
DEFAULT
 62
     5
 10
33.86832570934804
 20
57.40967022006917
 30
0.0
 42
0.1637490318832829
  0
VERTEX
  5
25F
  8
DEFAULT
 62
     5
 10
34.38988260995812
 20
57.26837002895463
 30
0.0
 42
0.1581548590316423
  0
VERTEX
  5
260
  8
DEFAULT
 62
     5
 10
34.94592042595881
 20
57.40677689287712
 30
0.0
 42
0.2454173628753306
  0
VERTEX
  5
261
  8
DEFAULT
 62
     5
 10
35.07130578690531
 20
57.66622924469742
 30
0.0
  0
VERTEX
  5
262
  8
DEFAULT
 62
     5
 10
35.00330847701436
 20
57.84948538810208
 30
0.0
  0
VERTEX
  5
263
  8
DEFAULT
 62
     5
 10
34.6830922510226
 20
57.97728252223171
 30
0.0
 42
-0.0750101977649257
  0
VERTEX
  5
264
  8
DEFAULT
 62
     5
 10
33.21607858289502
 20
58.44940796269469
 30
0.0
 42
-0.2630575377237266
  0
VERTEX
  5
265
  8
DEFAULT
 62
     5
 10
32.78735516962136
 20
59.26827395363158
 30
0.0
 42
-0.2278055359034117
  0
VERTEX
  5
266
  8
DEFAULT
 62
     5
 10
33.15796667021431
 20
60.06350894727836
 30
0.0
 42
-0.1789409577799125
  0
VERTEX
  5
267
  8
DEFAULT
 62
     5
 10
34.30693475531066
 20
60.38565397957192
 30
0.0
 42
-0.1478680227512952
  0
VERTEX
  5
268
  8
DEFAULT
 62
     5
 10
35.4084008929979
 20
60.13608820235552
 30
0.0
 42
-0.1798681362132029
  0
VERTEX
  5
269
  8
DEFAULT
 62
     5
 10
35.90463912023864
 20
59.39799965858426
 30
0.0
  0
VERTEX
  5
26A
  8
DEFAULT
 62
     5
 10
35.0095773918436
 20
59.24367867092994
 30
0.0
 42
0.1762609448243955
  0
VERTEX
  5
26B
  8
DEFAULT
 62
     5
 10
34.79063468193549
 20
59.58728405755306
 30
0.0
 42
0.1598214678236589
  0
VERTEX
  5
26C
  8
DEFAULT
 62
     5
 10
34.33056504616458
 20
59.70664163389291
 30
0.0
 42
0.1371855487857616
  0
VERTEX
  5
26D
  8
DEFAULT
 62
     5
 10
33.79092408529831
 20
59.59958169890387
 30
0.0
 42
0.2593740206710851
  0
VERTEX
  5
26E
  8
DEFAULT
 62
     5
 10
33.68241689801643
 20
59.40234000259043
 30
0.0
  0
VERTEX
  5
26F
  8
DEFAULT
 62
     5
 10
33.77742079283468
 20
59.22583550541759
 30
0.0
 42
0.0664798749578767
  0
VERTEX
  5
270
  8
DEFAULT
 62
     5
 10
34.66717789181203
 20
58.95263920186855
 30
0.0
 42
-0.1095214193377355
  0
VERTEX
  5
271
  8
DEFAULT
 62
     5
 10
35.7295814044012
 20
58.52319286888466
 30
0.0
 42
-0.2284114958797556
  0
VERTEX
  5
272
  8
DEFAULT
 62
     5
 10
36.0280959103621
 20
57.80801146077836
 30
0.0
 42
-0.227622981065101
  0
VERTEX
  5
273
  8
DEFAULT
 62
     5
 10
35.61432280636622
 20
56.94863629888673
 30
0.0
 42
-0.1809722242825436
  0
VERTEX
  5
274
  8
DEFAULT
 62
     5
 10
34.38988260995812
 20
56.58935768327562
 30
0.0
 42
-0.1534212868271906
  0
VERTEX
  5
275
  8
DEFAULT
 62
     5
 10
33.22499993017246
 20
56.88835468516038
 30
0.0
 42
-0.1853542620165919
  0
SEQEND
  5
276
  8
DEFAULT
 62
     5
  0
POLYLINE
  5
277
  8
DEFAULT
 62
     5
 66
     1
 10
0.0
 20
0.0
 30
0.0
 70
     1
  0
VERTEX
  5
278
  8
DEFAULT
 62
     5
 10
32.04661442888063
 20
56.68195027586821
 30
0.0
  0
VERTEX
  5
279
  8
DEFAULT
 62
     5
 10
31.08982430542384
 20
56.68195027586821
 30
0.0
  0
VERTEX
  5
27A
  8
DEFAULT
 62
     5
 10
31.08982430542384
 20
58.52560417111032
 30
0.0
  0
VERTEX
  5
27B
  8
DEFAULT
 62
     5
 10
31.0295426916975
 20
59.28274153150675
 30
0.0
 42
0.3361246103438272
  0
VERTEX
  5
27C
  8
DEFAULT
 62
     5
 10
30.50774489634358
 20
59.64491323883118
 30
0.0
 42
0.1576987046344969
  0
VERTEX
  5
27D
  8
DEFAULT
 62
     5
 10
30.0696181108261
 20
59.50891791261306
 30
0.0
 42
0.168437182261752
  0
VERTEX
  5
27E
  8
DEFAULT
 62
     5
 10
29.80365547847527
 20
59.14843388136786
 30
0.0
 42
0.0659809918576586
  0
VERTEX
  5
27F
  8
DEFAULT
 62
     5
 10
29.73179961406581
 20
58.31823500544915
 30
0.0
  0
VERTEX
  5
280
  8
DEFAULT
 62
     5
 10
29.73179961406581
 20
56.68195027586821
 30
0.0
  0
VERTEX
  5
281
  8
DEFAULT
 62
     5
 10
28.77500949060902
 20
56.68195027586821
 30
0.0
  0
VERTEX
  5
282
  8
DEFAULT
 62
     5
 10
28.77500949060902
 20
60.29306138697932
 30
0.0
  0
VERTEX
  5
283
  8
DEFAULT
 62
     5
 10
29.67007121900408
 20
60.29306138697932
 30
0.0
  0
VERTEX
  5
284
  8
DEFAULT
 62
     5
 10
29.67007121900408
 20
59.76644145813157
 30
0.0
 42
-0.2486296121988469
  0
VERTEX
  5
285
  8
DEFAULT
 62
     5
 10
30.84676880873797
 20
60.38565397957191
 30
0.0
 42
-0.1053164015607983
  0
VERTEX
  5
286
  8
DEFAULT
 62
     5
 10
31.41799759328152
 20
60.27136013790593
 30
0.0
 42
-0.1292191717088762
  0
VERTEX
  5
287
  8
DEFAULT
 62
     5
 10
31.80958718775888
 20
59.97983817292068
 30
0.0
  0
VERTEX
  5
288
  8
DEFAULT
 62
     5
 10
31.9945312427215
 20
59.57739795390662
 30
0.0
  0
VERTEX
  5
289
  8
DEFAULT
 62
     5
 10
32.04661442888063
 20
58.93262586435311
 30
0.0
  0
SEQEND
  5
28A
  8
DEFAULT
 62
     5
  0
POLYLINE
  5
28B
  8
DEFAULT
 62
     5
 66
     1
 10
0.0
 20
0.0
 30
0.0
 70
     1
  0
VERTEX
  5
28C
  8
DEFAULT
 62
     5
 10
26.83056504616458
 20
58.4103453375966
 30
0.0
  0
VERTEX
  5
28D
  8
DEFAULT
 62
     5
 10
26.27356294475237
 20
58.2642227775095
 30
0.0
  0
VERTEX
  5
28E
  8
DEFAULT
 62
     5
 10
25.7753956757311
 20
58.09784574968438
 30
0.0
 42
0.2517191883486302
  0
VERTEX
  5
28F
  8
DEFAULT
 62
     5
 10
25.59599714493001
 20
57.76123313951566
 30
0.0
 42
0.429815094554478
  0
VERTEX
  5
290
  8
DEFAULT
 62
     5
 10
26.10429211877774
 20
57.26837002895463
 30
0.0
 42
0.167048264484604
  0
VERTEX
  5
291
  8
DEFAULT
 62
     5
 10
26.57641803019818
 20
57.43812335085312
 30
0.0
 42
0.165161245499095
  0
VERTEX
  5
292
  8
DEFAULT
 62
     5
 10
26.79487871513987
 20
57.75448149328384
 30
0.0
  0
VERTEX
  5
293
  8
DEFAULT
 62
     5
 10
26.83056504616458
 20
58.21985575847246
 30
0.0
  0
SEQEND
  5
294
  8
DEFAULT
 62
     5
  0
POLYLINE
  5
295
  8
DEFAULT
 62
     5
 66
     1
 10
0.0
 20
0.0
 30
0.0
 70
     1
  0
VERTEX
  5
296
  8
DEFAULT
 62
     5
 10
25.62686134246087
 20
59.18195027586821
 30
0.0
  0
VERTEX
  5
297
  8
DEFAULT
 62
     5
 10
24.76266381159668
 20
59.30540706599167
 30
0.0
 42
-0.1714833175990298
  0
VERTEX
  5
298
  8
DEFAULT
 62
     5
 10
25.25625007734667
 20
60.12089723381264
 30
0.0
 42
-0.1608829132837513
  0
VERTEX
  5
299
  8
DEFAULT
 62
     5
 10
26.29671121063988
 20
60.38565397957191
 30
0.0
 42
-0.1088364278880837
  0
VERTEX
  5
29A
  8
DEFAULT
 62
     5
 10
27.23035306820915
 20
60.23398542436581
 30
0.0
 42
-0.1580303644335229
  0
VERTEX
  5
29B
  8
DEFAULT
 62
     5
 10
27.66221070341868
 20
59.84866521567513
 30
0.0
 42
-0.1088017057953483
  0
VERTEX
  5
29C
  8
DEFAULT
 62
     5
 10
27.78735516962137
 20
58.99097843629893
 30
0.0
  0
VERTEX
  5
29D
  8
DEFAULT
 62
     5
 10
27.78735516962137
 20
57.87215115806573
 30
0.0
  0
VERTEX
  5
29E
  8
DEFAULT
 62
     5
 10
27.83943859125923
 20
57.16782037449612
 30
0.0
  0
VERTEX
  5
29F
  8
DEFAULT
 62
     5
 10
28.03426874986828
 20
56.68195027586821
 30
0.0
  0
VERTEX
  5
2A0
  8
DEFAULT
 62
     5
 10
27.07747862641149
 20
56.68195027586821
 30
0.0
  0
VERTEX
  5
2A1
  8
DEFAULT
 62
     5
 10
26.98585055470916
 20
56.96165709542651
 30
0.0
  0
VERTEX
  5
2A2
  8
DEFAULT
 62
     5
 10
26.95209326546498
 20
57.07305784537918
 30
0.0
 42
-0.0933244186738194
  0
VERTEX
  5
2A3
  8
DEFAULT
 62
     5
 10
26.42981273870847
 20
56.71040340665215
 30
0.0
 42
-0.1040133466925796
  0
VERTEX
  5
2A4
  8
DEFAULT
 62
     5
 10
25.83615954990256
 20
56.58935768327562
 30
0.0
 42
-0.1965430357596601
  0
VERTEX
  5
2A5
  8
DEFAULT
 62
     5
 10
24.95966437768755
 20
56.89197163849886
 30
0.0
 42
-0.2154369487651152
  0
VERTEX
  5
2A6
  8
DEFAULT
 62
     5
 10
24.63920702147322
 20
57.65706629623995
 30
0.0
 42
-0.1373780248024397
  0
VERTEX
  5
2A7
  8
DEFAULT
 62
     5
 10
24.78195399392315
 20
58.20297664289289
 30
0.0
 42
-0.1473783213971245
  0
VERTEX
  5
2A8
  8
DEFAULT
 62
     5
 10
25.18198314619029
 20
58.57021232036993
 30
0.0
  0
VERTEX
  5
2A9
  8
DEFAULT
 62
     5
 10
25.92392953804386
 20
58.79277221909523
 30
0.0
  0
VERTEX
  5
2AA
  8
DEFAULT
 62
     5
 10
26.83056504616458
 20
59.02762928821389
 30
0.0
  0
VERTEX
  5
2AB
  8
DEFAULT
 62
     5
 10
26.83056504616458
 20
59.12456222481266
 30
0.0
 42
0.2070921599656543
  0
VERTEX
  5
2AC
  8
DEFAULT
 62
     5
 10
26.70252701729111
 20
59.52531453226875
 30
0.0
 42
0.1777887432707979
  0
VERTEX
  5
2AD
  8
DEFAULT
 62
     5
 10
26.21906822088885
 20
59.64491323883117
 30
0.0
 42
0.1651091138038782
  0
VERTEX
  5
2AE
  8
DEFAULT
 62
     5
 10
25.84459887221361
 20
59.54219341236958
 30
0.0
 42
0.1491587679877865
  0
SEQEND
  5
2AF
  8
DEFAULT
 62
     5
  0
POLYLINE
  5
2B0
  8
DEFAULT
 62
     5
 66
     1
 10
0.0
 20
0.0
 30
0.0
 70
     1
  0
VERTEX
  5
2B1
  8
DEFAULT
 62
     5
 10
23.00340455233742
 20
56.68195027586821
 30
0.0
  0
VERTEX
  5
2B2
  8
DEFAULT
 62
     5
 10
23.00340455233742
 20
61.65108607833734
 30
0.0
  0
VERTEX
  5
2B3
  8
DEFAULT
 62
     5
 10
23.96019467579421
 20
61.65108607833734
 30
0.0
  0
VERTEX
  5
2B4
  8
DEFAULT
 62
     5
 10
23.96019467579421
 20
56.68195027586821
 30
0.0
  0
SEQEND
  5
2B5
  8
DEFAULT
 62
     5
  0
POLYLINE
  5
2B6
  8
DEFAULT
 62
     5
 66
     1
 10
0.0
 20
0.0
 30
0.0
 70
     1
  0
VERTEX
  5
2B7
  8
DEFAULT
 62
     5
 10
19.73179961406581
 20
58.54826994107397
 30
0.0
 42
0.1662127852120682
  0
VERTEX
  5
2B8
  8
DEFAULT
 62
     5
 10
19.96858596044373
 20
57.62764864456574
 30
0.0
 42
0.2404461653497438
  0
VERTEX
  5
2B9
  8
DEFAULT
 62
     5
 10
20.54536074010627
 20
57.33009842401636
 30
0.0
 42
0.2413239634427183
  0
VERTEX
  5
2BA
  8
DEFAULT
 62
     5
 10
21.08910115023488
 20
57.60329496304414
 30
0.0
 42
0.1627449374921598
  0
VERTEX
  5
2BB
  8
DEFAULT
 62
     5
 10
21.30587368813989
 20
58.49956257803075
 30
0.0
 42
0.1661976731382178
  0
VERTEX
  5
2BC
  8
DEFAULT
 62
     5
 10
21.08234950400305
 20
59.36303648274853
 30
0.0
 42
0.241237766796045
  0
VERTEX
  5
2BD
  8
DEFAULT
 62
     5
 10
20.52896435592931
 20
59.64491323883117
 30
0.0
 42
0.2367422129321917
  0
VERTEX
  5
2BE
  8
DEFAULT
 62
     5
 10
19.95845872657472
 20
59.36809998194366
 30
0.0
 42
0.1723447809988897
  0
SEQEND
  5
2BF
  8
DEFAULT
 62
     5
  0
POLYLINE
  5
2C0
  8
DEFAULT
 62
     5
 66
     1
 10
0.0
 20
0.0
 30
0.0
 70
     1
  0
VERTEX
  5
2C1
  8
DEFAULT
 62
     5
 10
18.77500949060902
 20
60.29306138697932
 30
0.0
  0
VERTEX
  5
2C2
  8
DEFAULT
 62
     5
 10
19.67007121900408
 20
60.29306138697932
 30
0.0
  0
VERTEX
  5
2C3
  8
DEFAULT
 62
     5
 10
19.67007121900408
 20
59.76644145813157
 30
0.0
 42
-0.1189653659007718
  0
VERTEX
  5
2C4
  8
DEFAULT
 62
     5
 10
20.13231102677809
 20
60.21107852417959
 30
0.0
 42
-0.13821055989102
  0
VERTEX
  5
2C5
  8
DEFAULT
 62
     5
 10
20.77877149884701
 20
60.38565397957191
 30
0.0
 42
-0.2273648758850385
  0
VERTEX
  5
2C6
  8
DEFAULT
 62
     5
 10
21.83056504616457
 20
59.88965688255374
 30
0.0
 42
-0.1838682188936173
  0
VERTEX
  5
2C7
  8
DEFAULT
 62
     5
 10
22.26266381159668
 20
58.50824279508563
 30
0.0
 42
-0.1823656645300181
  0
VERTEX
  5
2C8
  8
DEFAULT
 62
     5
 10
21.82694832830483
 20
57.09379457356231
 30
0.0
 42
-0.2285594541574794
  0
VERTEX
  5
2C9
  8
DEFAULT
 62
     5
 10
20.77105533172493
 20
56.58935768327562
 30
0.0
 42
-0.1163198006807804
  0
VERTEX
  5
2CA
  8
DEFAULT
 62
     5
 10
20.2362365043525
 20
56.70750984398138
 30
0.0
 42
-0.0904152380777638
  0
VERTEX
  5
2CB
  8
DEFAULT
 62
     5
 10
19.73179961406581
 20
57.11260273092238
 30
0.0
  0
VERTEX
  5
2CC
  8
DEFAULT
 62
     5
 10
19.73179961406581
 20
55.29306138697932
 30
0.0
  0
VERTEX
  5
2CD
  8
DEFAULT
 62
     5
 10
18.77500949060902
 20
55.29306138697932
 30
0.0
  0
SEQEND
  5
2CE
  8
DEFAULT
 62
     5
  0
POLYLINE
  5
2CF
  8
DEFAULT
 62
     5
 66
     1
 10
0.0
 20
0.0
 30
0.0
 70
     1
  0
VERTEX
  5
2D0
  8
DEFAULT
 62
     5
 10
15.13303418196704
 20
56.68195027586821
 30
0.0
  0
VERTEX
  5
2D1
  8
DEFAULT
 62
     5
 10
14.17624405851026
 20
56.68195027586821
 30
0.0
  0
VERTEX
  5
2D2
  8
DEFAULT
 62
     5
 10
14.17624405851026
 20
60.29306138697932
 30
0.0
  0
VERTEX
  5
2D3
  8
DEFAULT
 62
     5
 10
15.07130578690532
 20
60.29306138697932
 30
0.0
  0
VERTEX
  5
2D4
  8
DEFAULT
 62
     5
 10
15.07130578690532
 20
59.78332010275366
 30
0.0
 42
-0.0977550519460769
  0
VERTEX
  5
2D5
  8
DEFAULT
 62
     5
 10
15.46337764182782
 20
60.26509075211923
 30
0.0
 42
-0.1561720185079338
  0
VERTEX
  5
2D6
  8
DEFAULT
 62
     5
 10
15.85834305942109
 20
60.38565397957191
 30
0.0
 42
-0.1438170981370004
  0
VERTEX
  5
2D7
  8
DEFAULT
 62
     5
 10
16.46019467579421
 20
60.20384461750264
 30
0.0
  0
VERTEX
  5
2D8
  8
DEFAULT
 62
     5
 10
16.16698503472973
 20
59.3661714111206
 30
0.0
 42
0.1496770151887563
  0
VERTEX
  5
2D9
  8
DEFAULT
 62
     5
 10
15.74067339463919
 20
59.52145644870772
 30
0.0
 42
0.1810970994866989
  0
VERTEX
  5
2DA
  8
DEFAULT
 62
     5
 10
15.41732271123282
 20
59.4107795603802
 30
0.0
 42
0.1501348396488297
  0
VERTEX
  5
2DB
  8
DEFAULT
 62
     5
 10
15.20898926016011
 20
59.0107506435918
 30
0.0
 42
0.0509111359642203
  0
VERTEX
  5
2DC
  8
DEFAULT
 62
     5
 10
15.13303418196705
 20
57.79884851232088
 30
0.0
  0
SEQEND
  5
2DD
  8
DEFAULT
 62
     5
  0
POLYLINE
  5
2DE
  8
DEFAULT
 62
     5
 66
     1
 10
0.0
 20
0.0
 30
0.0
 70
     1
  0
VERTEX
  5
2DF
  8
DEFAULT
 62
     5
 10
12.47871319431273
 20
58.81157990549784
 30
0.0
 42
0.1931771868552537
  0
VERTEX
  5
2E0
  8
DEFAULT
 62
     5
 10
12.25904709373693
 20
59.43248080945359
 30
0.0
 42
0.4344367687048135
  0
VERTEX
  5
2E1
  8
DEFAULT
 62
     5
 10
11.22003274177912
 20
59.42066589950538
 30
0.0
 42
0.1974850402976625
  0
VERTEX
  5
2E2
  8
DEFAULT
 62
     5
 10
11.01411082841081
 20
58.81157990549784
 30
0.0
  0
SEQEND
  5
2E3
  8
DEFAULT
 62
     5
  0
POLYLINE
  5
2E4
  8
DEFAULT
 62
     5
 66
     1
 10
0.0
 20
0.0
 30
0.0
 70
     1
  0
VERTEX
  5
2E5
  8
DEFAULT
 62
     5
 10
12.416984799251
 20
57.82392558451019
 30
0.0
  0
VERTEX
  5
2E6
  8
DEFAULT
 62
     5
 10
13.37377492270779
 20
57.70046879438673
 30
0.0
 42
-0.1601948643917483
  0
VERTEX
  5
2E7
  8
DEFAULT
 62
     5
 10
12.79217777407267
 20
56.87340484684009
 30
0.0
 42
-0.1590209405814554
  0
VERTEX
  5
2E8
  8
DEFAULT
 62
     5
 10
11.79729001736553
 20
56.58935768327562
 30
0.0
 42
-0.2510606897924205
  0
VERTEX
  5
2E9
  8
DEFAULT
 62
     5
 10
10.39875591957404
 20
57.20857067567342
 30
0.0
 42
-0.160323168959825
  0
VERTEX
  5
2EA
  8
DEFAULT
 62
     5
 10
10.04044158937446
 20
58.46001769248755
 30
0.0
 42
-0.1928988919450624
  0
VERTEX
  5
2EB
  8
DEFAULT
 62
     5
 10
10.51280863101745
 20
59.87446591401087
 30
0.0
 42
-0.2186957110499429
  0
VERTEX
  5
2EC
  8
DEFAULT
 62
     5
 10
11.70710825604112
 20
60.38565397957191
 30
0.0
 42
-0.2248762650829816
  0
VERTEX
  5
2ED
  8
DEFAULT
 62
     5
 10
12.98700816816046
 20
59.85397008057157
 30
0.0
 42
-0.1866850592647354
  0
VERTEX
  5
2EE
  8
DEFAULT
 62
     5
 10
13.43550331776952
 20
58.22516015241142
 30
0.0
  0
VERTEX
  5
2EF
  8
DEFAULT
 62
     5
 10
10.99723171283125
 20
58.22516015241142
 30
0.0
 42
0.1907233177561384
  0
VERTEX
  5
2F0
  8
DEFAULT
 62
     5
 10
11.2332949040202
 20
57.56567911928145
 30
0.0
 42
0.2135192120775384
  0
VERTEX
  5
2F1
  8
DEFAULT
 62
     5
 10
11.79584323603014
 20
57.33009842401636
 30
0.0
 42
0.1657236937101078
  0
VERTEX
  5
2F2
  8
DEFAULT
 62
     5
 10
12.18092207901951
 20
57.44704493360929
 30
0.0
 42
0.1589948514629371
  0
SEQEND
  5
2F3
  8
DEFAULT
 62
     5
  0
POLYLINE
  5
2F4
  8
DEFAULT
 62
     5
 66
     1
 10
0.0
 20
0.0
 30
0.0
 70
     1
  0
VERTEX
  5
2F5
  8
DEFAULT
 62
     5
 10
9.361429243695444
 20
56.68195027586821
 30
0.0
  0
VERTEX
  5
2F6
  8
DEFAULT
 62
     5
 10
8.404639120238652
 20
56.68195027586821
 30
0.0
  0
VERTEX
  5
2F7
  8
DEFAULT
 62
     5
 10
8.404639120238652
 20
58.52560417111032
 30
0.0
  0
VERTEX
  5
2F8
  8
DEFAULT
 62
     5
 10
8.34435750651231
 20
59.28274153150675
 30
0.0
 42
0.3361246103438334
  0
VERTEX
  5
2F9
  8
DEFAULT
 62
     5
 10
7.822559711158402
 20
59.64491323883118
 30
0.0
 42
0.1576987046344894
  0
VERTEX
  5
2FA
  8
DEFAULT
 62
     5
 10
7.38443292564091
 20
59.50891791261306
 30
0.0
 42
0.1684371822617446
  0
VERTEX
  5
2FB
  8
DEFAULT
 62
     5
 10
7.118470293290083
 20
59.14843388136786
 30
0.0
 42
0.0659809918576636
  0
VERTEX
  5
2FC
  8
DEFAULT
 62
     5
 10
7.046614428880625
 20
58.31823500544915
 30
0.0
  0
VERTEX
  5
2FD
  8
DEFAULT
 62
     5
 10
7.046614428880627
 20
56.68195027586821
 30
0.0
  0
VERTEX
  5
2FE
  8
DEFAULT
 62
     5
 10
6.089824305423836
 20
56.68195027586821
 30
0.0
  0
VERTEX
  5
2FF
  8
DEFAULT
 62
     5
 10
6.089824305423836
 20
60.29306138697932
 30
0.0
  0
VERTEX
  5
300
  8
DEFAULT
 62
     5
 10
6.984886033818899
 20
60.29306138697932
 30
0.0
  0
VERTEX
  5
301
  8
DEFAULT
 62
     5
 10
6.984886033818899
 20
59.76644145813157
 30
0.0
 42
-0.2486296121988494
  0
VERTEX
  5
302
  8
DEFAULT
 62
     5
 10
8.161583623552783
 20
60.38565397957191
 30
0.0
 42
-0.1053164015607983
  0
VERTEX
  5
303
  8
DEFAULT
 62
     5
 10
8.732812408096333
 20
60.27136013790593
 30
0.0
 42
-0.1292191717088761
  0
VERTEX
  5
304
  8
DEFAULT
 62
     5
 10
9.1244020025737
 20
59.97983817292068
 30
0.0
  0
VERTEX
  5
305
  8
DEFAULT
 62
     5
 10
9.30934605753632
 20
59.57739795390662
 30
0.0
  0
VERTEX
  5
306
  8
DEFAULT
 62
     5
 10
9.361429243695444
 20
58.93262586435311
 30
0.0
  0
SEQEND
  5
307
  8
DEFAULT
 62
     5
  0
POLYLINE
  5
308
  8
DEFAULT
 62
     5
 66
     1
 10
0.0
 20
0.0
 30
0.0
 70
     1
  0
VERTEX
  5
309
  8
DEFAULT
 62
     5
 10
4.392293441226304
 20
58.81157990549784
 30
0.0
 42
0.1931771868552662
  0
VERTEX
  5
30A
  8
DEFAULT
 62
     5
 10
4.172627340650516
 20
59.4324808094536
 30
0.0
 42
0.4344367687048177
  0
VERTEX
  5
30B
  8
DEFAULT
 62
     5
 10
3.133612988692698
 20
59.42066589950537
 30
0.0
 42
0.1974850402976585
  0
VERTEX
  5
30C
  8
DEFAULT
 62
     5
 10
2.927691075324388
 20
58.81157990549784
 30
0.0
  0
SEQEND
  5
30D
  8
DEFAULT
 62
     5
  0
POLYLINE
  5
30E
  8
DEFAULT
 62
     5
 66
     1
 10
0.0
 20
0.0
 30
0.0
 70
     1
  0
VERTEX
  5
30F
  8
DEFAULT
 62
     5
 10
4.330565046164576
 20
57.82392558451019
 30
0.0
  0
VERTEX
  5
310
  8
DEFAULT
 62
     5
 10
5.287355169621366
 20
57.70046879438673
 30
0.0
 42
-0.160194864391746
  0
VERTEX
  5
311
  8
DEFAULT
 62
     5
 10
4.705758020986246
 20
56.87340484684009
 30
0.0
 42
-0.1590209405814545
  0
VERTEX
  5
312
  8
DEFAULT
 62
     5
 10
3.710870264279109
 20
56.58935768327562
 30
0.0
 42
-0.2510606897924186
  0
VERTEX
  5
313
  8
DEFAULT
 62
     5
 10
2.312336166487617
 20
57.20857067567342
 30
0.0
 42
-0.1603231689598253
  0
VERTEX
  5
314
  8
DEFAULT
 62
     5
 10
1.954021836288041
 20
58.46001769248755
 30
0.0
 42
-0.1928988919450622
  0
VERTEX
  5
315
  8
DEFAULT
 62
     5
 10
2.426388877931037
 20
59.87446591401087
 30
0.0
 42
-0.2186957110499446
  0
VERTEX
  5
316
  8
DEFAULT
 62
     5
 10
3.620688502954703
 20
60.38565397957192
 30
0.0
 42
-0.2248762650829825
  0
VERTEX
  5
317
  8
DEFAULT
 62
     5
 10
4.900588415074032
 20
59.85397008057157
 30
0.0
 42
-0.1866850592647331
  0
VERTEX
  5
318
  8
DEFAULT
 62
     5
 10
5.349083564683096
 20
58.22516015241142
 30
0.0
  0
VERTEX
  5
319
  8
DEFAULT
 62
     5
 10
2.910811959744824
 20
58.22516015241142
 30
0.0
 42
0.1907233177561339
  0
VERTEX
  5
31A
  8
DEFAULT
 62
     5
 10
3.146875150933777
 20
57.56567911928145
 30
0.0
 42
0.2135192120775292
  0
VERTEX
  5
31B
  8
DEFAULT
 62
     5
 10
3.709423482943719
 20
57.33009842401636
 30
0.0
 42
0.1657236937101059
  0
VERTEX
  5
31C
  8
DEFAULT
 62
     5
 10
4.094502325933101
 20
57.44704493360928
 30
0.0
 42
0.1589948514629373
  0
SEQEND
  5
31D
  8
DEFAULT
 62
     5
  0
POLYLINE
  5
31E
  8
DEFAULT
 62
     5
 66
     1
 10
0.0
 20
0.0
 30
0.0
 70
     1
  0
VERTEX
  5
31F
  8
DEFAULT
 62
     5
 10
-1.039805324205791
 20
58.54826994107397
 30
0.0
 42
0.1662127852120593
  0
VERTEX
  5
320
  8
DEFAULT
 62
     5
 10
-0.80301897782788
 20
57.62764864456574
 30
0.0
 42
0.2404461653497498
  0
VERTEX
  5
321
  8
DEFAULT
 62
     5
 10
-0.226244198165329
 20
57.33009842401636
 30
0.0
 42
0.2413239634427128
  0
VERTEX
  5
322
  8
DEFAULT
 62
     5
 10
0.3174962119632746
 20
57.60329496304413
 30
0.0
 42
0.1627449374921672
  0
VERTEX
  5
323
  8
DEFAULT
 62
     5
 10
0.5342687498682789
 20
58.49956257803075
 30
0.0
 42
0.1661976731382126
  0
VERTEX
  5
324
  8
DEFAULT
 62
     5
 10
0.3107445657314469
 20
59.36303648274851
 30
0.0
 42
0.2412377667960515
  0
VERTEX
  5
325
  8
DEFAULT
 62
     5
 10
-0.2426405823422897
 20
59.64491323883117
 30
0.0
 42
0.2367422129322002
  0
VERTEX
  5
326
  8
DEFAULT
 62
     5
 10
-0.8131462116968778
 20
59.36809998194366
 30
0.0
 42
0.172344780998886
  0
SEQEND
  5
327
  8
DEFAULT
 62
     5
  0
POLYLINE
  5
328
  8
DEFAULT
 62
     5
 66
     1
 10
0.0
 20
0.0
 30
0.0
 70
     1
  0
VERTEX
  5
329
  8
DEFAULT
 62
     5
 10
-1.996595447662582
 20
60.29306138697932
 30
0.0
  0
VERTEX
  5
32A
  8
DEFAULT
 62
     5
 10
-1.101533719267518
 20
60.29306138697932
 30
0.0
  0
VERTEX
  5
32B
  8
DEFAULT
 62
     5
 10
-1.10153371926752
 20
59.76644145813157
 30
0.0
 42
-0.1189653659007627
  0
VERTEX
  5
32C
  8
DEFAULT
 62
     5
 10
-0.6392939114935176
 20
60.21107852417959
 30
0.0
 42
-0.138210559891023
  0
VERTEX
  5
32D
  8
DEFAULT
 62
     5
 10
0.0071665605754062
 20
60.38565397957191
 30
0.0
 42
-0.2273648758850355
  0
VERTEX
  5
32E
  8
DEFAULT
 62
     5
 10
1.058960107892978
 20
59.88965688255374
 30
0.0
 42
-0.1838682188936157
  0
VERTEX
  5
32F
  8
DEFAULT
 62
     5
 10
1.491058873325068
 20
58.50824279508563
 30
0.0
 42
-0.1823656645300201
  0
VERTEX
  5
330
  8
DEFAULT
 62
     5
 10
1.055343390033233
 20
57.09379457356231
 30
0.0
 42
-0.2285594541574825
  0
VERTEX
  5
331
  8
DEFAULT
 62
     5
 10
-0.000549606546677
 20
56.58935768327562
 30
0.0
 42
-0.1163198006807775
  0
VERTEX
  5
332
  8
DEFAULT
 62
     5
 10
-0.5353684339190996
 20
56.70750984398137
 30
0.0
 42
-0.0904152380777727
  0
VERTEX
  5
333
  8
DEFAULT
 62
     5
 10
-1.039805324205789
 20
57.11260273092238
 30
0.0
  0
VERTEX
  5
334
  8
DEFAULT
 62
     5
 10
-1.039805324205791
 20
55.29306138697932
 30
0.0
  0
VERTEX
  5
335
  8
DEFAULT
 62
     5
 10
-1.996595447662582
 20
55.29306138697932
 30
0.0
  0
SEQEND
  5
336
  8
DEFAULT
 62
     5
  0
POLYLINE
  5
337
  8
DEFAULT
 62
     5
 66
     1
 10
0.0
 20
0.0
 30
0.0
 70
     1
  0
VERTEX
  5
338
  8
DEFAULT
 62
     5
 10
-5.484249768650237
 20
58.4875060669025
 30
0.0
 42
0.180769690720825
  0
VERTEX
  5
339
  8
DEFAULT
 62
     5
 10
-5.234442625732543
 20
57.65127917089838
 30
0.0
 42
0.4777036397637689
  0
VERTEX
  5
33A
  8
DEFAULT
 62
     5
 10
-4.00397370280284
 20
57.65127917089838
 30
0.0
 42
0.1794408075869714
  0
VERTEX
  5
33B
  8
DEFAULT
 62
     5
 10
-3.755854706921833
 20
58.49425771313432
 30
0.0
 42
0.1800932450793771
  0
VERTEX
  5
33C
  8
DEFAULT
 62
     5
 10
-4.003973702802842
 20
59.32373272742788
 30
0.0
 42
0.4793729384846611
  0
VERTEX
  5
33D
  8
DEFAULT
 62
     5
 10
-5.234442625732548
 20
59.32373272742788
 30
0.0
 42
0.1807697890868478
  0
SEQEND
  5
33E
  8
DEFAULT
 62
     5
  0
POLYLINE
  5
33F
  8
DEFAULT
 62
     5
 66
     1
 10
0.0
 20
0.0
 30
0.0
 70
     1
  0
VERTEX
  5
340
  8
DEFAULT
 62
     5
 10
-6.441039892107025
 20
58.53862473217136
 30
0.0
 42
-0.1222574291832726
  0
VERTEX
  5
341
  8
DEFAULT
 62
     5
 10
-6.207870499067588
 20
59.46551541446627
 30
0.0
 42
-0.1509199207836048
  0
VERTEX
  5
342
  8
DEFAULT
 62
     5
 10
-5.547183579346056
 20
60.14959125934042
 30
0.0
 42
-0.1287246067144191
  0
VERTEX
  5
343
  8
DEFAULT
 62
     5
 10
-4.59256339241362
 20
60.38565397957191
 30
0.0
 42
-0.2109274079128352
  0
VERTEX
  5
344
  8
DEFAULT
 62
     5
 10
-3.257687202421846
 20
59.85035312723309
 30
0.0
 42
-0.202621263980177
  0
VERTEX
  5
345
  8
DEFAULT
 62
     5
 10
-2.737336188403328
 20
58.49763353625023
 30
0.0
 42
-0.2022295973323238
  0
VERTEX
  5
346
  8
DEFAULT
 62
     5
 10
-3.262750701616976
 20
57.13141018184626
 30
0.0
 42
-0.2115506096600937
  0
VERTEX
  5
347
  8
DEFAULT
 62
     5
 10
-4.585812217139264
 20
56.58935768327562
 30
0.0
 42
-0.1188796278362368
  0
VERTEX
  5
348
  8
DEFAULT
 62
     5
 10
-5.526929111608057
 20
56.81505227489426
 30
0.0
 42
-0.1582355798320267
  0
VERTEX
  5
349
  8
DEFAULT
 62
     5
 10
-6.20787049906759
 20
57.47694484572862
 30
0.0
 42
-0.1239053267140344
  0
SEQEND
  5
34A
  8
DEFAULT
 62
     5
  0
POLYLINE
  5
34B
  8
DEFAULT
 62
     5
 66
     1
 10
0.0
 20
0.0
 30
0.0
 70
     1
  0
VERTEX
  5
34C
  8
DEFAULT
 62
     5
 10
-9.836101620502088
 20
58.81157990549784
 30
0.0
 42
0.1931771868552537
  0
VERTEX
  5
34D
  8
DEFAULT
 62
     5
 10
-10.05576772107788
 20
59.43248080945359
 30
0.0
 42
0.4344367687048146
  0
VERTEX
  5
34E
  8
DEFAULT
 62
     5
 10
-11.0947820730357
 20
59.42066589950538
 30
0.0
 42
0.1974850402976623
  0
VERTEX
  5
34F
  8
DEFAULT
 62
     5
 10
-11.30070398640401
 20
58.81157990549784
 30
0.0
  0
SEQEND
  5
350
  8
DEFAULT
 62
     5
  0
POLYLINE
  5
351
  8
DEFAULT
 62
     5
 66
     1
 10
0.0
 20
0.0
 30
0.0
 70
     1
  0
VERTEX
  5
352
  8
DEFAULT
 62
     5
 10
-9.897830015563816
 20
57.82392558451019
 30
0.0
  0
VERTEX
  5
353
  8
DEFAULT
 62
     5
 10
-8.94103989210703
 20
57.70046879438674
 30
0.0
 42
-0.1601948643917434
  0
VERTEX
  5
354
  8
DEFAULT
 62
     5
 10
-9.522637040742145
 20
56.87340484684009
 30
0.0
 42
-0.159020940581455
  0
VERTEX
  5
355
  8
DEFAULT
 62
     5
 10
-10.51752479744929
 20
56.58935768327562
 30
0.0
 42
-0.2510606897924231
  0
VERTEX
  5
356
  8
DEFAULT
 62
     5
 10
-11.91605889524078
 20
57.20857067567342
 30
0.0
 42
-0.1603231689598248
  0
VERTEX
  5
357
  8
DEFAULT
 62
     5
 10
-12.27437322544036
 20
58.46001769248755
 30
0.0
 42
-0.1928988919450624
  0
VERTEX
  5
358
  8
DEFAULT
 62
     5
 10
-11.80200618379736
 20
59.87446591401087
 30
0.0
 42
-0.2186957110499446
  0
VERTEX
  5
359
  8
DEFAULT
 62
     5
 10
-10.60770655877369
 20
60.38565397957192
 30
0.0
 42
-0.2248762650829808
  0
VERTEX
  5
35A
  8
DEFAULT
 62
     5
 10
-9.32780664665436
 20
59.85397008057157
 30
0.0
 42
-0.1866850592647352
  0
VERTEX
  5
35B
  8
DEFAULT
 62
     5
 10
-8.879311497045297
 20
58.22516015241142
 30
0.0
  0
VERTEX
  5
35C
  8
DEFAULT
 62
     5
 10
-11.31758310198357
 20
58.22516015241142
 30
0.0
 42
0.1907233177561207
  0
VERTEX
  5
35D
  8
DEFAULT
 62
     5
 10
-11.08151991079462
 20
57.56567911928145
 30
0.0
 42
0.2135192120775229
  0
VERTEX
  5
35E
  8
DEFAULT
 62
     5
 10
-10.51897157878468
 20
57.33009842401636
 30
0.0
 42
0.1657236937101094
  0
VERTEX
  5
35F
  8
DEFAULT
 62
     5
 10
-10.1338927357953
 20
57.44704493360929
 30
0.0
 42
0.1589948514629461
  0
SEQEND
  5
360
  8
DEFAULT
 62
     5
  0
POLYLINE
  5
361
  8
DEFAULT
 62
     5
 66
     1
 10
0.0
 20
0.0
 30
0.0
 70
     1
  0
VERTEX
  5
362
  8
DEFAULT
 62
     5
 10
-13.91017569457616
 20
56.68195027586821
 30
0.0
  0
VERTEX
  5
363
  8
DEFAULT
 62
     5
 10
-13.91017569457616
 20
61.65108607833734
 30
0.0
  0
VERTEX
  5
364
  8
DEFAULT
 62
     5
 10
-12.95338557111937
 20
61.65108607833734
 30
0.0
  0
VERTEX
  5
365
  8
DEFAULT
 62
     5
 10
-12.95338557111937
 20
56.68195027586821
 30
0.0
  0
SEQEND
  5
366
  8
DEFAULT
 62
     5
  0
POLYLINE
  5
367
  8
DEFAULT
 62
     5
 66
     1
 10
0.0
 20
0.0
 30
0.0
 70
     1
  0
VERTEX
  5
368
  8
DEFAULT
 62
     5
 10
-14.55832384272431
 20
60.29306138697932
 30
0.0
  0
VERTEX
  5
369
  8
DEFAULT
 62
     5
 10
-14.55832384272431
 20
59.55232064623858
 30
0.0
  0
VERTEX
  5
36A
  8
DEFAULT
 62
     5
 10
-15.20647199087246
 20
59.55232064623858
 30
0.0
  0
VERTEX
  5
36B
  8
DEFAULT
 62
     5
 10
-15.20647199087246
 20
58.06119442681196
 30
0.0
  0
VERTEX
  5
36C
  8
DEFAULT
 62
     5
 10
-15.18814632943624
 20
57.53336814041519
 30
0.0
  0
VERTEX
  5
36D
  8
DEFAULT
 62
     5
 10
-15.10543984049009
 20
57.40967022006917
 30
0.0
  0
VERTEX
  5
36E
  8
DEFAULT
 62
     5
 10
-14.94798415994242
 20
57.36096262154722
 30
0.0
  0
VERTEX
  5
36F
  8
DEFAULT
 62
     5
 10
-14.57375570601101
 20
57.45210890376189
 30
0.0
  0
VERTEX
  5
370
  8
DEFAULT
 62
     5
 10
-14.49659544766258
 20
56.72824680764324
 30
0.0
 42
-0.1009135694950842
  0
VERTEX
  5
371
  8
DEFAULT
 62
     5
 10
-15.2411938010069
 20
56.58935768327562
 30
0.0
  0
VERTEX
  5
372
  8
DEFAULT
 62
     5
 10
-15.70054004611012
 20
56.67712790689564
 30
0.0
 42
-0.1427327602513718
  0
VERTEX
  5
373
  8
DEFAULT
 62
     5
 10
-16.00074269910771
 20
56.90402814962712
 30
0.0
  0
VERTEX
  5
374
  8
DEFAULT
 62
     5
 10
-16.13287970628605
 20
57.28042654008289
 30
0.0
  0
VERTEX
  5
375
  8
DEFAULT
 62
     5
 10
-16.16326211432925
 20
57.96088566709729
 30
0.0
  0
VERTEX
  5
376
  8
DEFAULT
 62
     5
 10
-16.16326211432925
 20
59.55232064623858
 30
0.0
  0
VERTEX
  5
377
  8
DEFAULT
 62
     5
 10
-16.62622507729221
 20
59.55232064623858
 30
0.0
  0
VERTEX
  5
378
  8
DEFAULT
 62
     5
 10
-16.62622507729221
 20
60.29306138697932
 30
0.0
  0
VERTEX
  5
379
  8
DEFAULT
 62
     5
 10
-16.16326211432925
 20
60.29306138697932
 30
0.0
  0
VERTEX
  5
37A
  8
DEFAULT
 62
     5
 10
-16.16326211432925
 20
60.97207373265833
 30
0.0
  0
VERTEX
  5
37B
  8
DEFAULT
 62
     5
 10
-15.20647199087246
 20
61.52762928821389
 30
0.0
  0
VERTEX
  5
37C
  8
DEFAULT
 62
     5
 10
-15.20647199087246
 20
60.29306138697932
 30
0.0
  0
SEQEND
  5
37D
  8
DEFAULT
 62
     5
  0
POLYLINE
  5
37E
  8
DEFAULT
 62
     5
 66
     1
 10
0.0
 20
0.0
 30
0.0
 70
     1
  0
VERTEX
  5
37F
  8
DEFAULT
 62
     5
 10
-16.87313865753912
 20
60.29306138697932
 30
0.0
  0
VERTEX
  5
380
  8
DEFAULT
 62
     5
 10
-16.87313865753912
 20
59.55232064623858
 30
0.0
  0
VERTEX
  5
381
  8
DEFAULT
 62
     5
 10
-17.52128680568727
 20
59.55232064623858
 30
0.0
  0
VERTEX
  5
382
  8
DEFAULT
 62
     5
 10
-17.52128680568727
 20
58.06119442681196
 30
0.0
  0
VERTEX
  5
383
  8
DEFAULT
 62
     5
 10
-17.50296114425106
 20
57.53336814041519
 30
0.0
  0
VERTEX
  5
384
  8
DEFAULT
 62
     5
 10
-17.4202546553049
 20
57.40967022006917
 30
0.0
  0
VERTEX
  5
385
  8
DEFAULT
 62
     5
 10
-17.26279897475724
 20
57.36096262154722
 30
0.0
  0
VERTEX
  5
386
  8
DEFAULT
 62
     5
 10
-16.88857052082582
 20
57.45210890376189
 30
0.0
  0
VERTEX
  5
387
  8
DEFAULT
 62
     5
 10
-16.81141026247739
 20
56.72824680764324
 30
0.0
 42
-0.1009135694950853
  0
VERTEX
  5
388
  8
DEFAULT
 62
     5
 10
-17.55600861582171
 20
56.58935768327562
 30
0.0
  0
VERTEX
  5
389
  8
DEFAULT
 62
     5
 10
-18.01535486092493
 20
56.67712790689564
 30
0.0
 42
-0.1427327602513861
  0
VERTEX
  5
38A
  8
DEFAULT
 62
     5
 10
-18.31555751392253
 20
56.90402814962712
 30
0.0
  0
VERTEX
  5
38B
  8
DEFAULT
 62
     5
 10
-18.44769452110086
 20
57.28042654008289
 30
0.0
  0
VERTEX
  5
38C
  8
DEFAULT
 62
     5
 10
-18.47807692914406
 20
57.96088566709729
 30
0.0
  0
VERTEX
  5
38D
  8
DEFAULT
 62
     5
 10
-18.47807692914406
 20
59.55232064623858
 30
0.0
  0
VERTEX
  5
38E
  8
DEFAULT
 62
     5
 10
-18.94103989210702
 20
59.55232064623858
 30
0.0
  0
VERTEX
  5
38F
  8
DEFAULT
 62
     5
 10
-18.94103989210702
 20
60.29306138697932
 30
0.0
  0
VERTEX
  5
390
  8
DEFAULT
 62
     5
 10
-18.47807692914406
 20
60.29306138697932
 30
0.0
  0
VERTEX
  5
391
  8
DEFAULT
 62
     5
 10
-18.47807692914406
 20
60.97207373265833
 30
0.0
  0
VERTEX
  5
392
  8
DEFAULT
 62
     5
 10
-17.52128680568727
 20
61.52762928821389
 30
0.0
  0
VERTEX
  5
393
  8
DEFAULT
 62
     5
 10
-17.52128680568727
 20
60.29306138697932
 30
0.0
  0
SEQEND
  5
394
  8
DEFAULT
 62
     5
  0
POLYLINE
  5
395
  8
DEFAULT
 62
     5
 66
     1
 10
0.0
 20
0.0
 30
0.0
 70
     1
  0
VERTEX
  5
396
  8
DEFAULT
 62
     5
 10
-22.02745964519345
 20
58.4875060669025
 30
0.0
 42
0.1807696907208355
  0
VERTEX
  5
397
  8
DEFAULT
 62
     5
 10
-21.77765250227575
 20
57.65127917089838
 30
0.0
 42
0.4777036397637427
  0
VERTEX
  5
398
  8
DEFAULT
 62
     5
 10
-20.54718357934606
 20
57.65127917089838
 30
0.0
 42
0.1794408075869757
  0
VERTEX
  5
399
  8
DEFAULT
 62
     5
 10
-20.29906458346505
 20
58.49425771313432
 30
0.0
 42
0.1800932450793816
  0
VERTEX
  5
39A
  8
DEFAULT
 62
     5
 10
-20.54718357934605
 20
59.32373272742788
 30
0.0
 42
0.4793729384846576
  0
VERTEX
  5
39B
  8
DEFAULT
 62
     5
 10
-21.77765250227574
 20
59.32373272742787
 30
0.0
 42
0.1807697890868586
  0
SEQEND
  5
39C
  8
DEFAULT
 62
     5
  0
POLYLINE
  5
39D
  8
DEFAULT
 62
     5
 66
     1
 10
0.0
 20
0.0
 30
0.0
 70
     1
  0
VERTEX
  5
39E
  8
DEFAULT
 62
     5
 10
-22.98424976865023
 20
58.53862473217136
 30
0.0
 42
-0.122257429183276
  0
VERTEX
  5
39F
  8
DEFAULT
 62
     5
 10
-22.7510803756108
 20
59.46551541446628
 30
0.0
 42
-0.1509199207836092
  0
VERTEX
  5
3A0
  8
DEFAULT
 62
     5
 10
-22.09039345588927
 20
60.14959125934043
 30
0.0
 42
-0.1287246067144102
  0
VERTEX
  5
3A1
  8
DEFAULT
 62
     5
 10
-21.13577326895683
 20
60.38565397957191
 30
0.0
 42
-0.2109274079128401
  0
VERTEX
  5
3A2
  8
DEFAULT
 62
     5
 10
-19.80089707896505
 20
59.8503531272331
 30
0.0
 42
-0.202621263980176
  0
VERTEX
  5
3A3
  8
DEFAULT
 62
     5
 10
-19.28054606494652
 20
58.49763353625023
 30
0.0
 42
-0.2022295973323235
  0
VERTEX
  5
3A4
  8
DEFAULT
 62
     5
 10
-19.80596057816019
 20
57.13141018184627
 30
0.0
 42
-0.2115506096600964
  0
VERTEX
  5
3A5
  8
DEFAULT
 62
     5
 10
-21.12902209368247
 20
56.58935768327562
 30
0.0
 42
-0.1188796278362343
  0
VERTEX
  5
3A6
  8
DEFAULT
 62
     5
 10
-22.07013898815126
 20
56.81505227489427
 30
0.0
 42
-0.1582355798320221
  0
VERTEX
  5
3A7
  8
DEFAULT
 62
     5
 10
-22.7510803756108
 20
57.47694484572862
 30
0.0
 42
-0.1239053267140376
  0
SEQEND
  5
3A8
  8
DEFAULT
 62
     5
  0
POLYLINE
  5
3A9
  8
DEFAULT
 62
     5
 66
     1
 10
0.0
 20
0.0
 30
0.0
 70
     1
  0
VERTEX
  5
3AA
  8
DEFAULT
 62
     5
 10
-26.74968186741567
 20
58.8424441030287
 30
0.0
  0
VERTEX
  5
3AB
  8
DEFAULT
 62
     5
 10
-26.74968186741567
 20
57.51528360920155
 30
0.0
  0
VERTEX
  5
3AC
  8
DEFAULT
 62
     5
 10
-25.8039832632394
 20
57.51528360920155
 30
0.0
  0
VERTEX
  5
3AD
  8
DEFAULT
 62
     5
 10
-25.103269668487
 20
57.54566601724474
 30
0.0
 42
0.1700645963527522
  0
VERTEX
  5
3AE
  8
DEFAULT
 62
     5
 10
-24.7324170376715
 20
57.74363063326842
 30
0.0
 42
0.1915197020988842
  0
VERTEX
  5
3AF
  8
DEFAULT
 62
     5
 10
-24.58918804025517
 20
58.16536079913021
 30
0.0
 42
0.335644150152588
  0
VERTEX
  5
3B0
  8
DEFAULT
 62
     5
 10
-25.01887526798289
 20
58.77131186476566
 30
0.0
 42
0.0645498908197099
  0
VERTEX
  5
3B1
  8
DEFAULT
 62
     5
 10
-25.92502875113721
 20
58.8424441030287
 30
0.0
  0
SEQEND
  5
3B2
  8
DEFAULT
 62
     5
  0
POLYLINE
  5
3B3
  8
DEFAULT
 62
     5
 66
     1
 10
0.0
 20
0.0
 30
0.0
 70
     1
  0
VERTEX
  5
3B4
  8
DEFAULT
 62
     5
 10
-26.74968186741567
 20
60.81775274500401
 30
0.0
  0
VERTEX
  5
3B5
  8
DEFAULT
 62
     5
 10
-26.74968186741567
 20
59.67577743636204
 30
0.0
  0
VERTEX
  5
3B6
  8
DEFAULT
 62
     5
 10
-26.10056919837726
 20
59.67577743636204
 30
0.0
  0
VERTEX
  5
3B7
  8
DEFAULT
 62
     5
 10
-25.38152970670991
 20
59.6926565519416
 30
0.0
 42
0.1723648267869741
  0
VERTEX
  5
3B8
  8
DEFAULT
 62
     5
 10
-24.98174192014406
 20
59.86964330955956
 30
0.0
 42
0.205240418871157
  0
VERTEX
  5
3B9
  8
DEFAULT
 62
     5
 10
-24.83610162050208
 20
60.25496375372897
 30
0.0
 42
0.1866093647959249
  0
VERTEX
  5
3BA
  8
DEFAULT
 62
     5
 10
-24.96148721692733
 20
60.62726293040112
 30
0.0
 42
0.1881017264575379
  0
VERTEX
  5
3BB
  8
DEFAULT
 62
     5
 10
-25.33475091448975
 20
60.80087410038193
 30
0.0
  0
VERTEX
  5
3BC
  8
DEFAULT
 62
     5
 10
-26.1811052798416
 20
60.81775274500401
 30
0.0
  0
SEQEND
  5
3BD
  8
DEFAULT
 62
     5
  0
POLYLINE
  5
3BE
  8
DEFAULT
 62
     5
 66
     1
 10
0.0
 20
0.0
 30
0.0
 70
     1
  0
VERTEX
  5
3BF
  8
DEFAULT
 62
     5
 10
-27.76820038593419
 20
61.65108607833734
 30
0.0
  0
VERTEX
  5
3C0
  8
DEFAULT
 62
     5
 10
-25.76540289858646
 20
61.65108607833734
 30
0.0
  0
VERTEX
  5
3C1
  8
DEFAULT
 62
     5
 10
-24.87853983323734
 20
61.601896454849
 30
0.0
 42
-0.1086378481005744
  0
VERTEX
  5
3C2
  8
DEFAULT
 62
     5
 10
-24.35577751699318
 20
61.39669793214838
 30
0.0
 42
-0.1119354152345619
  0
VERTEX
  5
3C3
  8
DEFAULT
 62
     5
 10
-23.97142182919275
 20
60.98099578637198
 30
0.0
 42
-0.1368663048315755
  0
VERTEX
  5
3C4
  8
DEFAULT
 62
     5
 10
-23.81758310198357
 20
60.39915727203556
 30
0.0
 42
-0.1438345971026554
  0
VERTEX
  5
3C5
  8
DEFAULT
 62
     5
 10
-24.00059811516567
 20
59.75824279508563
 30
0.0
 42
-0.1476711430717972
  0
VERTEX
  5
3C6
  8
DEFAULT
 62
     5
 10
-24.49707723715025
 20
59.3203571397907
 30
0.0
 42
-0.1641083931471412
  0
VERTEX
  5
3C7
  8
DEFAULT
 62
     5
 10
-23.81059032552918
 20
58.86993271292239
 30
0.0
 42
-0.1671418238393542
  0
VERTEX
  5
3C8
  8
DEFAULT
 62
     5
 10
-23.57066952173665
 20
58.1214760405383
 30
0.0
 42
-0.1171702878006866
  0
VERTEX
  5
3C9
  8
DEFAULT
 62
     5
 10
-23.72957174814098
 20
57.46271839807602
 30
0.0
 42
-0.1283109165686926
  0
VERTEX
  5
3CA
  8
DEFAULT
 62
     5
 10
-24.16359931987486
 20
56.95128896681368
 30
0.0
 42
-0.1261894036460512
  0
VERTEX
  5
3CB
  8
DEFAULT
 62
     5
 10
-24.84237053533131
 20
56.71570803606986
 30
0.0
  0
VERTEX
  5
3CC
  8
DEFAULT
 62
     5
 10
-26.06247109416944
 20
56.68195027586821
 30
0.0
  0
VERTEX
  5
3CD
  8
DEFAULT
 62
     5
 10
-27.76820038593419
 20
56.68195027586821
 30
0.0
  0
SEQEND
  5
3CE
  8
DEFAULT
 62
     5
  0
ARC
  5
3D0
  8
PART5
  6
CONTINUOUS
 62
     5
 10
35.09380084419649
 20
-40.80973310172951
 30
0.0
 40
19.05
 50
62.15353592570002
 51
90.00000000000001
  0
LINE
  5
3D1
  8
PART5
  6
CONTINUOUS
 62
     5
 10
43.9921289732965
 20
-23.96567609322952
 30
0.0
 11
61.55389302249651
 21
-33.24315235432951
 31
0.0
  0
ARC
  5
3D2
  8
PART5
  6
CONTINUOUS
 62
     5
 10
65.05717181349652
 20
-26.61163384702951
 30
0.0
 40
7.499999999999996
 50
242.1535359257
 51
359.9999999999999
  0
LINE
  5
3D3
  8
PART5
  6
CONTINUOUS
 62
     5
 10
72.55717181349652
 20
-26.61163384702951
 30
0.0
 11
72.55717181349652
 21
1.092167643570491
 31
0.0
  0
ARC
  5
3D4
  8
PART5
  6
CONTINUOUS
 62
     5
 10
65.05717181349652
 20
1.092167643570491
 30
0.0
 40
7.500000000000002
 50
0.0
 51
117.8464640743
  0
LINE
  5
3D5
  8
PART5
  6
CONTINUOUS
 62
     5
 10
61.55389302249651
 20
7.723686150870492
 30
0.0
 11
43.9921289732965
 21
-1.553790110229528
 31
0.0
  0
ARC
  5
3D6
  8
PART5
  6
CONTINUOUS
 62
     5
 10
35.09380084419649
 20
15.29026689827049
 30
0.0
 40
19.05
 50
270.0
 51
297.8464640743
  0
LINE
  5
3D7
  8
PART5
  6
CONTINUOUS
 62
     5
 10
35.09380084419649
 20
-3.759733101729523
 30
0.0
 11
-4.942828186503505
 21
-3.759733101729523
 31
0.0
  0
LINE
  5
3D8
  8
PART5
  6
CONTINUOUS
 62
     5
 10
63.88941221649648
 20
3.302673812670491
 30
0.0
 11
52.18572313229649
 21
-2.880116101929531
 31
0.0
  0
ARC
  5
3D9
  8
PART5
  6
CONTINUOUS
 62
     5
 10
65.05717181349652
 20
1.092167643570491
 30
0.0
 40
2.5
 50
0.0
 51
117.8464640743001
  0
LINE
  5
3DA
  8
PART5
  6
CONTINUOUS
 62
     5
 10
67.55717181349652
 20
-26.61163384702951
 30
0.0
 11
67.55717181349652
 21
1.092167643570491
 31
0.0
  0
ARC
  5
3DB
  8
PART5
  6
CONTINUOUS
 62
     5
 10
65.05717181349652
 20
-26.61163384702951
 30
0.0
 40
2.499999999999996
 50
242.1535359257003
 51
0.0000000000002443
  0
LINE
  5
3DC
  8
PART5
  6
CONTINUOUS
 62
     5
 10
52.18572313229649
 20
-22.63935010152952
 30
0.0
 11
63.88941221649648
 21
-28.82214001612951
 31
0.0
  0
ARC
  5
3DD
  8
PART5
  6
CONTINUOUS
 62
     5
 10
52.65282697109652
 20
-3.764318569529507
 30
0.0
 40
1.000000000000004
 50
117.8464640743004
 51
197.8058130345005
  0
ARC
  5
3DE
  8
PART5
  6
CONTINUOUS
 62
     5
 10
52.65282697109652
 20
-21.75514763392951
 30
0.0
 40
0.9999999999999998
 50
162.1941869654995
 51
242.1535359256998
  0
ARC
  5
3DF
  8
PART5
  6
CONTINUOUS
 62
     5
 10
115.6127028952965
 20
-12.75973310172952
 30
0.0
 40
64.50000000000031
 50
172.2574071144
 51
187.7425928856
  0
ARC
  5
3E0
  8
PART5
  6
CONTINUOUS
 62
     5
 10
52.65282697109652
 20
-3.764318569529507
 30
0.0
 40
1.000000000000015
 50
197.8058130345004
 51
264.5109706923001
  0
LINE
  5
3E1
  8
PART5
  6
CONTINUOUS
 62
     5
 10
52.55717181349652
 20
-4.759733101729523
 30
0.0
 11
52.55717181349652
 21
-5.259733101729523
 31
0.0
  0
ARC
  5
3E2
  8
PART5
  6
CONTINUOUS
 62
     5
 10
115.6127028952965
 20
-12.75973310172952
 30
0.0
 40
63.5
 50
173.2169485366
 51
186.7830514634
  0
LINE
  5
3E3
  8
PART5
  6
CONTINUOUS
 62
     5
 10
52.55717181349652
 20
-20.25973310172952
 30
0.0
 11
52.55717181349652
 21
-20.75973310172952
 31
0.0
  0
ARC
  5
3E4
  8
PART5
  6
CONTINUOUS
 62
     5
 10
52.65282697109652
 20
-21.75514763392951
 30
0.0
 40
0.9999999999999103
 50
95.48902930769886
 51
162.194186965499
  0
LINE
  5
3E5
  8
PART5
  6
CONTINUOUS
 62
     5
 10
-4.942828186503505
 20
-21.75973310172952
 30
0.0
 11
35.09380084419649
 21
-21.75973310172952
 31
0.0
  0
ARC
  5
3E6
  8
PART5
  6
CONTINUOUS
 62
     5
 10
-4.942828186503505
 20
-15.75973310172952
 30
0.0
 40
5.999999999999998
 50
180.0
 51
270.0
  0
LINE
  5
3E7
  8
PART5
  6
CONTINUOUS
 62
     5
 10
-10.9428281865035
 20
-9.759733101729523
 30
0.0
 11
-10.9428281865035
 21
-15.75973310172952
 31
0.0
  0
ARC
  5
3E8
  8
PART5
  6
CONTINUOUS
 62
     5
 10
-4.942828186503505
 20
-9.759733101729523
 30
0.0
 40
6.0
 50
90.0
 51
180.0
  0
ARC
  5
3EA
  8
PART4
  6
CONTINUOUS
 62
     5
 10
6.092588245296497
 20
31.63982417067049
 30
0.0
 40
13.5
 50
53.13010235420005
 51
306.8698976458001
  0
ARC
  5
3EB
  8
PART4
  6
CONTINUOUS
 62
     5
 10
13.5925882452965
 20
41.63982417067049
 30
0.0
 40
1.000000000000001
 50
0.0
 51
53.13010235419986
  0
LINE
  5
3EC
  8
PART4
  6
CONTINUOUS
 62
     5
 10
14.5925882452965
 20
21.63982417067049
 30
0.0
 11
14.5925882452965
 21
41.63982417067049
 31
0.0
  0
ARC
  5
3ED
  8
PART4
  6
CONTINUOUS
 62
     5
 10
13.5925882452965
 20
21.63982417067049
 30
0.0
 40
1.000000000000002
 50
306.8698976458003
 51
0.0000000000004071
  0
LINE
  5
3EE
  8
PART4
  6
CONTINUOUS
 62
     5
 10
70.59258824529653
 20
18.93982417067048
 30
0.0
 11
23.42925459149652
 21
18.93982417067048
 31
0.0
  0
ARC
  5
3EF
  8
PART4
  6
CONTINUOUS
 62
     5
 10
70.59258824529653
 20
24.93982417067048
 30
0.0
 40
6.0
 50
270.0
 51
0.0
  0
LINE
  5
3F0
  8
PART4
  6
CONTINUOUS
 62
     5
 10
23.42925459149652
 20
44.33982417067048
 30
0.0
 11
70.59258824529653
 21
44.33982417067048
 31
0.0
  0
ARC
  5
3F1
  8
PART4
  6
CONTINUOUS
 62
     5
 10
23.42925459149652
 20
50.33982417067048
 30
0.0
 40
6.000000000000002
 50
227.1665719338999
 51
269.9999999999999
  0
ARC
  5
3F2
  8
PART4
  6
CONTINUOUS
 62
     5
 10
6.092588245296497
 20
31.63982417067049
 30
0.0
 40
19.49999999999999
 50
47.16657193390001
 51
312.8334280661
  0
ARC
  5
3F3
  8
PART4
  6
CONTINUOUS
 62
     5
 10
23.42925459149652
 20
12.93982417067048
 30
0.0
 40
6.000000000000001
 50
90.0
 51
132.8334280661
  0
LINE
  5
3F4
  8
PART4
  6
CONTINUOUS
 62
     5
 10
76.59258824529653
 20
38.33982417067048
 30
0.0
 11
76.59258824529653
 21
24.93982417067048
 31
0.0
  0
ARC
  5
3F5
  8
PART4
  6
CONTINUOUS
 62
     5
 10
70.59258824529653
 20
38.33982417067048
 30
0.0
 40
6.000000000000005
 50
0.0
 51
90.0
  0
LINE
  5
3F7
  8
PRT0001
  6
CONTINUOUS
 62
     5
 10
-55.68494913010349
 20
30.26609386787047
 30
0.0
 11
-75.68494913010349
 21
30.26609386787047
 31
0.0
  0
LINE
  5
3F8
  8
PRT0001
  6
CONTINUOUS
 62
     5
 10
-18.3443291899035
 20
42.98630312377048
 30
0.0
 11
-55.68494913010349
 21
30.26609386787047
 31
0.0
  0
ARC
  5
3F9
  8
PRT0001
  6
CONTINUOUS
 62
     5
 10
-19.55354327400349
 20
46.53599343397048
 30
0.0
 40
3.75
 50
288.8115844783998
 51
89.99999999999979
  0
LINE
  5
3FA
  8
PRT0001
  6
CONTINUOUS
 62
     5
 10
-58.9831388144035
 20
45.26609386787047
 30
0.0
 11
-58.9831388144035
 21
46.45756630927048
 31
0.0
  0
LINE
  5
3FB
  8
PRT0001
  6
CONTINUOUS
 62
     5
 10
-55.05490955460351
 20
45.26609386787047
 30
0.0
 11
-58.9831388144035
 21
45.26609386787047
 31
0.0
  0
LINE
  5
3FC
  8
PRT0001
  6
CONTINUOUS
 62
     5
 10
-55.05490955460351
 20
38.26609386787047
 30
0.0
 11
-55.05490955460351
 21
45.26609386787047
 31
0.0
  0
LINE
  5
3FD
  8
PRT0001
  6
CONTINUOUS
 62
     5
 10
-70.7827299269035
 20
38.26609386787047
 30
0.0
 11
-55.05490955460351
 21
38.26609386787047
 31
0.0
  0
ARC
  5
3FE
  8
PRT0001
  6
CONTINUOUS
 62
     5
 10
-75.68494913010349
 20
35.76807843757047
 30
0.0
 40
5.501984569756851
 50
27.00194839499997
 51
270.0
  0
LINE
  5
3FF
  8
PRT0001
  6
CONTINUOUS
 62
     5
 10
-58.39735237670351
 20
47.87177987167047
 30
0.0
 11
-56.56892525200351
 21
49.70020699637047
 31
0.0
  0
ARC
  5
400
  8
PRT0001
  6
CONTINUOUS
 62
     5
 10
-56.9831388144035
 20
46.45756630927048
 30
0.0
 40
2.0
 50
135.0
 51
180.0
  0
LINE
  5
401
  8
PRT0001
  6
CONTINUOUS
 62
     5
 10
-55.15471168960349
 20
50.28599343397048
 30
0.0
 11
-19.55354327400349
 21
50.28599343397048
 31
0.0
  0
ARC
  5
402
  8
PRT0001
  6
CONTINUOUS
 62
     5
 10
-55.15471168960349
 20
48.28599343397048
 30
0.0
 40
2.0
 50
90.0
 51
135.0
  0
LINE
  5
404
  8
OPENER_V3_-_NO_H
  6
CONTINUOUS
 62
     5
 10
-31.9669551593035
 20
-12.64005547692952
 30
0.0
 11
-47.20287983950351
 21
-12.64005547692952
 31
0.0
  0
ARC
  5
405
  8
OPENER_V3_-_NO_H
  6
CONTINUOUS
 62
     5
 10
-31.9669551593035
 20
-17.14005547692952
 30
0.0
 40
4.500000000000004
 50
316.3487240581999
 51
89.99999999999996
  0
ARC
  5
406
  8
OPENER_V3_-_NO_H
  6
CONTINUOUS
 62
     5
 10
-50.4175925515035
 20
0.4617620377704839
 30
0.0
 40
30.0
 50
220.366431919
 51
316.3487240582
  0
ARC
  5
407
  8
OPENER_V3_-_NO_H
  6
CONTINUOUS
 62
     5
 10
-70.6084167191035
 20
-16.70158901712952
 30
0.0
 40
3.500000000000001
 50
28.18141542730011
 51
220.3664319190002
  0
ARC
  5
408
  8
OPENER_V3_-_NO_H
  6
CONTINUOUS
 62
     5
 10
-54.54826268780349
 20
-8.09691582142952
 30
0.0
 40
14.72001504700121
 50
208.1814154273
 51
269.9668958481
  0
ARC
  5
409
  8
OPENER_V3_-_NO_H
  6
CONTINUOUS
 62
     5
 10
-54.5519910861035
 20
-14.54992706852951
 30
0.0
 40
8.267002722807025
 50
269.9668958481001
 51
344.9321312421001
  0
LINE
  5
40A
  8
OPENER_V3_-_NO_H
  6
CONTINUOUS
 62
     5
 10
-50.43169402330349
 20
-15.65919004472951
 30
0.0
 11
-46.56921974760351
 21
-16.69904218292953
 31
0.0
  0
CIRCLE
  5
40B
  8
OPENER_V3_-_NO_H
  6
CONTINUOUS
 62
     5
 10
-31.9669551593035
 20
-17.14005547692952
 30
0.0
 40
2.000000000000002
  0
LINE
  5
40C
  8
OPENER_V3_-_NO_H
  6
CONTINUOUS
 62
     5
 10
-49.99675711900349
 20
-14.54723813292952
 30
0.0
 11
-50.43169402330349
 21
-15.65919004472951
 31
0.0
  0
ARC
  5
40D
  8
OPENER_V3_-_NO_H
  6
CONTINUOUS
 62
     5
 10
-47.20287983950351
 20
-15.64005547692952
 30
0.0
 40
2.999999999999999
 50
90.0
 51
158.6371852266
  0
ARC
  5
40F
  8
BOTTLE_OPENER
  6
CONTINUOUS
 62
     5
 10
-25.83748334500351
 20
-2.681151663429517
 30
0.0
 40
2.999999999999994
 50
109.4712206345
 51
250.5287793655
  0
ARC
  5
410
  8
BOTTLE_OPENER
  6
CONTINUOUS
 62
     5
 10
-32.7656865753035
 20
-1.681151663429517
 30
0.0
 40
2.0
 50
270.0
 51
351.7867892983
  0
LINE
  5
411
  8
BOTTLE_OPENER
  6
CONTINUOUS
 62
     5
 10
-53.9171731282035
 20
-3.681151663429517
 30
0.0
 11
-32.7656865753035
 21
-3.681151663429517
 31
0.0
  0
ARC
  5
412
  8
BOTTLE_OPENER
  6
CONTINUOUS
 62
     5
 10
-53.9171731282035
 20
9.625685311870484
 30
0.0
 40
13.30683697529481
 50
210.0
 51
269.9999999999999
  0
LINE
  5
413
  8
BOTTLE_OPENER
  6
CONTINUOUS
 62
     5
 10
-66.0743436242035
 20
4.068848336570483
 30
0.0
 11
-65.4412319928035
 21
2.972266824270491
 31
0.0
  0
ARC
  5
414
  8
BOTTLE_OPENER
  6
CONTINUOUS
 62
     5
 10
-69.53844523930348
 20
2.068848336570483
 30
0.0
 40
4.000000000000002
 50
29.99999999999989
 51
120.0
  0
LINE
  5
415
  8
BOTTLE_OPENER
  6
CONTINUOUS
 62
     5
 10
-69.53844523930348
 20
2.068848336570483
 30
0.0
 11
-71.53844523930348
 21
5.53294995177049
 31
0.0
  0
ARC
  5
416
  8
BOTTLE_OPENER
  6
CONTINUOUS
 62
     5
 10
-70.8374833450035
 20
1.318848336570483
 30
0.0
 40
1.5
 50
270.0
 51
29.99999999999998
  0
LINE
  5
417
  8
BOTTLE_OPENER
  6
CONTINUOUS
 62
     5
 10
-79.33748334500349
 20
-0.1811516634295174
 30
0.0
 11
-70.8374833450035
 21
-0.1811516634295174
 31
0.0
  0
ARC
  5
418
  8
BOTTLE_OPENER
  6
CONTINUOUS
 62
     5
 10
-79.33748334500349
 20
3.818848336570483
 30
0.0
 40
4.000000000000004
 50
180.0
 51
270.0
  0
LINE
  5
419
  8
BOTTLE_OPENER
  6
CONTINUOUS
 62
     5
 10
-83.33748334500349
 20
4.091015613270486
 30
0.0
 11
-83.33748334500349
 21
3.818848336570483
 31
0.0
  0
ARC
  5
41A
  8
BOTTLE_OPENER
  6
CONTINUOUS
 62
     5
 10
-85.33748334500349
 20
4.091015613270486
 30
0.0
 40
2.000000000000002
 50
0.0
 51
60.00000000000004
  0
LINE
  5
41B
  8
BOTTLE_OPENER
  6
CONTINUOUS
 62
     5
 10
-85.58748334500349
 20
6.544754257270483
 30
0.0
 11
-84.33748334500349
 21
5.823066420770488
 31
0.0
  0
ARC
  5
41C
  8
BOTTLE_OPENER
  6
CONTINUOUS
 62
     5
 10
-85.83748334500349
 20
6.111741555370486
 30
0.0
 40
0.5000000000000073
 50
60.00000000000064
 51
180.0000000000011
  0
LINE
  5
41D
  8
BOTTLE_OPENER
  6
CONTINUOUS
 62
     5
 10
-86.33748334500349
 20
3.818848336570483
 30
0.0
 11
-86.33748334500349
 21
6.111741555370486
 31
0.0
  0
ARC
  5
41E
  8
BOTTLE_OPENER
  6
CONTINUOUS
 62
     5
 10
-79.33748334500349
 20
3.818848336570483
 30
0.0
 40
7.0
 50
180.0
 51
270.0
  0
LINE
  5
41F
  8
BOTTLE_OPENER
  6
CONTINUOUS
 62
     5
 10
-66.3374833450035
 20
-3.181151663429517
 30
0.0
 11
-79.33748334500349
 21
-3.181151663429517
 31
0.0
  0
LINE
  5
420
  8
BOTTLE_OPENER
  6
CONTINUOUS
 62
     5
 10
-66.3374833450035
 20
-5.181151663429517
 30
0.0
 11
-66.3374833450035
 21
-3.181151663429517
 31
0.0
  0
LINE
  5
421
  8
BOTTLE_OPENER
  6
CONTINUOUS
 62
     5
 10
-76.7209025913035
 20
-5.181151663429517
 30
0.0
 11
-66.3374833450035
 21
-5.181151663429517
 31
0.0
  0
ARC
  5
422
  8
BOTTLE_OPENER
  6
CONTINUOUS
 62
     5
 10
-76.7209025913035
 20
-5.481151663429529
 30
0.0
 40
0.3000000000000003
 50
90.0
 51
150.0000000000005
  0
LINE
  5
423
  8
BOTTLE_OPENER
  6
CONTINUOUS
 62
     5
 10
-78.0776757239035
 20
-7.231151663429529
 30
0.0
 11
-76.9807102124035
 21
-5.331151663429523
 31
0.0
  0
ARC
  5
424
  8
BOTTLE_OPENER
  6
CONTINUOUS
 62
     5
 10
-77.8178681027035
 20
-7.381151663429506
 30
0.0
 40
0.2999999999999999
 50
150.0000000000002
 51
270.0
  0
ARC
  5
425
  8
BOTTLE_OPENER
  6
CONTINUOUS
 62
     5
 10
-25.83748334500351
 20
-2.681151663429517
 30
0.0
 40
4.999999999999996
 50
101.5369590327999
 51
171.7867892982999
  0
LINE
  5
426
  8
BOTTLE_OPENER
  6
CONTINUOUS
 62
     5
 10
-26.83748334500351
 20
-7.681151663429517
 30
0.0
 11
-77.8178681027035
 21
-7.681151663429517
 31
0.0
  0
ARC
  5
427
  8
BOTTLE_OPENER
  6
CONTINUOUS
 62
     5
 10
-25.83748334500351
 20
-2.681151663429517
 30
0.0
 40
4.999999999999999
 50
270.0
 51
101.5369590328
  0
ARC
  5
428
  8
BOTTLE_OPENER
  6
CONTINUOUS
 62
     5
 10
-25.83748334500351
 20
-2.681151663429517
 30
0.0
 40
3.0
 50
250.5287793655
 51
109.4712206345
  0
LINE
  5
429
  8
BOTTLE_OPENER
  6
CONTINUOUS
 62
     5
 10
-26.83748334500351
 20
-7.681151663429517
 30
0.0
 11
-25.83748334500351
 21
-7.681151663429517
 31
0.0
  0
CIRCLE
  5
42B
  8
BOTTLE_OPENER_1
  6
CONTINUOUS
 62
     5
 10
-62.10001686310349
 20
16.36105044867048
 30
0.0
 40
3.0
  0
ARC
  5
42C
  8
BOTTLE_OPENER_1
  6
CONTINUOUS
 62
     5
 10
-81.2275712169035
 20
14.77626126077047
 30
0.0
 40
0.2499999999999863
 50
250.3694575310985
 51
29.99999999999807
  0
LINE
  5
42D
  8
BOTTLE_OPENER_1
  6
CONTINUOUS
 62
     5
 10
-82.5443834270035
 20
17.55704691257048
 30
0.0
 11
-81.0110648660035
 21
14.90126126077047
 31
0.0
  0
ARC
  5
42E
  8
BOTTLE_OPENER_1
  6
CONTINUOUS
 62
     5
 10
-82.1113707251035
 20
17.80704691257048
 30
0.0
 40
0.4999999999999954
 50
109.3145795678
 51
210.0000000000005
  0
ARC
  5
42F
  8
BOTTLE_OPENER_1
  6
CONTINUOUS
 62
     5
 10
-47.54783317710348
 20
-80.81146997022952
 30
0.0
 40
105.0000000000018
 50
106.5375672667
 51
109.3143990521
  0
ARC
  5
430
  8
BOTTLE_OPENER_1
  6
CONTINUOUS
 62
     5
 10
-75.7275747955035
 20
14.09323045247049
 30
0.0
 40
6.000000000000001
 50
78.62059680080006
 51
106.5376664806
  0
ARC
  5
431
  8
BOTTLE_OPENER_1
  6
CONTINUOUS
 62
     5
 10
-76.5168188944035
 20
10.17186669067047
 30
0.0
 40
9.999999999999998
 50
24.75535142179996
 51
78.62045450119993
  0
ARC
  5
432
  8
BOTTLE_OPENER_1
  6
CONTINUOUS
 62
     5
 10
-68.34402227540349
 20
13.94087140597048
 30
0.0
 40
0.9999999999999981
 50
299.9999999800006
 51
24.73619070850074
  0
LINE
  5
433
  8
BOTTLE_OPENER_1
  6
CONTINUOUS
 62
     5
 10
-69.95307288430351
 20
11.85718506547047
 30
0.0
 11
-67.84402227570351
 21
13.07484600197049
 31
0.0
  0
ARC
  5
434
  8
BOTTLE_OPENER_1
  6
CONTINUOUS
 62
     5
 10
-69.82807288430351
 20
11.64067871447048
 30
0.0
 40
0.2500000000001124
 50
119.9999999999998
 51
258.9888323072013
  0
ARC
  5
435
  8
BOTTLE_OPENER_1
  6
CONTINUOUS
 62
     5
 10
-56.82781228250349
 20
78.45169357057046
 30
0.0
 40
68.31407629440334
 50
258.9888323073
 51
265.1465760606
  0
LINE
  5
436
  8
BOTTLE_OPENER_1
  6
CONTINUOUS
 62
     5
 10
-66.4625210778035
 20
23.36105044867048
 30
0.0
 11
-20.02757121690351
 21
23.36105044867048
 31
0.0
  0
ARC
  5
437
  8
BOTTLE_OPENER_1
  6
CONTINUOUS
 62
     5
 10
-66.4625210778035
 20
-43.69745910432951
 30
0.0
 40
67.05850955304679
 50
90.0
 51
107.2246398182
  0
ARC
  5
438
  8
BOTTLE_OPENER_1
  6
CONTINUOUS
 62
     5
 10
-85.7275712169035
 20
18.44324823317049
 30
0.0
 40
2.0
 50
107.2246398182001
 51
246.3478186073002
  0
ARC
  5
439
  8
BOTTLE_OPENER_1
  6
CONTINUOUS
 62
     5
 10
-54.4352635246035
 20
89.89107170797047
 30
0.0
 40
80.00000000000007
 50
246.3478186073
 51
250.3694575310999
  0
LINE
  5
43A
  8
BOTTLE_OPENER_1
  6
CONTINUOUS
 62
     5
 10
-19.7275712169035
 20
23.06105044867047
 30
0.0
 11
-19.7275712169035
 21
19.66105044867049
 31
0.0
  0
ARC
  5
43B
  8
BOTTLE_OPENER_1
  6
CONTINUOUS
 62
     5
 10
-20.02757121690351
 20
23.06105044867047
 30
0.0
 40
0.2999999999999999
 50
0.0
 51
90.0
  0
LINE
  5
43C
  8
BOTTLE_OPENER_1
  6
CONTINUOUS
 62
     5
 10
-20.02757121690351
 20
19.36105044867048
 30
0.0
 11
-53.10001686310349
 21
19.36105044867048
 31
0.0
  0
ARC
  5
43D
  8
BOTTLE_OPENER_1
  6
CONTINUOUS
 62
     5
 10
-20.02757121690351
 20
19.66105044867049
 30
0.0
 40
0.2999999999999999
 50
270.0
 51
0.0
  0
ARC
  5
43E
  8
BOTTLE_OPENER_1
  6
CONTINUOUS
 62
     5
 10
-62.10001686310349
 20
16.36105044867048
 30
0.0
 40
5.999999999999998
 50
265.1465760606
 51
359.9999999999999
  0
ARC
  5
43F
  8
BOTTLE_OPENER_1
  6
CONTINUOUS
 62
     5
 10
-53.10001686310349
 20
16.36105044867048
 30
0.0
 40
3.000000000000003
 50
90.0
 51
180.0
  0
ENDSEC
  0
EOF
