  0
SECTION
  2
HEADER
  9
$ACADVER
  1
AC1009
  9
$DWGCODEPAGE
  3
ansi_1252
  9
$INSBASE
 10
0.0
 20
0.0
 30
0.0
  9
$EXTMIN
 10
-536.9233258477
 20
-289.1845292460001
 30
0.0
  9
$EXTMAX
 10
535.5204291497
 20
239.3954822457162
 30
0.0
  9
$LIMMIN
 10
0.0
 20
0.0
  9
$LIMMAX
 10
12.0
 20
9.0
  9
$ORTHOMODE
 70
     0
  9
$REGENMODE
 70
     1
  9
$FILLMODE
 70
     1
  9
$QTEXTMODE
 70
     0
  9
$MIRRTEXT
 70
     1
  9
$DRAGMODE
 70
     2
  9
$LTSCALE
 40
1.0
  9
$OSMODE
 70
    37
  9
$ATTMODE
 70
     1
  9
$TEXTSIZE
 40
0.2
  9
$TRACEWID
 40
0.05
  9
$TEXTSTYLE
  7
STANDARD
  9
$CLAYER
  8
DEFAULT
  9
$CELTYPE
  6
BYLAYER
  9
$CECOLOR
 62
   256
  9
$DIMSCALE
 40
1.0
  9
$DIMASZ
 40
0.18
  9
$DIMEXO
 40
0.0625
  9
$DIMDLI
 40
0.38
  9
$DIMRND
 40
0.0
  9
$DIMDLE
 40
0.0
  9
$DIMEXE
 40
0.18
  9
$DIMTP
 40
0.0
  9
$DIMTM
 40
0.0
  9
$DIMTXT
 40
0.18
  9
$DIMCEN
 40
0.09
  9
$DIMTSZ
 40
0.0
  9
$DIMTOL
 70
     0
  9
$DIMLIM
 70
     0
  9
$DIMTIH
 70
     1
  9
$DIMTOH
 70
     1
  9
$DIMSE1
 70
     0
  9
$DIMSE2
 70
     0
  9
$DIMTAD
 70
     0
  9
$DIMZIN
 70
     0
  9
$DIMBLK
  1

  9
$DIMASO
 70
     1
  9
$DIMSHO
 70
     1
  9
$DIMPOST
  1

  9
$DIMAPOST
  1

  9
$DIMALT
 70
     0
  9
$DIMALTD
 70
     2
  9
$DIMALTF
 40
25.4
  9
$DIMLFAC
 40
1.0
  9
$DIMTOFL
 70
     0
  9
$DIMTVP
 40
0.0
  9
$DIMTIX
 70
     0
  9
$DIMSOXD
 70
     0
  9
$DIMSAH
 70
     0
  9
$DIMBLK1
  1

  9
$DIMBLK2
  1

  9
$DIMSTYLE
  2
STANDARD
  9
$DIMCLRD
 70
     0
  9
$DIMCLRE
 70
     0
  9
$DIMCLRT
 70
     0
  9
$DIMTFAC
 40
1.0
  9
$DIMGAP
 40
0.09
  9
$LUNITS
 70
     2
  9
$LUPREC
 70
     4
  9
$SKETCHINC
 40
0.1
  9
$FILLETRAD
 40
0.5
  9
$AUNITS
 70
     0
  9
$AUPREC
 70
     0
  9
$MENU
  1
.
  9
$ELEVATION
 40
0.0
  9
$PELEVATION
 40
0.0
  9
$THICKNESS
 40
0.0
  9
$LIMCHECK
 70
     0
  9
$CHAMFERA
 40
0.0
  9
$CHAMFERB
 40
0.0
  9
$SKPOLY
 70
     0
  9
$TDCREATE
 40
2458789.550007824
  9
$TDUPDATE
 40
2458789.550023704
  9
$TDINDWG
 40
0.0000000116
  9
$TDUSRTIMER
 40
0.0000000116
  9
$USRTIMER
 70
     1
  9
$ANGBASE
 50
0.0
  9
$ANGDIR
 70
     0
  9
$PDMODE
 70
     0
  9
$PDSIZE
 40
0.0
  9
$PLINEWID
 40
0.0
  9
$COORDS
 70
     1
  9
$SPLFRAME
 70
     0
  9
$SPLINETYPE
 70
     6
  9
$SPLINESEGS
 70
     8
  9
$ATTDIA
 70
     0
  9
$ATTREQ
 70
     1
  9
$HANDLING
 70
     1
  9
$HANDSEED
  5
513
  9
$SURFTAB1
 70
     6
  9
$SURFTAB2
 70
     6
  9
$SURFTYPE
 70
     6
  9
$SURFU
 70
     6
  9
$SURFV
 70
     6
  9
$UCSNAME
  2

  9
$UCSORG
 10
0.0
 20
0.0
 30
0.0
  9
$UCSXDIR
 10
1.0
 20
0.0
 30
0.0
  9
$UCSYDIR
 10
0.0
 20
1.0
 30
0.0
  9
$PUCSNAME
  2

  9
$PUCSORG
 10
0.0
 20
0.0
 30
0.0
  9
$PUCSXDIR
 10
1.0
 20
0.0
 30
0.0
  9
$PUCSYDIR
 10
0.0
 20
1.0
 30
0.0
  9
$USERI1
 70
     0
  9
$USERI2
 70
     0
  9
$USERI3
 70
     0
  9
$USERI4
 70
     0
  9
$USERI5
 70
     0
  9
$USERR1
 40
0.0
  9
$USERR2
 40
0.0
  9
$USERR3
 40
0.0
  9
$USERR4
 40
0.0
  9
$USERR5
 40
0.0
  9
$WORLDVIEW
 70
     1
  9
$SHADEDGE
 70
     3
  9
$SHADEDIF
 70
    70
  9
$TILEMODE
 70
     1
  9
$MAXACTVP
 70
    64
  9
$PLIMCHECK
 70
     0
  9
$PEXTMIN
 10
1.000000000000000E+20
 20
1.000000000000000E+20
 30
1.000000000000000E+20
  9
$PEXTMAX
 10
-1.000000000000000E+20
 20
-1.000000000000000E+20
 30
-1.000000000000000E+20
  9
$PLIMMIN
 10
0.0
 20
0.0
  9
$PLIMMAX
 10
12.0
 20
9.0
  9
$UNITMODE
 70
     0
  9
$VISRETAIN
 70
     1
  9
$PLINEGEN
 70
     0
  9
$PSLTSCALE
 70
     1
  0
ENDSEC
  0
SECTION
  2
TABLES
  0
TABLE
  2
VPORT
 70
     1
  0
VPORT
  2
*ACTIVE
 70
     0
 10
0.0
 20
0.0
 11
1.0
 21
1.0
 12
-0.7014483489999748
 22
-24.89452350014193
 13
0.0
 23
0.0
 14
0.5
 24
0.5
 15
0.5
 25
0.5
 16
0.0
 26
0.0
 36
1.0
 17
0.0
 27
0.0
 37
0.0
 40
539.1516117215506
 41
2.028914699159424
 42
50.0
 43
0.0
 44
0.0
 50
0.0
 51
0.0
 71
     0
 72
   100
 73
     1
 74
     3
 75
     0
 76
     0
 77
     0
 78
     0
  0
ENDTAB
  0
TABLE
  2
LTYPE
 70
     1
  0
LTYPE
  2
CONTINUOUS
 70
     0
  3
Solid line
 72
    65
 73
     0
 40
0.0
  0
ENDTAB
  0
TABLE
  2
LAYER
 70
     5
  0
LAYER
  2
0
 70
     0
 62
     7
  6
CONTINUOUS
  0
LAYER
  2
SEAT
 70
     0
 62
     7
  6
CONTINUOUS
  0
LAYER
  2
LEG_2
 70
     0
 62
     7
  6
CONTINUOUS
  0
LAYER
  2
LEG_1
 70
     0
 62
     7
  6
CONTINUOUS
  0
LAYER
  2
DEFAULT
 70
     0
 62
     7
  6
CONTINUOUS
  0
ENDTAB
  0
TABLE
  2
STYLE
 70
     1
  0
STYLE
  2
STANDARD
 70
     0
 40
0.0
 41
1.0
 50
0.0
 71
     0
 42
0.2
  3
txt
  4

  0
ENDTAB
  0
TABLE
  2
VIEW
 70
     0
  0
ENDTAB
  0
TABLE
  2
UCS
 70
     0
  0
ENDTAB
  0
TABLE
  2
APPID
 70
     1
  0
APPID
  2
ACAD
 70
     0
  0
ENDTAB
  0
TABLE
  2
DIMSTYLE
 70
     1
  0
DIMSTYLE
  2
STANDARD
 70
     0
  3

  4

  5

  6

  7

 40
1.0
 41
0.18
 42
0.0625
 43
0.38
 44
0.18
 45
0.0
 46
0.0
 47
0.0
 48
0.0
140
0.18
141
0.09
142
0.0
143
25.4
144
1.0
145
0.0
146
1.0
147
0.09
 71
     0
 72
     0
 73
     1
 74
     1
 75
     0
 76
     0
 77
     0
 78
     0
170
     0
171
     2
172
     0
173
     0
174
     0
175
     0
176
     0
177
     0
178
     0
  0
ENDTAB
  0
ENDSEC
  0
SECTION
  2
BLOCKS
  0
BLOCK
  8
0
  2
$MODEL_SPACE
 70
     0
 10
0.0
 20
0.0
 30
0.0
  3
$MODEL_SPACE
  1

  0
ENDBLK
  5
21
  8
0
  0
BLOCK
 67
     1
  8
0
  2
$PAPER_SPACE
 70
     0
 10
0.0
 20
0.0
 30
0.0
  3
$PAPER_SPACE
  1

  0
ENDBLK
  5
1D
 67
     1
  8
0
  0
BLOCK
  8
0
  2
SE
 70
     0
 10
0.0
 20
0.0
 30
0.0
  3
SE
  1

  0
LINE
  5
4B4
  8
LEG_1
  6
CONTINUOUS
 62
     7
 10
-127.7971638172
 20
440.1836749738
 30
0.0
 11
-127.7971638172
 21
418.1836749738
 31
0.0
  0
LINE
  5
4B5
  8
LEG_1
  6
CONTINUOUS
 62
     7
 10
-127.7971638172
 20
418.1836749738
 30
0.0
 11
-5.2971638172
 21
418.1836749738
 31
0.0
  0
LINE
  5
4B6
  8
LEG_1
  6
CONTINUOUS
 62
     7
 10
139.2028361828
 20
418.1836749738
 30
0.0
 11
139.2028361828
 21
440.1836749738
 31
0.0
  0
LINE
  5
4B7
  8
LEG_1
  6
CONTINUOUS
 62
     7
 10
139.2028361828
 20
440.1836749738
 30
0.0
 11
167.7028361828
 21
440.1836749738
 31
0.0
  0
LINE
  5
4B8
  8
LEG_1
  6
CONTINUOUS
 62
     7
 10
117.5323547629
 20
291.4653958726
 30
0.0
 11
209.5575246595
 21
38.6283195602
 31
0.0
  0
ARC
  5
4B9
  8
LEG_1
  6
CONTINUOUS
 62
     7
 10
5.7028361828
 20
46.6836749738
 30
0.0
 40
89.00000000000001
 50
18.8692827457
 51
161.1307172543
  0
LINE
  5
4BA
  8
LEG_1
  6
CONTINUOUS
 62
     7
 10
-78.5142041873
 20
75.4671791262
 30
0.0
 11
-101.388801907
 21
8.5388819525
 31
0.0
  0
ARC
  5
4BB
  8
LEG_1
  6
CONTINUOUS
 62
     7
 10
-165.7971638172
 20
313.1836749738
 30
0.0
 40
63.50000000000001
 50
340.0
 51
76.68508694189997
  0
LINE
  5
4BC
  8
LEG_1
  6
CONTINUOUS
 62
     7
 10
-198.1518522939
 20
38.6283195602
 30
0.0
 11
-106.1266823973
 21
291.4653958726
 31
0.0
  0
ARC
  5
4BD
  8
LEG_1
  6
CONTINUOUS
 62
     7
 10
-168.0816884287
 20
27.6836749738
 30
0.0
 40
32.00000000000001
 50
160.0
 51
270.0
  0
LINE
  5
4BE
  8
LEG_1
  6
CONTINUOUS
 62
     7
 10
179.4873607944
 20
-4.3163250262
 30
0.0
 11
130.7733930034
 21
-4.3163250262
 31
0.0
  0
ARC
  5
4BF
  8
LEG_1
  6
CONTINUOUS
 62
     7
 10
179.4873607944
 20
27.6836749738
 30
0.0
 40
32.00000000000007
 50
270.0
 51
19.99999999999999
  0
LINE
  5
4C0
  8
LEG_1
  6
CONTINUOUS
 62
     7
 10
16.7028361828
 20
418.1836749738
 30
0.0
 11
139.2028361828
 21
418.1836749738
 31
0.0
  0
LINE
  5
4C1
  8
LEG_1
  6
CONTINUOUS
 62
     7
 10
-5.2971638172
 20
418.1836749738
 30
0.0
 11
-5.2971638172
 21
261.1836749738
 31
0.0
  0
LINE
  5
4C2
  8
LEG_1
  6
CONTINUOUS
 62
     7
 10
16.7028361828
 20
261.1836749738
 30
0.0
 11
16.7028361828
 21
418.1836749738
 31
0.0
  0
LINE
  5
4C3
  8
LEG_1
  6
CONTINUOUS
 62
     7
 10
-5.2971638172
 20
261.1836749738
 30
0.0
 11
16.7028361828
 21
261.1836749738
 31
0.0
  0
LINE
  5
4C4
  8
LEG_1
  6
CONTINUOUS
 62
     7
 10
-119.3677206377
 20
-4.3163250262
 30
0.0
 11
-168.0816884287
 21
-4.3163250262
 31
0.0
  0
ARC
  5
4C5
  8
LEG_1
  6
CONTINUOUS
 62
     7
 10
-119.3677206377
 20
14.6836749738
 30
0.0
 40
19.0
 50
270.0
 51
341.1307172543
  0
LINE
  5
4C6
  8
LEG_1
  6
CONTINUOUS
 62
     7
 10
112.7944742727
 20
8.5388819525
 30
0.0
 11
89.919876553
 21
75.4671791262
 31
0.0
  0
ARC
  5
4C7
  8
LEG_1
  6
CONTINUOUS
 62
     7
 10
130.7733930034
 20
14.6836749738
 30
0.0
 40
19.0
 50
198.8692827457
 51
270.0
  0
LINE
  5
4C8
  8
LEG_1
  6
CONTINUOUS
 62
     7
 10
-165.7971638172
 20
393.46598934
 30
0.0
 11
-165.7971638172
 21
430.6836749738
 31
0.0
  0
ARC
  5
4C9
  8
LEG_1
  6
CONTINUOUS
 62
     7
 10
-146.7971638172
 20
393.46598934
 30
0.0
 40
18.99999999999999
 50
180.0
 51
256.6850869419
  0
ARC
  5
4CA
  8
LEG_1
  6
CONTINUOUS
 62
     7
 10
177.2028361828
 20
313.1836749738
 30
0.0
 40
63.5
 50
103.3149130581
 51
200.0
  0
ARC
  5
4CB
  8
LEG_1
  6
CONTINUOUS
 62
     7
 10
158.2028361828
 20
393.46598934
 30
0.0
 40
19.00000000000002
 50
283.3149130581
 51
0.0
  0
LINE
  5
4CC
  8
LEG_1
  6
CONTINUOUS
 62
     7
 10
-156.2971638172
 20
440.1836749738
 30
0.0
 11
-127.7971638172
 21
440.1836749738
 31
0.0
  0
ARC
  5
4CD
  8
LEG_1
  6
CONTINUOUS
 62
     7
 10
-156.2971638172
 20
430.6836749738
 30
0.0
 40
9.500000000000009
 50
90.0
 51
180.0
  0
LINE
  5
4CE
  8
LEG_1
  6
CONTINUOUS
 62
     7
 10
177.2028361828
 20
430.6836749738
 30
0.0
 11
177.2028361828
 21
393.46598934
 31
0.0
  0
ARC
  5
4CF
  8
LEG_1
  6
CONTINUOUS
 62
     7
 10
167.7028361828
 20
430.6836749738
 30
0.0
 40
9.500000000000009
 50
0.0
 51
90.0
  0
ENDBLK
  5
4D1
  8
0
  0
BLOCK
  8
0
  2
SE1
 70
     0
 10
0.0
 20
0.0
 30
0.0
  3
SE1
  1

  0
ARC
  5
4D3
  8
LEG_2
  6
CONTINUOUS
 62
     7
 10
838.0775419572
 20
319.2058240063
 30
0.0
 40
63.50000000000003
 50
103.3149130581
 51
200.0
  0
LINE
  5
4D4
  8
LEG_2
  6
CONTINUOUS
 62
     7
 10
750.7522492065
 20
81.519557643
 30
0.0
 11
773.6662339898
 21
14.5545774996
 31
0.0
  0
ARC
  5
4D5
  8
LEG_2
  6
CONTINUOUS
 62
     7
 10
666.545546659
 20
52.7058240063
 30
0.0
 40
88.99999999999999
 50
97.07889885189998
 51
161.1512975333
  0
LINE
  5
4D6
  8
LEG_2
  6
CONTINUOUS
 62
     7
 10
554.7480233771
 20
297.4875449051
 30
0.0
 11
462.7228534805
 21
44.6504685927
 31
0.0
  0
LINE
  5
4D7
  8
LEG_2
  6
CONTINUOUS
 62
     7
 10
533.0775419572
 20
446.2058240063
 30
0.0
 11
504.5775419572
 21
446.2058240063
 31
0.0
  0
LINE
  5
4D8
  8
LEG_2
  6
CONTINUOUS
 62
     7
 10
533.0775419572
 20
424.2058240063
 30
0.0
 11
533.0775419572
 21
446.2058240063
 31
0.0
  0
LINE
  5
4D9
  8
LEG_2
  6
CONTINUOUS
 62
     7
 10
800.0775419572
 20
424.2058240063
 30
0.0
 11
533.0775419572
 21
424.2058240063
 31
0.0
  0
LINE
  5
4DA
  8
LEG_2
  6
CONTINUOUS
 62
     7
 10
800.0775419572
 20
446.2058240063
 30
0.0
 11
800.0775419572
 21
424.2058240063
 31
0.0
  0
LINE
  5
4DB
  8
LEG_2
  6
CONTINUOUS
 62
     7
 10
870.4322304339
 20
44.6504685927
 30
0.0
 11
778.4070605373
 21
297.4875449051
 31
0.0
  0
ARC
  5
4DC
  8
LEG_2
  6
CONTINUOUS
 62
     7
 10
840.3620665687
 20
33.7058240063
 30
0.0
 40
32.0
 50
270.0
 51
19.99999999999999
  0
LINE
  5
4DD
  8
LEG_2
  6
CONTINUOUS
 62
     7
 10
492.7930173456
 20
1.7058240063
 30
0.0
 11
541.5018275855
 21
1.7058240063
 31
0.0
  0
ARC
  5
4DE
  8
LEG_2
  6
CONTINUOUS
 62
     7
 10
492.7930173456
 20
33.7058240063
 30
0.0
 40
32.00000000000004
 50
160.0
 51
270.0
  0
ARC
  5
4DF
  8
LEG_2
  6
CONTINUOUS
 62
     7
 10
666.545546659
 20
52.7058240063
 30
0.0
 40
88.99999999999999
 50
18.88985017659999
 51
82.87958744270003
  0
LINE
  5
4E0
  8
LEG_2
  6
CONTINUOUS
 62
     7
 10
677.5775419572
 20
267.2058240063
 30
0.0
 11
655.5775419572
 21
267.2058240063
 31
0.0
  0
LINE
  5
4E1
  8
LEG_2
  6
CONTINUOUS
 62
     7
 10
655.5775419572
 20
267.2058240063
 30
0.0
 11
655.5775419572
 21
141.0274118139
 31
0.0
  0
LINE
  5
4E2
  8
LEG_2
  6
CONTINUOUS
 62
     7
 10
677.5775419572
 20
141.0194417543
 30
0.0
 11
677.5775419572
 21
267.2058240063
 31
0.0
  0
LINE
  5
4E3
  8
LEG_2
  6
CONTINUOUS
 62
     7
 10
791.6429457696
 20
1.7058240063
 30
0.0
 11
840.3620665687
 21
1.7058240063
 31
0.0
  0
ARC
  5
4E4
  8
LEG_2
  6
CONTINUOUS
 62
     7
 10
791.6429457696
 20
20.7058240063
 30
0.0
 40
19.0
 50
198.8898501766
 51
270.0
  0
LINE
  5
4E5
  8
LEG_2
  6
CONTINUOUS
 62
     7
 10
559.4829523269
 20
14.5674892944
 30
0.0
 11
582.3181728706
 21
81.4590760781
 31
0.0
  0
ARC
  5
4E6
  8
LEG_2
  6
CONTINUOUS
 62
     7
 10
541.5018275855
 20
20.7058240063
 30
0.0
 40
19.0
 50
270.0
 51
341.1512975333
  0
ARC
  5
4E7
  8
LEG_2
  6
CONTINUOUS
 62
     7
 10
495.0775419572
 20
319.2058240063
 30
0.0
 40
63.49999999999999
 50
340.0000000000001
 51
76.6850869419
  0
ARC
  5
4E8
  8
LEG_2
  6
CONTINUOUS
 62
     7
 10
514.0775419572
 20
399.4881383726
 30
0.0
 40
18.99999999999999
 50
180.0
 51
256.6850869419001
  0
LINE
  5
4E9
  8
LEG_2
  6
CONTINUOUS
 62
     7
 10
838.0775419572
 20
399.4881383726
 30
0.0
 11
838.0775419572
 21
436.7058240063
 31
0.0
  0
ARC
  5
4EA
  8
LEG_2
  6
CONTINUOUS
 62
     7
 10
819.0775419572
 20
399.4881383726
 30
0.0
 40
19.00000000000001
 50
283.3149130580999
 51
0.0
  0
LINE
  5
4EB
  8
LEG_2
  6
CONTINUOUS
 62
     7
 10
828.5775419572
 20
446.2058240063
 30
0.0
 11
800.0775419572
 21
446.2058240063
 31
0.0
  0
ARC
  5
4EC
  8
LEG_2
  6
CONTINUOUS
 62
     7
 10
828.5775419572
 20
436.7058240063
 30
0.0
 40
9.500000000000009
 50
0.0
 51
90.0
  0
LINE
  5
4ED
  8
LEG_2
  6
CONTINUOUS
 62
     7
 10
495.0775419572
 20
436.7058240063
 30
0.0
 11
495.0775419572
 21
399.4881383726
 31
0.0
  0
ARC
  5
4EE
  8
LEG_2
  6
CONTINUOUS
 62
     7
 10
504.5775419572
 20
436.7058240063
 30
0.0
 40
9.500000000000009
 50
90.0
 51
180.0
  0
ENDBLK
  5
4F0
  8
0
  0
BLOCK
  8
0
  2
SE2
 70
     0
 10
0.0
 20
0.0
 30
0.0
  3
SE2
  1

  0
LINE
  5
4F2
  8
SEAT
  6
CONTINUOUS
 62
     7
 10
325.841637419
 20
418.3682042198
 30
0.0
 11
325.841637419
 21
446.4943159716
 31
0.0
  0
LINE
  5
4F3
  8
SEAT
  6
CONTINUOUS
 62
     7
 10
347.841637419
 20
418.3682042198
 30
0.0
 11
325.841637419
 21
418.3682042198
 31
0.0
  0
LINE
  5
4F4
  8
SEAT
  6
CONTINUOUS
 62
     7
 10
470.341637419
 20
295.8682042198
 30
0.0
 11
498.4677491708
 21
295.8682042198
 31
0.0
  0
LINE
  5
4F5
  8
SEAT
  6
CONTINUOUS
 62
     7
 10
470.341637419
 20
273.8682042198
 30
0.0
 11
470.341637419
 21
295.8682042198
 31
0.0
  0
LINE
  5
4F6
  8
SEAT
  6
CONTINUOUS
 62
     7
 10
347.841637419
 20
151.3682042198
 30
0.0
 11
347.841637419
 21
123.242092468
 31
0.0
  0
LINE
  5
4F7
  8
SEAT
  6
CONTINUOUS
 62
     7
 10
325.841637419
 20
151.3682042198
 30
0.0
 11
347.841637419
 21
151.3682042198
 31
0.0
  0
LINE
  5
4F8
  8
SEAT
  6
CONTINUOUS
 62
     7
 10
203.341637419
 20
273.8682042198
 30
0.0
 11
175.2155256672
 21
273.8682042198
 31
0.0
  0
LINE
  5
4F9
  8
SEAT
  6
CONTINUOUS
 62
     7
 10
203.341637419
 20
295.8682042198
 30
0.0
 11
203.341637419
 21
273.8682042198
 31
0.0
  0
LINE
  5
4FA
  8
SEAT
  6
CONTINUOUS
 62
     7
 10
325.841637419
 20
123.242092468
 30
0.0
 11
325.841637419
 21
151.3682042198
 31
0.0
  0
LINE
  5
4FB
  8
SEAT
  6
CONTINUOUS
 62
     7
 10
325.841637419
 20
123.242092468
 30
0.0
 11
325.841637419
 21
113.7213374649
 31
0.0
  0
ARC
  5
4FC
  8
SEAT
  6
CONTINUOUS
 62
     7
 10
336.841637419
 20
284.8682042198
 30
0.0
 40
171.5
 50
183.677472381
 51
266.322527619
  0
LINE
  5
4FD
  8
SEAT
  6
CONTINUOUS
 62
     7
 10
165.6947706641
 20
273.8682042198
 30
0.0
 11
175.2155256672
 21
273.8682042198
 31
0.0
  0
LINE
  5
4FE
  8
SEAT
  6
CONTINUOUS
 62
     7
 10
498.4677491708
 20
273.8682042198
 30
0.0
 11
470.341637419
 21
273.8682042198
 31
0.0
  0
LINE
  5
4FF
  8
SEAT
  6
CONTINUOUS
 62
     7
 10
498.4677491708
 20
273.8682042198
 30
0.0
 11
507.9885041738
 21
273.8682042198
 31
0.0
  0
ARC
  5
500
  8
SEAT
  6
CONTINUOUS
 62
     7
 10
336.841637419
 20
284.8682042198
 30
0.0
 40
171.5
 50
273.677472381
 51
356.322527619
  0
LINE
  5
501
  8
SEAT
  6
CONTINUOUS
 62
     7
 10
347.841637419
 20
113.7213374649
 30
0.0
 11
347.841637419
 21
123.242092468
 31
0.0
  0
LINE
  5
502
  8
SEAT
  6
CONTINUOUS
 62
     7
 10
347.841637419
 20
446.4943159716
 30
0.0
 11
347.841637419
 21
418.3682042198
 31
0.0
  0
LINE
  5
503
  8
SEAT
  6
CONTINUOUS
 62
     7
 10
347.841637419
 20
446.4943159716
 30
0.0
 11
347.841637419
 21
456.0150709746
 31
0.0
  0
ARC
  5
504
  8
SEAT
  6
CONTINUOUS
 62
     7
 10
336.841637419
 20
284.8682042198
 30
0.0
 40
171.5
 50
3.677472380999992
 51
86.32252761899998
  0
LINE
  5
505
  8
SEAT
  6
CONTINUOUS
 62
     7
 10
507.9885041738
 20
295.8682042198
 30
0.0
 11
498.4677491708
 21
295.8682042198
 31
0.0
  0
LINE
  5
506
  8
SEAT
  6
CONTINUOUS
 62
     7
 10
175.2155256672
 20
295.8682042198
 30
0.0
 11
203.341637419
 21
295.8682042198
 31
0.0
  0
LINE
  5
507
  8
SEAT
  6
CONTINUOUS
 62
     7
 10
175.2155256672
 20
295.8682042198
 30
0.0
 11
165.6947706641
 21
295.8682042198
 31
0.0
  0
ARC
  5
508
  8
SEAT
  6
CONTINUOUS
 62
     7
 10
336.841637419
 20
284.8682042198
 30
0.0
 40
171.5
 50
93.677472381
 51
176.322527619
  0
LINE
  5
509
  8
SEAT
  6
CONTINUOUS
 62
     7
 10
325.841637419
 20
456.0150709746
 30
0.0
 11
325.841637419
 21
446.4943159716
 31
0.0
  0
ENDBLK
  5
50B
  8
0
  0
ENDSEC
  0
SECTION
  2
ENTITIES
  0
LINE
  5
6F
  8
SEAT
  6
CONTINUOUS
 62
     5
 10
-11.0
 20
133.5
 30
0.0
 11
-11.0
 21
161.6261117518
 31
0.0
  0
LINE
  5
70
  8
SEAT
  6
CONTINUOUS
 62
     5
 10
11.0
 20
133.5
 30
0.0
 11
-11.0
 21
133.5
 31
0.0
  0
LINE
  5
71
  8
SEAT
  6
CONTINUOUS
 62
     5
 10
133.5
 20
11.0
 30
0.0
 11
161.6261117518
 21
11.0
 31
0.0
  0
LINE
  5
72
  8
SEAT
  6
CONTINUOUS
 62
     5
 10
133.5
 20
-11.0
 30
0.0
 11
133.5
 21
11.0
 31
0.0
  0
LINE
  5
73
  8
SEAT
  6
CONTINUOUS
 62
     5
 10
11.0
 20
-133.5
 30
0.0
 11
11.0
 21
-161.6261117518
 31
0.0
  0
LINE
  5
74
  8
SEAT
  6
CONTINUOUS
 62
     5
 10
-11.0
 20
-133.5
 30
0.0
 11
11.0
 21
-133.5
 31
0.0
  0
LINE
  5
75
  8
SEAT
  6
CONTINUOUS
 62
     5
 10
-133.5
 20
-11.0
 30
0.0
 11
-161.6261117518
 21
-11.0
 31
0.0
  0
LINE
  5
76
  8
SEAT
  6
CONTINUOUS
 62
     5
 10
-133.5
 20
11.0
 30
0.0
 11
-133.5
 21
-11.0
 31
0.0
  0
LINE
  5
77
  8
SEAT
  6
CONTINUOUS
 62
     5
 10
-11.0
 20
-161.6261117518
 30
0.0
 11
-11.0
 21
-133.5
 31
0.0
  0
LINE
  5
78
  8
SEAT
  6
CONTINUOUS
 62
     5
 10
-11.0
 20
-161.6261117518
 30
0.0
 11
-11.0
 21
-171.1468667549
 31
0.0
  0
ARC
  5
79
  8
SEAT
  6
CONTINUOUS
 62
     5
 10
0.0
 20
0.0
 30
0.0
 40
171.5
 50
183.677472381
 51
266.322527619
  0
LINE
  5
7A
  8
SEAT
  6
CONTINUOUS
 62
     5
 10
-171.1468667549
 20
-11.0
 30
0.0
 11
-161.6261117518
 21
-11.0
 31
0.0
  0
LINE
  5
7B
  8
SEAT
  6
CONTINUOUS
 62
     5
 10
161.6261117518
 20
-11.0
 30
0.0
 11
133.5
 21
-11.0
 31
0.0
  0
LINE
  5
7C
  8
SEAT
  6
CONTINUOUS
 62
     5
 10
161.6261117518
 20
-11.0
 30
0.0
 11
171.1468667548
 21
-11.0
 31
0.0
  0
ARC
  5
7D
  8
SEAT
  6
CONTINUOUS
 62
     5
 10
0.0
 20
0.0
 30
0.0
 40
171.5
 50
273.677472381
 51
356.322527619
  0
LINE
  5
7E
  8
SEAT
  6
CONTINUOUS
 62
     5
 10
11.0
 20
-171.1468667549
 30
0.0
 11
11.0
 21
-161.6261117518
 31
0.0
  0
LINE
  5
7F
  8
SEAT
  6
CONTINUOUS
 62
     5
 10
11.0
 20
161.6261117518
 30
0.0
 11
11.0
 21
133.5
 31
0.0
  0
LINE
  5
80
  8
SEAT
  6
CONTINUOUS
 62
     5
 10
11.0
 20
161.6261117518
 30
0.0
 11
11.0
 21
171.1468667548
 31
0.0
  0
ARC
  5
81
  8
SEAT
  6
CONTINUOUS
 62
     5
 10
0.0
 20
0.0
 30
0.0
 40
171.5
 50
3.677472380999992
 51
86.322527619
  0
LINE
  5
82
  8
SEAT
  6
CONTINUOUS
 62
     5
 10
171.1468667548
 20
11.0
 30
0.0
 11
161.6261117518
 21
11.0
 31
0.0
  0
LINE
  5
83
  8
SEAT
  6
CONTINUOUS
 62
     5
 10
-161.6261117518
 20
11.0
 30
0.0
 11
-133.5
 21
11.0
 31
0.0
  0
LINE
  5
84
  8
SEAT
  6
CONTINUOUS
 62
     5
 10
-161.6261117518
 20
11.0
 30
0.0
 11
-171.1468667549
 21
11.0
 31
0.0
  0
ARC
  5
85
  8
SEAT
  6
CONTINUOUS
 62
     5
 10
0.0
 20
0.0
 30
0.0
 40
171.5
 50
93.677472381
 51
176.322527619
  0
LINE
  5
86
  8
SEAT
  6
CONTINUOUS
 62
     5
 10
-11.0
 20
171.1468667548
 30
0.0
 11
-11.0
 21
161.6261117518
 31
0.0
  0
ARC
  5
88
  8
LEG_2
  6
CONTINUOUS
 62
     5
 10
501.2359045382
 20
34.3376197865
 30
0.0
 40
63.50000000000003
 50
103.3149130581
 51
200.0
  0
LINE
  5
89
  8
LEG_2
  6
CONTINUOUS
 62
     5
 10
413.9106117875
 20
-203.3486465768
 30
0.0
 11
436.8245965708001
 21
-270.3136267202
 31
0.0
  0
ARC
  5
8A
  8
LEG_2
  6
CONTINUOUS
 62
     5
 10
329.70390924
 20
-232.1623802135
 30
0.0
 40
88.99999999999999
 50
97.07889885189998
 51
161.1512975333
  0
LINE
  5
8B
  8
LEG_2
  6
CONTINUOUS
 62
     5
 10
217.9063859581
 20
12.61934068529996
 30
0.0
 11
125.8812160615
 21
-240.2177356271
 31
0.0
  0
LINE
  5
8C
  8
LEG_2
  6
CONTINUOUS
 62
     5
 10
196.2359045382
 20
161.3376197865
 30
0.0
 11
167.7359045382
 21
161.3376197865
 31
0.0
  0
LINE
  5
8D
  8
LEG_2
  6
CONTINUOUS
 62
     5
 10
196.2359045382
 20
139.3376197865
 30
0.0
 11
196.2359045382
 21
161.3376197865
 31
0.0
  0
LINE
  5
8E
  8
LEG_2
  6
CONTINUOUS
 62
     5
 10
463.2359045382
 20
139.3376197865
 30
0.0
 11
196.2359045382
 21
139.3376197865
 31
0.0
  0
LINE
  5
8F
  8
LEG_2
  6
CONTINUOUS
 62
     5
 10
463.2359045382
 20
161.3376197865
 30
0.0
 11
463.2359045382
 21
139.3376197865
 31
0.0
  0
LINE
  5
90
  8
LEG_2
  6
CONTINUOUS
 62
     5
 10
533.5905930149
 20
-240.2177356271
 30
0.0
 11
441.5654231183
 21
12.61934068529996
 31
0.0
  0
ARC
  5
91
  8
LEG_2
  6
CONTINUOUS
 62
     5
 10
503.5204291497
 20
-251.1623802135
 30
0.0
 40
32.0
 50
270.0
 51
19.99999999999998
  0
LINE
  5
92
  8
LEG_2
  6
CONTINUOUS
 62
     5
 10
155.9513799266
 20
-283.1623802135
 30
0.0
 11
204.6601901665
 21
-283.1623802135
 31
0.0
  0
ARC
  5
93
  8
LEG_2
  6
CONTINUOUS
 62
     5
 10
155.9513799266
 20
-251.1623802135
 30
0.0
 40
32.00000000000004
 50
160.0
 51
269.9999999999999
  0
ARC
  5
94
  8
LEG_2
  6
CONTINUOUS
 62
     5
 10
329.70390924
 20
-232.1623802135
 30
0.0
 40
88.99999999999999
 50
18.8898501766
 51
82.8795874427
  0
LINE
  5
95
  8
LEG_2
  6
CONTINUOUS
 62
     5
 10
340.7359045382
 20
-17.6623802135
 30
0.0
 11
318.7359045382
 21
-17.6623802135
 31
0.0
  0
LINE
  5
96
  8
LEG_2
  6
CONTINUOUS
 62
     5
 10
318.7359045382
 20
-17.6623802135
 30
0.0
 11
318.7359045382
 21
-143.8407924059
 31
0.0
  0
LINE
  5
97
  8
LEG_2
  6
CONTINUOUS
 62
     5
 10
340.7359045382
 20
-143.8487624655
 30
0.0
 11
340.7359045382
 21
-17.6623802135
 31
0.0
  0
LINE
  5
98
  8
LEG_2
  6
CONTINUOUS
 62
     5
 10
454.8013083506
 20
-283.1623802135
 30
0.0
 11
503.5204291497
 21
-283.1623802135
 31
0.0
  0
ARC
  5
99
  8
LEG_2
  6
CONTINUOUS
 62
     5
 10
454.8013083506
 20
-264.1623802135
 30
0.0
 40
19.0
 50
198.8898501765999
 51
270.0
  0
LINE
  5
9A
  8
LEG_2
  6
CONTINUOUS
 62
     5
 10
222.6413149079
 20
-270.3007149254
 30
0.0
 11
245.4765354516001
 21
-203.4091281417
 31
0.0
  0
ARC
  5
9B
  8
LEG_2
  6
CONTINUOUS
 62
     5
 10
204.6601901665
 20
-264.1623802135
 30
0.0
 40
19.0
 50
270.0
 51
341.1512975333
  0
ARC
  5
9C
  8
LEG_2
  6
CONTINUOUS
 62
     5
 10
158.2359045382
 20
34.3376197865
 30
0.0
 40
63.49999999999999
 50
340.0000000000001
 51
76.68508694189997
  0
ARC
  5
9D
  8
LEG_2
  6
CONTINUOUS
 62
     5
 10
177.2359045382
 20
114.6199341528
 30
0.0
 40
18.99999999999999
 50
180.0
 51
256.6850869419
  0
LINE
  5
9E
  8
LEG_2
  6
CONTINUOUS
 62
     5
 10
501.2359045382
 20
114.6199341528
 30
0.0
 11
501.2359045382
 21
151.8376197865
 31
0.0
  0
ARC
  5
9F
  8
LEG_2
  6
CONTINUOUS
 62
     5
 10
482.2359045382
 20
114.6199341528
 30
0.0
 40
19.00000000000001
 50
283.3149130580999
 51
359.9999999999999
  0
LINE
  5
A0
  8
LEG_2
  6
CONTINUOUS
 62
     5
 10
491.7359045382
 20
161.3376197865
 30
0.0
 11
463.2359045382
 21
161.3376197865
 31
0.0
  0
ARC
  5
A1
  8
LEG_2
  6
CONTINUOUS
 62
     5
 10
491.7359045382
 20
151.8376197865
 30
0.0
 40
9.500000000000009
 50
0.0
 51
90.0
  0
LINE
  5
A2
  8
LEG_2
  6
CONTINUOUS
 62
     5
 10
158.2359045382
 20
151.8376197865
 30
0.0
 11
158.2359045382
 21
114.6199341528
 31
0.0
  0
ARC
  5
A3
  8
LEG_2
  6
CONTINUOUS
 62
     5
 10
167.7359045382
 20
151.8376197865
 30
0.0
 40
9.500000000000009
 50
90.0
 51
180.0
  0
LINE
  5
A5
  8
LEG_1
  6
CONTINUOUS
 62
     5
 10
-464.6388012362
 20
155.315470754
 30
0.0
 11
-464.6388012362
 21
133.315470754
 31
0.0
  0
LINE
  5
A6
  8
LEG_1
  6
CONTINUOUS
 62
     5
 10
-464.6388012362
 20
133.315470754
 30
0.0
 11
-342.1388012362
 21
133.315470754
 31
0.0
  0
LINE
  5
A7
  8
LEG_1
  6
CONTINUOUS
 62
     5
 10
-197.6388012362
 20
133.315470754
 30
0.0
 11
-197.6388012362
 21
155.315470754
 31
0.0
  0
LINE
  5
A8
  8
LEG_1
  6
CONTINUOUS
 62
     5
 10
-197.6388012362
 20
155.315470754
 30
0.0
 11
-169.1388012362
 21
155.315470754
 31
0.0
  0
LINE
  5
A9
  8
LEG_1
  6
CONTINUOUS
 62
     5
 10
-219.3092826561
 20
6.597191652800007
 30
0.0
 11
-127.2841127595
 21
-246.2398846596
 31
0.0
  0
ARC
  5
AA
  8
LEG_1
  6
CONTINUOUS
 62
     5
 10
-331.1388012362
 20
-238.184529246
 30
0.0
 40
89.00000000000001
 50
18.86928274570001
 51
161.1307172543
  0
LINE
  5
AB
  8
LEG_1
  6
CONTINUOUS
 62
     5
 10
-415.3558416063
 20
-209.4010250936
 30
0.0
 11
-438.230439326
 21
-276.3293222673
 31
0.0
  0
ARC
  5
AC
  8
LEG_1
  6
CONTINUOUS
 62
     5
 10
-502.6388012362
 20
28.31547075399999
 30
0.0
 40
63.50000000000001
 50
340.0
 51
76.6850869419
  0
LINE
  5
AD
  8
LEG_1
  6
CONTINUOUS
 62
     5
 10
-534.9934897129
 20
-246.2398846596
 30
0.0
 11
-442.9683198163
 21
6.597191652800007
 31
0.0
  0
ARC
  5
AE
  8
LEG_1
  6
CONTINUOUS
 62
     5
 10
-504.9233258477
 20
-257.184529246
 30
0.0
 40
32.00000000000001
 50
160.0
 51
270.0
  0
LINE
  5
AF
  8
LEG_1
  6
CONTINUOUS
 62
     5
 10
-157.3542766246
 20
-289.184529246
 30
0.0
 11
-206.0682444156
 21
-289.184529246
 31
0.0
  0
ARC
  5
B0
  8
LEG_1
  6
CONTINUOUS
 62
     5
 10
-157.3542766246
 20
-257.184529246
 30
0.0
 40
32.00000000000007
 50
270.0
 51
19.99999999999999
  0
LINE
  5
B1
  8
LEG_1
  6
CONTINUOUS
 62
     5
 10
-320.1388012362
 20
133.315470754
 30
0.0
 11
-197.6388012362
 21
133.315470754
 31
0.0
  0
LINE
  5
B2
  8
LEG_1
  6
CONTINUOUS
 62
     5
 10
-342.1388012362
 20
133.315470754
 30
0.0
 11
-342.1388012362
 21
-23.68452924600001
 31
0.0
  0
LINE
  5
B3
  8
LEG_1
  6
CONTINUOUS
 62
     5
 10
-320.1388012362
 20
-23.68452924600001
 30
0.0
 11
-320.1388012362
 21
133.315470754
 31
0.0
  0
LINE
  5
B4
  8
LEG_1
  6
CONTINUOUS
 62
     5
 10
-342.1388012362
 20
-23.68452924600001
 30
0.0
 11
-320.1388012362
 21
-23.68452924600001
 31
0.0
  0
LINE
  5
B5
  8
LEG_1
  6
CONTINUOUS
 62
     5
 10
-456.2093580567
 20
-289.184529246
 30
0.0
 11
-504.9233258477
 21
-289.184529246
 31
0.0
  0
ARC
  5
B6
  8
LEG_1
  6
CONTINUOUS
 62
     5
 10
-456.2093580567
 20
-270.184529246
 30
0.0
 40
19.0
 50
270.0
 51
341.1307172543
  0
LINE
  5
B7
  8
LEG_1
  6
CONTINUOUS
 62
     5
 10
-224.0471631463
 20
-276.3293222673
 30
0.0
 11
-246.921760866
 21
-209.4010250936
 31
0.0
  0
ARC
  5
B8
  8
LEG_1
  6
CONTINUOUS
 62
     5
 10
-206.0682444156
 20
-270.184529246
 30
0.0
 40
19.0
 50
198.8692827457
 51
270.0
  0
LINE
  5
B9
  8
LEG_1
  6
CONTINUOUS
 62
     5
 10
-502.6388012362
 20
108.5977851202
 30
0.0
 11
-502.6388012362
 21
145.815470754
 31
0.0
  0
ARC
  5
BA
  8
LEG_1
  6
CONTINUOUS
 62
     5
 10
-483.6388012362
 20
108.5977851202
 30
0.0
 40
18.99999999999999
 50
180.0
 51
256.6850869419001
  0
ARC
  5
BB
  8
LEG_1
  6
CONTINUOUS
 62
     5
 10
-159.6388012362
 20
28.31547075399999
 30
0.0
 40
63.5
 50
103.3149130581
 51
200.0
  0
ARC
  5
BC
  8
LEG_1
  6
CONTINUOUS
 62
     5
 10
-178.6388012362
 20
108.5977851202
 30
0.0
 40
19.00000000000002
 50
283.3149130581
 51
0.0
  0
LINE
  5
BD
  8
LEG_1
  6
CONTINUOUS
 62
     5
 10
-493.1388012362
 20
155.315470754
 30
0.0
 11
-464.6388012362
 21
155.315470754
 31
0.0
  0
ARC
  5
BE
  8
LEG_1
  6
CONTINUOUS
 62
     5
 10
-493.1388012362
 20
145.815470754
 30
0.0
 40
9.500000000000009
 50
90.0
 51
180.0
  0
LINE
  5
BF
  8
LEG_1
  6
CONTINUOUS
 62
     5
 10
-159.6388012362
 20
145.815470754
 30
0.0
 11
-159.6388012362
 21
108.5977851202
 31
0.0
  0
ARC
  5
C0
  8
LEG_1
  6
CONTINUOUS
 62
     5
 10
-169.1388012362
 20
145.815470754
 30
0.0
 40
9.500000000000009
 50
0.0
 51
90.0
  0
POLYLINE
  5
C2
  8
DEFAULT
 62
     5
 66
     1
 10
0.0
 20
0.0
 30
0.0
 70
     1
  0
VERTEX
  5
C3
  8
DEFAULT
 62
     5
 10
-389.0244017538782
 20
221.1699471131371
 30
0.0
  0
VERTEX
  5
C4
  8
DEFAULT
 62
     5
 10
-393.1771801674486
 20
234.1699471131371
 30
0.0
  0
VERTEX
  5
C5
  8
DEFAULT
 62
     5
 10
-389.8039156692585
 20
234.1699471131371
 30
0.0
  0
VERTEX
  5
C6
  8
DEFAULT
 62
     5
 10
-387.3438459863918
 20
225.6508504472334
 30
0.0
  0
VERTEX
  5
C7
  8
DEFAULT
 62
     5
 10
-385.034818579493
 20
234.1699471131371
 30
0.0
  0
VERTEX
  5
C8
  8
DEFAULT
 62
     5
 10
-381.6962768333523
 20
234.1699471131371
 30
0.0
  0
VERTEX
  5
C9
  8
DEFAULT
 62
     5
 10
-379.566068208614
 20
225.6508504472334
 30
0.0
  0
VERTEX
  5
CA
  8
DEFAULT
 62
     5
 10
-377.0990539753375
 20
234.1699471131371
 30
0.0
  0
VERTEX
  5
CB
  8
DEFAULT
 62
     5
 10
-373.7327357230041
 20
234.1699471131371
 30
0.0
  0
VERTEX
  5
CC
  8
DEFAULT
 62
     5
 10
-377.8768317531153
 20
221.1699471131371
 30
0.0
  0
VERTEX
  5
CD
  8
DEFAULT
 62
     5
 10
-381.1424574153992
 20
221.1699471131371
 30
0.0
  0
VERTEX
  5
CE
  8
DEFAULT
 62
     5
 10
-383.3438459863918
 20
229.5310586481099
 30
0.0
  0
VERTEX
  5
CF
  8
DEFAULT
 62
     5
 10
-385.6146800614831
 20
221.1699471131371
 30
0.0
  0
SEQEND
  5
D0
  8
DEFAULT
 62
     5
  0
POLYLINE
  5
D1
  8
DEFAULT
 62
     5
 66
     1
 10
0.0
 20
0.0
 30
0.0
 70
     1
  0
VERTEX
  5
D2
  8
DEFAULT
 62
     5
 10
-369.6910684205449
 20
221.1699471131371
 30
0.0
  0
VERTEX
  5
D3
  8
DEFAULT
 62
     5
 10
-373.8438468341153
 20
234.1699471131371
 30
0.0
  0
VERTEX
  5
D4
  8
DEFAULT
 62
     5
 10
-370.4705823359251
 20
234.1699471131371
 30
0.0
  0
VERTEX
  5
D5
  8
DEFAULT
 62
     5
 10
-368.0105126530585
 20
225.6508504472334
 30
0.0
  0
VERTEX
  5
D6
  8
DEFAULT
 62
     5
 10
-365.7014852461597
 20
234.1699471131371
 30
0.0
  0
VERTEX
  5
D7
  8
DEFAULT
 62
     5
 10
-362.362943500019
 20
234.1699471131371
 30
0.0
  0
VERTEX
  5
D8
  8
DEFAULT
 62
     5
 10
-360.2327348752807
 20
225.6508504472334
 30
0.0
  0
VERTEX
  5
D9
  8
DEFAULT
 62
     5
 10
-357.7657206420042
 20
234.1699471131371
 30
0.0
  0
VERTEX
  5
DA
  8
DEFAULT
 62
     5
 10
-354.3994023896708
 20
234.1699471131371
 30
0.0
  0
VERTEX
  5
DB
  8
DEFAULT
 62
     5
 10
-358.5434984197819
 20
221.1699471131371
 30
0.0
  0
VERTEX
  5
DC
  8
DEFAULT
 62
     5
 10
-361.8091240820659
 20
221.1699471131371
 30
0.0
  0
VERTEX
  5
DD
  8
DEFAULT
 62
     5
 10
-364.0105126530585
 20
229.5310586481099
 30
0.0
  0
VERTEX
  5
DE
  8
DEFAULT
 62
     5
 10
-366.2813467281498
 20
221.1699471131371
 30
0.0
  0
SEQEND
  5
DF
  8
DEFAULT
 62
     5
  0
POLYLINE
  5
E0
  8
DEFAULT
 62
     5
 66
     1
 10
0.0
 20
0.0
 30
0.0
 70
     1
  0
VERTEX
  5
E1
  8
DEFAULT
 62
     5
 10
-350.3577350872116
 20
221.1699471131371
 30
0.0
  0
VERTEX
  5
E2
  8
DEFAULT
 62
     5
 10
-354.5105135007819
 20
234.1699471131371
 30
0.0
  0
VERTEX
  5
E3
  8
DEFAULT
 62
     5
 10
-351.1372490025918
 20
234.1699471131371
 30
0.0
  0
VERTEX
  5
E4
  8
DEFAULT
 62
     5
 10
-348.6771793197252
 20
225.6508504472334
 30
0.0
  0
VERTEX
  5
E5
  8
DEFAULT
 62
     5
 10
-346.3681519128264
 20
234.1699471131371
 30
0.0
  0
VERTEX
  5
E6
  8
DEFAULT
 62
     5
 10
-343.0296101666856
 20
234.1699471131371
 30
0.0
  0
VERTEX
  5
E7
  8
DEFAULT
 62
     5
 10
-340.8994015419473
 20
225.6508504472334
 30
0.0
  0
VERTEX
  5
E8
  8
DEFAULT
 62
     5
 10
-338.4323873086709
 20
234.1699471131371
 30
0.0
  0
VERTEX
  5
E9
  8
DEFAULT
 62
     5
 10
-335.0660690563375
 20
234.1699471131371
 30
0.0
  0
VERTEX
  5
EA
  8
DEFAULT
 62
     5
 10
-339.2101650864486
 20
221.1699471131371
 30
0.0
  0
VERTEX
  5
EB
  8
DEFAULT
 62
     5
 10
-342.4757907487325
 20
221.1699471131371
 30
0.0
  0
VERTEX
  5
EC
  8
DEFAULT
 62
     5
 10
-344.6771793197252
 20
229.5310586481099
 30
0.0
  0
VERTEX
  5
ED
  8
DEFAULT
 62
     5
 10
-346.9480133948165
 20
221.1699471131371
 30
0.0
  0
SEQEND
  5
EE
  8
DEFAULT
 62
     5
  0
POLYLINE
  5
EF
  8
DEFAULT
 62
     5
 66
     1
 10
0.0
 20
0.0
 30
0.0
 70
     1
  0
VERTEX
  5
F0
  8
DEFAULT
 62
     5
 10
-333.621624611893
 20
221.1699471131371
 30
0.0
  0
VERTEX
  5
F1
  8
DEFAULT
 62
     5
 10
-333.621624611893
 20
224.6143915575815
 30
0.0
  0
VERTEX
  5
F2
  8
DEFAULT
 62
     5
 10
-330.1771801674486
 20
224.6143915575815
 30
0.0
  0
VERTEX
  5
F3
  8
DEFAULT
 62
     5
 10
-330.1771801674486
 20
221.1699471131371
 30
0.0
  0
SEQEND
  5
F4
  8
DEFAULT
 62
     5
  0
POLYLINE
  5
F5
  8
DEFAULT
 62
     5
 66
     1
 10
0.0
 20
0.0
 30
0.0
 70
     1
  0
VERTEX
  5
F6
  8
DEFAULT
 62
     5
 10
-315.3994023896708
 20
230.3921693353593
 30
0.0
  0
VERTEX
  5
F7
  8
DEFAULT
 62
     5
 10
-318.8438468341153
 20
229.8366137798037
 30
0.0
 42
0.1809968098174994
  0
VERTEX
  5
F8
  8
DEFAULT
 62
     5
 10
-319.6129430761573
 20
231.3340104211236
 30
0.0
 42
0.1804760167669693
  0
VERTEX
  5
F9
  8
DEFAULT
 62
     5
 10
-321.1684994794363
 20
231.8366137798037
 30
0.0
 42
0.2329674834671303
  0
VERTEX
  5
FA
  8
DEFAULT
 62
     5
 10
-323.1980129709548
 20
230.9338366378185
 30
0.0
 42
0.1695179555120438
  0
VERTEX
  5
FB
  8
DEFAULT
 62
     5
 10
-323.9549579452264
 20
227.9130038343124
 30
0.0
 42
0.1610966817174681
  0
VERTEX
  5
FC
  8
DEFAULT
 62
     5
 10
-323.1797835261289
 20
224.5857461348642
 30
0.0
 42
0.2405540491094105
  0
VERTEX
  5
FD
  8
DEFAULT
 62
     5
 10
-321.0990539753375
 20
223.6143915575815
 30
0.0
 42
0.188345844186926
  0
VERTEX
  5
FE
  8
DEFAULT
 62
     5
 10
-319.5009638962449
 20
224.1647395480531
 30
0.0
 42
0.1622604489947825
  0
VERTEX
  5
FF
  8
DEFAULT
 62
     5
 10
-318.621624611893
 20
226.058836002026
 30
0.0
  0
VERTEX
  5
100
  8
DEFAULT
 62
     5
 10
-315.1771801674485
 20
225.6143915575815
 30
0.0
 42
-0.1724509721435886
  0
VERTEX
  5
101
  8
DEFAULT
 62
     5
 10
-317.1893322829424
 20
222.0432116113272
 30
0.0
 42
-0.1746967243539381
  0
VERTEX
  5
102
  8
DEFAULT
 62
     5
 10
-321.1789146096041
 20
220.8366137798037
 30
0.0
 42
-0.2163976905724322
  0
VERTEX
  5
103
  8
DEFAULT
 62
     5
 10
-325.7101659341721
 20
222.6465101032271
 30
0.0
 42
-0.1943870566320958
  0
VERTEX
  5
104
  8
DEFAULT
 62
     5
 10
-327.3994023896708
 20
227.6577949976433
 30
0.0
 42
-0.1945054615972584
  0
VERTEX
  5
105
  8
DEFAULT
 62
     5
 10
-325.7110340029733
 20
232.699461452379
 30
0.0
 42
-0.2157801631579665
  0
VERTEX
  5
106
  8
DEFAULT
 62
     5
 10
-321.1441935530017
 20
234.5032804464705
 30
0.0
 42
-0.1599423076958024
  0
VERTEX
  5
107
  8
DEFAULT
 62
     5
 10
-317.3976654043449
 20
233.4876560557717
 30
0.0
 42
-0.1682635697126433
  0
SEQEND
  5
108
  8
DEFAULT
 62
     5
  0
POLYLINE
  5
109
  8
DEFAULT
 62
     5
 66
     1
 10
0.0
 20
0.0
 30
0.0
 70
     1
  0
VERTEX
  5
10A
  8
DEFAULT
 62
     5
 10
-309.2882912785597
 20
221.1699471131371
 30
0.0
  0
VERTEX
  5
10B
  8
DEFAULT
 62
     5
 10
-312.7327357230041
 20
221.1699471131371
 30
0.0
  0
VERTEX
  5
10C
  8
DEFAULT
 62
     5
 10
-312.7327357230041
 20
234.1699471131371
 30
0.0
  0
VERTEX
  5
10D
  8
DEFAULT
 62
     5
 10
-309.5105135007819
 20
234.1699471131371
 30
0.0
  0
VERTEX
  5
10E
  8
DEFAULT
 62
     5
 10
-309.5105135007819
 20
232.3348784899247
 30
0.0
 42
-0.0977550519460695
  0
VERTEX
  5
10F
  8
DEFAULT
 62
     5
 10
-308.0990548230609
 20
234.0692528276408
 30
0.0
 42
-0.1561720185079495
  0
VERTEX
  5
110
  8
DEFAULT
 62
     5
 10
-306.6771793197252
 20
234.5032804464705
 30
0.0
 42
-0.1438170981370128
  0
VERTEX
  5
111
  8
DEFAULT
 62
     5
 10
-304.5105135007819
 20
233.848766743021
 30
0.0
  0
VERTEX
  5
112
  8
DEFAULT
 62
     5
 10
-305.566068208614
 20
230.8331432000457
 30
0.0
 42
0.1496770151887351
  0
VERTEX
  5
113
  8
DEFAULT
 62
     5
 10
-307.10079011294
 20
231.3921693353593
 30
0.0
 42
0.1810970994866948
  0
VERTEX
  5
114
  8
DEFAULT
 62
     5
 10
-308.2648525732029
 20
230.9937325373803
 30
0.0
 42
0.1501348396488659
  0
VERTEX
  5
115
  8
DEFAULT
 62
     5
 10
-309.0148529970646
 20
229.553628436942
 30
0.0
 42
0.0509111359642002
  0
VERTEX
  5
116
  8
DEFAULT
 62
     5
 10
-309.2882912785597
 20
225.1907807643667
 30
0.0
  0
SEQEND
  5
117
  8
DEFAULT
 62
     5
  0
POLYLINE
  5
118
  8
DEFAULT
 62
     5
 66
     1
 10
0.0
 20
0.0
 30
0.0
 70
     1
  0
VERTEX
  5
119
  8
DEFAULT
 62
     5
 10
-300.5105135007819
 20
230.1699471131371
 30
0.0
  0
VERTEX
  5
11A
  8
DEFAULT
 62
     5
 10
-303.621624611893
 20
230.6143915575815
 30
0.0
 42
-0.1714833175990401
  0
VERTEX
  5
11B
  8
DEFAULT
 62
     5
 10
-301.844714055193
 20
233.5501561617371
 30
0.0
 42
-0.1608829132837419
  0
VERTEX
  5
11C
  8
DEFAULT
 62
     5
 10
-298.0990539753375
 20
234.5032804464705
 30
0.0
 42
-0.1088364278880827
  0
VERTEX
  5
11D
  8
DEFAULT
 62
     5
 10
-294.7379432880881
 20
233.9572736477284
 30
0.0
 42
-0.158030364433552
  0
VERTEX
  5
11E
  8
DEFAULT
 62
     5
 10
-293.1832558013338
 20
232.570120896442
 30
0.0
 42
-0.1088017057953448
  0
VERTEX
  5
11F
  8
DEFAULT
 62
     5
 10
-292.7327357230041
 20
229.4824484906877
 30
0.0
  0
VERTEX
  5
120
  8
DEFAULT
 62
     5
 10
-292.7327357230041
 20
225.4546702890482
 30
0.0
 42
0.0514080219695429
  0
VERTEX
  5
121
  8
DEFAULT
 62
     5
 10
-292.5452354051079
 20
222.9190794681976
 30
0.0
 42
0.0692287864232188
  0
VERTEX
  5
122
  8
DEFAULT
 62
     5
 10
-291.8438468341153
 20
221.1699471131371
 30
0.0
  0
VERTEX
  5
123
  8
DEFAULT
 62
     5
 10
-295.2882912785597
 20
221.1699471131371
 30
0.0
  0
VERTEX
  5
124
  8
DEFAULT
 62
     5
 10
-295.6181523366881
 20
222.1768916635469
 30
0.0
  0
VERTEX
  5
125
  8
DEFAULT
 62
     5
 10
-295.7396785779672
 20
222.5779343633766
 30
0.0
 42
-0.0933244186738022
  0
VERTEX
  5
126
  8
DEFAULT
 62
     5
 10
-297.6198884742905
 20
221.2723783839593
 30
0.0
 42
-0.1040133466925546
  0
VERTEX
  5
127
  8
DEFAULT
 62
     5
 10
-299.7570399539918
 20
220.8366137798038
 30
0.0
 42
-0.1965430357596661
  0
VERTEX
  5
128
  8
DEFAULT
 62
     5
 10
-302.9124225739658
 20
221.9260240186074
 30
0.0
 42
-0.2154369487651234
  0
VERTEX
  5
129
  8
DEFAULT
 62
     5
 10
-304.0660690563374
 20
224.6803647864753
 30
0.0
 42
-0.1373780248024381
  0
VERTEX
  5
12A
  8
DEFAULT
 62
     5
 10
-303.5521799555177
 20
226.645642034426
 30
0.0
 42
-0.1473783213971694
  0
VERTEX
  5
12B
  8
DEFAULT
 62
     5
 10
-302.112075007356
 20
227.9676904733432
 30
0.0
 42
-0.0634404934847324
  0
VERTEX
  5
12C
  8
DEFAULT
 62
     5
 10
-299.4410679966832
 20
228.7689061087544
 30
0.0
 42
0.0472009877729082
  0
VERTEX
  5
12D
  8
DEFAULT
 62
     5
 10
-296.1771801674486
 20
229.6143915575815
 30
0.0
  0
VERTEX
  5
12E
  8
DEFAULT
 62
     5
 10
-296.1771801674486
 20
229.9633501293371
 30
0.0
 42
0.2070921599656357
  0
VERTEX
  5
12F
  8
DEFAULT
 62
     5
 10
-296.638117071393
 20
231.4060584361791
 30
0.0
 42
0.1777887432707632
  0
VERTEX
  5
130
  8
DEFAULT
 62
     5
 10
-298.3785687384412
 20
231.8366137798037
 30
0.0
 42
0.1651091138038706
  0
VERTEX
  5
131
  8
DEFAULT
 62
     5
 10
-299.726658393672
 20
231.466822404542
 30
0.0
 42
0.1491587679877661
  0
SEQEND
  5
132
  8
DEFAULT
 62
     5
  0
POLYLINE
  5
133
  8
DEFAULT
 62
     5
 66
     1
 10
0.0
 20
0.0
 30
0.0
 70
     1
  0
VERTEX
  5
134
  8
DEFAULT
 62
     5
 10
-296.1771801674486
 20
227.3921693353593
 30
0.0
 42
-0.026132947671479
  0
VERTEX
  5
135
  8
DEFAULT
 62
     5
 10
-298.1823877325326
 20
226.8661281190457
 30
0.0
 42
0.0811165779561266
  0
VERTEX
  5
136
  8
DEFAULT
 62
     5
 10
-299.9757899010091
 20
226.2671708188754
 30
0.0
 42
0.2517191883486388
  0
VERTEX
  5
137
  8
DEFAULT
 62
     5
 10
-300.621624611893
 20
225.0553654222679
 30
0.0
 42
0.2041672574556722
  0
VERTEX
  5
138
  8
DEFAULT
 62
     5
 10
-300.1059993734708
 20
223.8071002882853
 30
0.0
 42
0.2097521333283086
  0
VERTEX
  5
139
  8
DEFAULT
 62
     5
 10
-298.7917627060412
 20
223.2810582242482
 30
0.0
 42
0.1670482644846046
  0
VERTEX
  5
13A
  8
DEFAULT
 62
     5
 10
-297.0921094249276
 20
223.8921701830827
 30
0.0
 42
0.1651612454991264
  0
VERTEX
  5
13B
  8
DEFAULT
 62
     5
 10
-296.3056509591375
 20
225.0310594958333
 30
0.0
 42
0.059366794816393
  0
VERTEX
  5
13C
  8
DEFAULT
 62
     5
 10
-296.1771801674486
 20
226.7064068505123
 30
0.0
  0
SEQEND
  5
13D
  8
DEFAULT
 62
     5
  0
POLYLINE
  5
13E
  8
DEFAULT
 62
     5
 66
     1
 10
0.0
 20
0.0
 30
0.0
 70
     1
  0
VERTEX
  5
13F
  8
DEFAULT
 62
     5
 10
-290.5105135007819
 20
234.1699471131371
 30
0.0
  0
VERTEX
  5
140
  8
DEFAULT
 62
     5
 10
-288.7327357230041
 20
234.1699471131371
 30
0.0
  0
VERTEX
  5
141
  8
DEFAULT
 62
     5
 10
-288.7327357230041
 20
235.1439067445469
 30
0.0
 42
-0.0950504639922915
  0
VERTEX
  5
142
  8
DEFAULT
 62
     5
 10
-288.388985564056
 20
237.5779343633765
 30
0.0
 42
-0.1716707163024054
  0
VERTEX
  5
143
  8
DEFAULT
 62
     5
 10
-287.1224918329708
 20
238.8869617702754
 30
0.0
 42
-0.1257658996646391
  0
VERTEX
  5
144
  8
DEFAULT
 62
     5
 10
-284.7882904308362
 20
239.3921693353593
 30
0.0
 42
-0.0781428993826883
  0
VERTEX
  5
145
  8
DEFAULT
 62
     5
 10
-281.9549579452263
 20
238.9477248909149
 30
0.0
  0
VERTEX
  5
146
  8
DEFAULT
 62
     5
 10
-282.3438459863918
 20
236.5310586481098
 30
0.0
 42
0.0588660059482582
  0
VERTEX
  5
147
  8
DEFAULT
 62
     5
 10
-283.9063460923572
 20
236.7255026686926
 30
0.0
 42
0.2070684672812346
  0
VERTEX
  5
148
  8
DEFAULT
 62
     5
 10
-284.9671100607202
 20
236.3834894950703
 30
0.0
 42
0.1773524100531778
  0
VERTEX
  5
149
  8
DEFAULT
 62
     5
 10
-285.2882912785597
 20
235.0692528276408
 30
0.0
  0
VERTEX
  5
14A
  8
DEFAULT
 62
     5
 10
-285.2882912785597
 20
234.1699471131371
 30
0.0
  0
VERTEX
  5
14B
  8
DEFAULT
 62
     5
 10
-282.8438468341153
 20
234.1699471131371
 30
0.0
  0
VERTEX
  5
14C
  8
DEFAULT
 62
     5
 10
-282.8438468341153
 20
231.5032804464705
 30
0.0
  0
VERTEX
  5
14D
  8
DEFAULT
 62
     5
 10
-285.2882912785597
 20
231.5032804464705
 30
0.0
  0
VERTEX
  5
14E
  8
DEFAULT
 62
     5
 10
-285.2882912785597
 20
221.1699471131371
 30
0.0
  0
VERTEX
  5
14F
  8
DEFAULT
 62
     5
 10
-288.7327357230041
 20
221.1699471131371
 30
0.0
  0
VERTEX
  5
150
  8
DEFAULT
 62
     5
 10
-288.7327357230041
 20
231.5032804464705
 30
0.0
  0
VERTEX
  5
151
  8
DEFAULT
 62
     5
 10
-290.5105135007819
 20
231.5032804464705
 30
0.0
  0
SEQEND
  5
152
  8
DEFAULT
 62
     5
  0
POLYLINE
  5
153
  8
DEFAULT
 62
     5
 66
     1
 10
0.0
 20
0.0
 30
0.0
 70
     1
  0
VERTEX
  5
154
  8
DEFAULT
 62
     5
 10
-274.8438468341153
 20
234.1699471131371
 30
0.0
  0
VERTEX
  5
155
  8
DEFAULT
 62
     5
 10
-274.8438468341153
 20
231.5032804464705
 30
0.0
  0
VERTEX
  5
156
  8
DEFAULT
 62
     5
 10
-277.1771801674486
 20
231.5032804464705
 30
0.0
  0
VERTEX
  5
157
  8
DEFAULT
 62
     5
 10
-277.1771801674486
 20
226.1352260565346
 30
0.0
 42
0.0340880666974719
  0
VERTEX
  5
158
  8
DEFAULT
 62
     5
 10
-277.1112077862782
 20
224.2350514255062
 30
0.0
 42
0.1777629698041172
  0
VERTEX
  5
159
  8
DEFAULT
 62
     5
 10
-276.8134644260721
 20
223.7897389122605
 30
0.0
 42
0.1671411134724644
  0
VERTEX
  5
15A
  8
DEFAULT
 62
     5
 10
-276.2466239761004
 20
223.6143915575815
 30
0.0
 42
0.0818670423874938
  0
VERTEX
  5
15B
  8
DEFAULT
 62
     5
 10
-274.8994015419473
 20
223.9425181735543
 30
0.0
  0
VERTEX
  5
15C
  8
DEFAULT
 62
     5
 10
-274.621624611893
 20
221.3366146275272
 30
0.0
 42
-0.1009135694950887
  0
VERTEX
  5
15D
  8
DEFAULT
 62
     5
 10
-277.3021786839325
 20
220.8366137798037
 30
0.0
 42
-0.1023112505794062
  0
VERTEX
  5
15E
  8
DEFAULT
 62
     5
 10
-278.9558251663042
 20
221.1525865848359
 30
0.0
 42
-0.142732760251427
  0
VERTEX
  5
15F
  8
DEFAULT
 62
     5
 10
-280.0365547170955
 20
221.9694274586691
 30
0.0
 42
-0.111247426680755
  0
VERTEX
  5
160
  8
DEFAULT
 62
     5
 10
-280.5122479429374
 20
223.3244616643099
 30
0.0
 42
-0.0357944377719416
  0
VERTEX
  5
161
  8
DEFAULT
 62
     5
 10
-280.621624611893
 20
225.7741145215618
 30
0.0
  0
VERTEX
  5
162
  8
DEFAULT
 62
     5
 10
-280.621624611893
 20
231.5032804464705
 30
0.0
  0
VERTEX
  5
163
  8
DEFAULT
 62
     5
 10
-282.2882912785597
 20
231.5032804464705
 30
0.0
  0
VERTEX
  5
164
  8
DEFAULT
 62
     5
 10
-282.2882912785597
 20
234.1699471131371
 30
0.0
  0
VERTEX
  5
165
  8
DEFAULT
 62
     5
 10
-280.621624611893
 20
234.1699471131371
 30
0.0
  0
VERTEX
  5
166
  8
DEFAULT
 62
     5
 10
-280.621624611893
 20
236.6143915575815
 30
0.0
  0
VERTEX
  5
167
  8
DEFAULT
 62
     5
 10
-277.1771801674486
 20
238.6143915575815
 30
0.0
  0
VERTEX
  5
168
  8
DEFAULT
 62
     5
 10
-277.1771801674486
 20
234.1699471131371
 30
0.0
  0
SEQEND
  5
169
  8
DEFAULT
 62
     5
  0
POLYLINE
  5
16A
  8
DEFAULT
 62
     5
 66
     1
 10
0.0
 20
0.0
 30
0.0
 70
     1
  0
VERTEX
  5
16B
  8
DEFAULT
 62
     5
 10
-273.7327357230041
 20
224.8366137798038
 30
0.0
  0
VERTEX
  5
16C
  8
DEFAULT
 62
     5
 10
-270.2882912785597
 20
225.2810582242482
 30
0.0
 42
0.1817134537413057
  0
VERTEX
  5
16D
  8
DEFAULT
 62
     5
 10
-269.3967973355436
 20
223.7897389122605
 30
0.0
 42
0.1637490318832508
  0
VERTEX
  5
16E
  8
DEFAULT
 62
     5
 10
-267.5191924933474
 20
223.2810582242482
 30
0.0
 42
0.1581548590316586
  0
VERTEX
  5
16F
  8
DEFAULT
 62
     5
 10
-265.5174563557449
 20
223.7793229343692
 30
0.0
 42
0.2454173628752468
  0
VERTEX
  5
170
  8
DEFAULT
 62
     5
 10
-265.0660690563375
 20
224.7133514009222
 30
0.0
 42
0.1967133408659673
  0
VERTEX
  5
171
  8
DEFAULT
 62
     5
 10
-265.3108593719448
 20
225.373073517179
 30
0.0
 42
0.1152480441762539
  0
VERTEX
  5
172
  8
DEFAULT
 62
     5
 10
-266.4636377855153
 20
225.8331432000457
 30
0.0
 42
-0.0750101977649276
  0
VERTEX
  5
173
  8
DEFAULT
 62
     5
 10
-271.7448869907745
 20
227.5327947857124
 30
0.0
 42
-0.2630575377237248
  0
VERTEX
  5
174
  8
DEFAULT
 62
     5
 10
-273.2882912785597
 20
230.4807123530852
 30
0.0
 42
-0.2278055359033878
  0
VERTEX
  5
175
  8
DEFAULT
 62
     5
 10
-271.9540898764251
 20
233.3435583302136
 30
0.0
 42
-0.1789409577799189
  0
VERTEX
  5
176
  8
DEFAULT
 62
     5
 10
-267.8178047700782
 20
234.5032804464705
 30
0.0
 42
-0.1478680227513015
  0
VERTEX
  5
177
  8
DEFAULT
 62
     5
 10
-263.8525266744041
 20
233.6048436484913
 30
0.0
 42
-0.1798681362132182
  0
VERTEX
  5
178
  8
DEFAULT
 62
     5
 10
-262.0660690563375
 20
230.9477248909149
 30
0.0
  0
VERTEX
  5
179
  8
DEFAULT
 62
     5
 10
-265.2882912785597
 20
230.3921693353593
 30
0.0
 42
0.1762609448243826
  0
VERTEX
  5
17A
  8
DEFAULT
 62
     5
 10
-266.0764850342288
 20
231.6291487272026
 30
0.0
 42
0.1598214678236043
  0
VERTEX
  5
17B
  8
DEFAULT
 62
     5
 10
-267.7327357230041
 20
232.058836002026
 30
0.0
 42
0.1371855487857457
  0
VERTEX
  5
17C
  8
DEFAULT
 62
     5
 10
-269.6754431821226
 20
231.6734202360655
 30
0.0
 42
0.2593740206709785
  0
VERTEX
  5
17D
  8
DEFAULT
 62
     5
 10
-270.0660690563375
 20
230.9633501293371
 30
0.0
 42
0.2456185528240234
  0
VERTEX
  5
17E
  8
DEFAULT
 62
     5
 10
-269.7240550349918
 20
230.3279339395148
 30
0.0
 42
0.0664798749578633
  0
VERTEX
  5
17F
  8
DEFAULT
 62
     5
 10
-266.5209294786733
 20
229.3444272467383
 30
0.0
 42
-0.1095214193377495
  0
VERTEX
  5
180
  8
DEFAULT
 62
     5
 10
-262.6962768333522
 20
227.7984204479963
 30
0.0
 42
-0.2284114958797615
  0
VERTEX
  5
181
  8
DEFAULT
 62
     5
 10
-261.621624611893
 20
225.2237673788136
 30
0.0
 42
-0.2276229810650818
  0
VERTEX
  5
182
  8
DEFAULT
 62
     5
 10
-263.1112077862782
 20
222.1300167960038
 30
0.0
 42
-0.1809722242825296
  0
VERTEX
  5
183
  8
DEFAULT
 62
     5
 10
-267.5191924933474
 20
220.8366137798037
 30
0.0
 42
-0.1534212868271957
  0
VERTEX
  5
184
  8
DEFAULT
 62
     5
 10
-271.7127701405757
 20
221.9130029865889
 30
0.0
 42
-0.185354262016605
  0
SEQEND
  5
185
  8
DEFAULT
 62
     5
  0
POLYLINE
  5
186
  8
DEFAULT
 62
     5
 66
     1
 10
0.0
 20
0.0
 30
0.0
 70
     1
  0
VERTEX
  5
187
  8
DEFAULT
 62
     5
 10
-258.9549579452264
 20
234.1699471131371
 30
0.0
  0
VERTEX
  5
188
  8
DEFAULT
 62
     5
 10
-255.8438468341153
 20
234.1699471131371
 30
0.0
  0
VERTEX
  5
189
  8
DEFAULT
 62
     5
 10
-255.8438468341153
 20
232.4077945737815
 30
0.0
 42
-0.2373869490350225
  0
VERTEX
  5
18A
  8
DEFAULT
 62
     5
 10
-251.8004433940535
 20
234.5032804464705
 30
0.0
 42
-0.1315120310734722
  0
VERTEX
  5
18B
  8
DEFAULT
 62
     5
 10
-249.6398532089955
 20
233.9824476429643
 30
0.0
 42
-0.1393853272244804
  0
VERTEX
  5
18C
  8
DEFAULT
 62
     5
 10
-248.1372490025918
 20
232.4077945737815
 30
0.0
 42
-0.1018343532165917
  0
VERTEX
  5
18D
  8
DEFAULT
 62
     5
 10
-246.2987072564511
 20
233.9824476429643
 30
0.0
 42
-0.1239296679571086
  0
VERTEX
  5
18E
  8
DEFAULT
 62
     5
 10
-244.1928037104239
 20
234.5032804464705
 30
0.0
 42
-0.1355305589142021
  0
VERTEX
  5
18F
  8
DEFAULT
 62
     5
 10
-241.7813458804264
 20
233.9199475369988
 30
0.0
 42
-0.1623661969580946
  0
VERTEX
  5
190
  8
DEFAULT
 62
     5
 10
-240.30738709674
 20
232.2081421403914
 30
0.0
 42
-0.0915442810314636
  0
VERTEX
  5
191
  8
DEFAULT
 62
     5
 10
-239.9549579452264
 20
229.5067527216754
 30
0.0
  0
VERTEX
  5
192
  8
DEFAULT
 62
     5
 10
-239.9549579452264
 20
221.1699471131371
 30
0.0
  0
VERTEX
  5
193
  8
DEFAULT
 62
     5
 10
-243.3994023896708
 20
221.1699471131371
 30
0.0
  0
VERTEX
  5
194
  8
DEFAULT
 62
     5
 10
-243.3994023896708
 20
228.6039764274136
 30
0.0
 42
0.1141470137910797
  0
VERTEX
  5
195
  8
DEFAULT
 62
     5
 10
-243.7500954035819
 20
231.1022394420876
 30
0.0
 42
0.2721000606533504
  0
VERTEX
  5
196
  8
DEFAULT
 62
     5
 10
-245.2032205360387
 20
231.8366137798037
 30
0.0
 42
0.1575639071466188
  0
VERTEX
  5
197
  8
DEFAULT
 62
     5
 10
-246.5461034739091
 20
231.3956416105643
 30
0.0
 42
0.1657627374474211
  0
VERTEX
  5
198
  8
DEFAULT
 62
     5
 10
-247.4540898764251
 20
230.1039755796902
 30
0.0
 42
0.0723437487255006
  0
VERTEX
  5
199
  8
DEFAULT
 62
     5
 10
-247.7327357230041
 20
227.4164752617939
 30
0.0
  0
VERTEX
  5
19A
  8
DEFAULT
 62
     5
 10
-247.7327357230041
 20
221.1699471131371
 30
0.0
  0
VERTEX
  5
19B
  8
DEFAULT
 62
     5
 10
-251.1771801674486
 20
221.1699471131371
 30
0.0
  0
VERTEX
  5
19C
  8
DEFAULT
 62
     5
 10
-251.1771801674486
 20
228.2966834626704
 30
0.0
 42
0.0609892367975153
  0
VERTEX
  5
19D
  8
DEFAULT
 62
     5
 10
-251.3568670184103
 20
230.7472043887234
 30
0.0
 42
0.1633931196985389
  0
VERTEX
  5
19E
  8
DEFAULT
 62
     5
 10
-251.9150259326461
 20
231.5675166900383
 30
0.0
 42
0.1561218014296715
  0
VERTEX
  5
19F
  8
DEFAULT
 62
     5
 10
-252.9410688444066
 20
231.8366137798037
 30
0.0
 42
0.1551837175468236
  0
VERTEX
  5
1A0
  8
DEFAULT
 62
     5
 10
-254.3464501927955
 20
231.4077945737815
 30
0.0
 42
0.1670025847935571
  0
VERTEX
  5
1A1
  8
DEFAULT
 62
     5
 10
-255.2405474944919
 20
230.1708160296618
 30
0.0
 42
0.0722698594962621
  0
VERTEX
  5
1A2
  8
DEFAULT
 62
     5
 10
-255.5105135007819
 20
227.4893930410976
 30
0.0
  0
VERTEX
  5
1A3
  8
DEFAULT
 62
     5
 10
-255.5105135007819
 20
221.1699471131371
 30
0.0
  0
VERTEX
  5
1A4
  8
DEFAULT
 62
     5
 10
-258.9549579452264
 20
221.1699471131371
 30
0.0
  0
SEQEND
  5
1A5
  8
DEFAULT
 62
     5
  0
POLYLINE
  5
1A6
  8
DEFAULT
 62
     5
 66
     1
 10
0.0
 20
0.0
 30
0.0
 70
     1
  0
VERTEX
  5
1A7
  8
DEFAULT
 62
     5
 10
-233.9549579452264
 20
230.1699471131371
 30
0.0
  0
VERTEX
  5
1A8
  8
DEFAULT
 62
     5
 10
-237.0660690563375
 20
230.6143915575815
 30
0.0
 42
-0.1714833175990262
  0
VERTEX
  5
1A9
  8
DEFAULT
 62
     5
 10
-235.2891584996375
 20
233.550156161737
 30
0.0
 42
-0.1608829132837435
  0
VERTEX
  5
1AA
  8
DEFAULT
 62
     5
 10
-231.5434984197819
 20
234.5032804464705
 30
0.0
 42
-0.1088364278880922
  0
VERTEX
  5
1AB
  8
DEFAULT
 62
     5
 10
-228.1823877325326
 20
233.9572736477284
 30
0.0
 42
-0.1580303644335512
  0
VERTEX
  5
1AC
  8
DEFAULT
 62
     5
 10
-226.6277002457782
 20
232.570120896442
 30
0.0
 42
-0.1088017057953431
  0
VERTEX
  5
1AD
  8
DEFAULT
 62
     5
 10
-226.1771801674486
 20
229.4824484906877
 30
0.0
  0
VERTEX
  5
1AE
  8
DEFAULT
 62
     5
 10
-226.1771801674486
 20
225.4546702890482
 30
0.0
 42
0.0514080219695372
  0
VERTEX
  5
1AF
  8
DEFAULT
 62
     5
 10
-225.9896798495523
 20
222.9190794681976
 30
0.0
 42
0.0692287864232437
  0
VERTEX
  5
1B0
  8
DEFAULT
 62
     5
 10
-225.2882912785597
 20
221.1699471131371
 30
0.0
  0
VERTEX
  5
1B1
  8
DEFAULT
 62
     5
 10
-228.7327357230041
 20
221.1699471131371
 30
0.0
  0
VERTEX
  5
1B2
  8
DEFAULT
 62
     5
 10
-229.0625967811325
 20
222.1768916635469
 30
0.0
  0
VERTEX
  5
1B3
  8
DEFAULT
 62
     5
 10
-229.1841230224116
 20
222.5779343633766
 30
0.0
 42
-0.0933244186738095
  0
VERTEX
  5
1B4
  8
DEFAULT
 62
     5
 10
-231.064332918735
 20
221.2723783839592
 30
0.0
 42
-0.1040133466925607
  0
VERTEX
  5
1B5
  8
DEFAULT
 62
     5
 10
-233.2014843984363
 20
220.8366137798038
 30
0.0
 42
-0.1965430357596614
  0
VERTEX
  5
1B6
  8
DEFAULT
 62
     5
 10
-236.3568670184104
 20
221.9260240186074
 30
0.0
 42
-0.2154369487651117
  0
VERTEX
  5
1B7
  8
DEFAULT
 62
     5
 10
-237.510513500782
 20
224.6803647864753
 30
0.0
 42
-0.1373780248024416
  0
VERTEX
  5
1B8
  8
DEFAULT
 62
     5
 10
-236.9966243999622
 20
226.645642034426
 30
0.0
 42
-0.1473783213971245
  0
VERTEX
  5
1B9
  8
DEFAULT
 62
     5
 10
-235.5565194518005
 20
227.9676904733432
 30
0.0
 42
-0.0634404934847307
  0
VERTEX
  5
1BA
  8
DEFAULT
 62
     5
 10
-232.8855124411276
 20
228.7689061087544
 30
0.0
 42
0.0472009877729143
  0
VERTEX
  5
1BB
  8
DEFAULT
 62
     5
 10
-229.621624611893
 20
229.6143915575815
 30
0.0
  0
VERTEX
  5
1BC
  8
DEFAULT
 62
     5
 10
-229.6216246118931
 20
229.9633501293371
 30
0.0
 42
0.2070921599656357
  0
VERTEX
  5
1BD
  8
DEFAULT
 62
     5
 10
-230.0825615158375
 20
231.4060584361791
 30
0.0
 42
0.1777887432707716
  0
VERTEX
  5
1BE
  8
DEFAULT
 62
     5
 10
-231.8230131828856
 20
231.8366137798037
 30
0.0
 42
0.165109113803862
  0
VERTEX
  5
1BF
  8
DEFAULT
 62
     5
 10
-233.1711028381165
 20
231.466822404542
 30
0.0
 42
0.1491587679877577
  0
SEQEND
  5
1C0
  8
DEFAULT
 62
     5
  0
POLYLINE
  5
1C1
  8
DEFAULT
 62
     5
 66
     1
 10
0.0
 20
0.0
 30
0.0
 70
     1
  0
VERTEX
  5
1C2
  8
DEFAULT
 62
     5
 10
-229.621624611893
 20
227.3921693353593
 30
0.0
 42
-0.0261329476714756
  0
VERTEX
  5
1C3
  8
DEFAULT
 62
     5
 10
-231.626832176977
 20
226.8661281190457
 30
0.0
 42
0.0811165779561132
  0
VERTEX
  5
1C4
  8
DEFAULT
 62
     5
 10
-233.4202343454535
 20
226.2671708188754
 30
0.0
 42
0.2517191883486316
  0
VERTEX
  5
1C5
  8
DEFAULT
 62
     5
 10
-234.0660690563375
 20
225.0553654222679
 30
0.0
 42
0.2041672574556503
  0
VERTEX
  5
1C6
  8
DEFAULT
 62
     5
 10
-233.5504438179152
 20
223.8071002882852
 30
0.0
 42
0.2097521333282887
  0
VERTEX
  5
1C7
  8
DEFAULT
 62
     5
 10
-232.2362071504856
 20
223.2810582242482
 30
0.0
 42
0.1670482644845944
  0
VERTEX
  5
1C8
  8
DEFAULT
 62
     5
 10
-230.5365538693721
 20
223.8921701830827
 30
0.0
 42
0.1651612454991029
  0
VERTEX
  5
1C9
  8
DEFAULT
 62
     5
 10
-229.750095403582
 20
225.0310594958333
 30
0.0
 42
0.0593667948163937
  0
VERTEX
  5
1CA
  8
DEFAULT
 62
     5
 10
-229.621624611893
 20
226.7064068505123
 30
0.0
  0
SEQEND
  5
1CB
  8
DEFAULT
 62
     5
  0
POLYLINE
  5
1CC
  8
DEFAULT
 62
     5
 66
     1
 10
0.0
 20
0.0
 30
0.0
 70
     1
  0
VERTEX
  5
1CD
  8
DEFAULT
 62
     5
 10
-210.8438468341153
 20
221.1699471131371
 30
0.0
  0
VERTEX
  5
1CE
  8
DEFAULT
 62
     5
 10
-214.2882912785597
 20
221.1699471131371
 30
0.0
  0
VERTEX
  5
1CF
  8
DEFAULT
 62
     5
 10
-214.2882912785597
 20
227.8071011360086
 30
0.0
 42
0.0659043403441883
  0
VERTEX
  5
1D0
  8
DEFAULT
 62
     5
 10
-214.5053050879745
 20
230.5327956334358
 30
0.0
 42
0.1600130695765429
  0
VERTEX
  5
1D1
  8
DEFAULT
 62
     5
 10
-215.210165934172
 20
231.4937325373803
 30
0.0
 42
0.1575149176297903
  0
VERTEX
  5
1D2
  8
DEFAULT
 62
     5
 10
-216.3837771512486
 20
231.8366137798037
 30
0.0
 42
0.157698704634512
  0
VERTEX
  5
1D3
  8
DEFAULT
 62
     5
 10
-217.9610335791115
 20
231.3470306054185
 30
0.0
 42
0.1684371822617386
  0
VERTEX
  5
1D4
  8
DEFAULT
 62
     5
 10
-218.9184990555746
 20
230.0492880929358
 30
0.0
 42
0.0659809918576587
  0
VERTEX
  5
1D5
  8
DEFAULT
 62
     5
 10
-219.1771801674486
 20
227.0605721396284
 30
0.0
  0
VERTEX
  5
1D6
  8
DEFAULT
 62
     5
 10
-219.1771801674486
 20
221.1699471131371
 30
0.0
  0
VERTEX
  5
1D7
  8
DEFAULT
 62
     5
 10
-222.621624611893
 20
221.1699471131371
 30
0.0
  0
VERTEX
  5
1D8
  8
DEFAULT
 62
     5
 10
-222.621624611893
 20
234.1699471131371
 30
0.0
  0
VERTEX
  5
1D9
  8
DEFAULT
 62
     5
 10
-219.3994023896708
 20
234.1699471131371
 30
0.0
  0
VERTEX
  5
1DA
  8
DEFAULT
 62
     5
 10
-219.3994023896708
 20
232.2741153692852
 30
0.0
 42
-0.2486296121988563
  0
VERTEX
  5
1DB
  8
DEFAULT
 62
     5
 10
-215.1632910666288
 20
234.5032804464705
 30
0.0
 42
-0.1053164015608135
  0
VERTEX
  5
1DC
  8
DEFAULT
 62
     5
 10
-213.106867442272
 20
234.0918226164728
 30
0.0
 42
-0.1292191717088471
  0
VERTEX
  5
1DD
  8
DEFAULT
 62
     5
 10
-211.6971449021535
 20
233.042343542526
 30
0.0
 42
-0.1054932374262067
  0
VERTEX
  5
1DE
  8
DEFAULT
 62
     5
 10
-211.0313463042881
 20
231.5935587540753
 30
0.0
 42
-0.053364138517705
  0
VERTEX
  5
1DF
  8
DEFAULT
 62
     5
 10
-210.8438468341153
 20
229.2723792316827
 30
0.0
  0
SEQEND
  5
1E0
  8
DEFAULT
 62
     5
  0
POLYLINE
  5
1E1
  8
DEFAULT
 62
     5
 66
     1
 10
0.0
 20
0.0
 30
0.0
 70
     1
  0
VERTEX
  5
1E2
  8
DEFAULT
 62
     5
 10
-208.621624611893
 20
224.8366137798038
 30
0.0
  0
VERTEX
  5
1E3
  8
DEFAULT
 62
     5
 10
-205.1771801674485
 20
225.2810582242482
 30
0.0
 42
0.1817134537413044
  0
VERTEX
  5
1E4
  8
DEFAULT
 62
     5
 10
-204.2856862244326
 20
223.7897389122605
 30
0.0
 42
0.1637490318832654
  0
VERTEX
  5
1E5
  8
DEFAULT
 62
     5
 10
-202.4080813822363
 20
223.2810582242481
 30
0.0
 42
0.1581548590316531
  0
VERTEX
  5
1E6
  8
DEFAULT
 62
     5
 10
-200.4063452446338
 20
223.7793229343692
 30
0.0
 42
0.2454173628752921
  0
VERTEX
  5
1E7
  8
DEFAULT
 62
     5
 10
-199.9549579452264
 20
224.7133514009222
 30
0.0
 42
0.1967133408659081
  0
VERTEX
  5
1E8
  8
DEFAULT
 62
     5
 10
-200.1997482608338
 20
225.373073517179
 30
0.0
 42
0.1152480441762887
  0
VERTEX
  5
1E9
  8
DEFAULT
 62
     5
 10
-201.3525266744042
 20
225.8331432000457
 30
0.0
 42
-0.0750101977649389
  0
VERTEX
  5
1EA
  8
DEFAULT
 62
     5
 10
-206.6337758796634
 20
227.5327947857124
 30
0.0
 42
-0.263057537723726
  0
VERTEX
  5
1EB
  8
DEFAULT
 62
     5
 10
-208.1771801674486
 20
230.4807123530852
 30
0.0
 42
-0.2278055359034052
  0
VERTEX
  5
1EC
  8
DEFAULT
 62
     5
 10
-206.842978765314
 20
233.3435583302136
 30
0.0
 42
-0.1789409577799179
  0
VERTEX
  5
1ED
  8
DEFAULT
 62
     5
 10
-202.7066936589671
 20
234.5032804464704
 30
0.0
 42
-0.1478680227513061
  0
VERTEX
  5
1EE
  8
DEFAULT
 62
     5
 10
-198.741415563293
 20
233.6048436484913
 30
0.0
 42
-0.1798681362132197
  0
VERTEX
  5
1EF
  8
DEFAULT
 62
     5
 10
-196.9549579452264
 20
230.9477248909149
 30
0.0
  0
VERTEX
  5
1F0
  8
DEFAULT
 62
     5
 10
-200.1771801674486
 20
230.3921693353593
 30
0.0
 42
0.1762609448243733
  0
VERTEX
  5
1F1
  8
DEFAULT
 62
     5
 10
-200.9653739231178
 20
231.6291487272026
 30
0.0
 42
0.159821467823601
  0
VERTEX
  5
1F2
  8
DEFAULT
 62
     5
 10
-202.621624611893
 20
232.0588360020259
 30
0.0
 42
0.1371855487857589
  0
VERTEX
  5
1F3
  8
DEFAULT
 62
     5
 10
-204.5643320710116
 20
231.6734202360655
 30
0.0
 42
0.2593740206710293
  0
VERTEX
  5
1F4
  8
DEFAULT
 62
     5
 10
-204.9549579452264
 20
230.9633501293371
 30
0.0
 42
0.2456185528239609
  0
VERTEX
  5
1F5
  8
DEFAULT
 62
     5
 10
-204.6129439238807
 20
230.3279339395148
 30
0.0
 42
0.0664798749578567
  0
VERTEX
  5
1F6
  8
DEFAULT
 62
     5
 10
-201.4098183675622
 20
229.3444272467383
 30
0.0
 42
-0.1095214193377465
  0
VERTEX
  5
1F7
  8
DEFAULT
 62
     5
 10
-197.5851657222412
 20
227.7984204479963
 30
0.0
 42
-0.228411495879755
  0
VERTEX
  5
1F8
  8
DEFAULT
 62
     5
 10
-196.5105135007819
 20
225.2237673788136
 30
0.0
 42
-0.2276229810650834
  0
VERTEX
  5
1F9
  8
DEFAULT
 62
     5
 10
-198.0000966751671
 20
222.1300167960037
 30
0.0
 42
-0.1809722242825206
  0
VERTEX
  5
1FA
  8
DEFAULT
 62
     5
 10
-202.4080813822363
 20
220.8366137798038
 30
0.0
 42
-0.1534212868271961
  0
VERTEX
  5
1FB
  8
DEFAULT
 62
     5
 10
-206.6016590294646
 20
221.9130029865889
 30
0.0
 42
-0.1853542620166
  0
SEQEND
  5
1FC
  8
DEFAULT
 62
     5
  0
POLYLINE
  5
1FD
  8
DEFAULT
 62
     5
 66
     1
 10
0.0
 20
0.0
 30
0.0
 70
     1
  0
VERTEX
  5
1FE
  8
DEFAULT
 62
     5
 10
-193.5105135007819
 20
234.1699471131371
 30
0.0
  0
VERTEX
  5
1FF
  8
DEFAULT
 62
     5
 10
-190.2882912785597
 20
234.1699471131371
 30
0.0
  0
VERTEX
  5
200
  8
DEFAULT
 62
     5
 10
-190.2882912785597
 20
232.2741153692852
 30
0.0
 42
-0.1189653659007432
  0
VERTEX
  5
201
  8
DEFAULT
 62
     5
 10
-188.6242279705733
 20
233.8748088070581
 30
0.0
 42
-0.1382105598910295
  0
VERTEX
  5
202
  8
DEFAULT
 62
     5
 10
-186.2969702711252
 20
234.5032804464705
 30
0.0
 42
-0.2273648758850381
  0
VERTEX
  5
203
  8
DEFAULT
 62
     5
 10
-182.5105135007819
 20
232.7176908972049
 30
0.0
 42
-0.1838682188936171
  0
VERTEX
  5
204
  8
DEFAULT
 62
     5
 10
-180.9549579452263
 20
227.7446001823197
 30
0.0
 42
-0.1823656645300059
  0
VERTEX
  5
205
  8
DEFAULT
 62
     5
 10
-182.523533685077
 20
222.6525865848358
 30
0.0
 42
-0.2285594541574875
  0
VERTEX
  5
206
  8
DEFAULT
 62
     5
 10
-186.3247484727647
 20
220.8366137798038
 30
0.0
 42
-0.1163198006807612
  0
VERTEX
  5
207
  8
DEFAULT
 62
     5
 10
-188.2500962513054
 20
221.2619615583445
 30
0.0
 42
-0.0904152380777559
  0
VERTEX
  5
208
  8
DEFAULT
 62
     5
 10
-190.0660690563375
 20
222.7202959513321
 30
0.0
  0
VERTEX
  5
209
  8
DEFAULT
 62
     5
 10
-190.0660690563375
 20
216.1699471131371
 30
0.0
  0
VERTEX
  5
20A
  8
DEFAULT
 62
     5
 10
-193.5105135007819
 20
216.1699471131371
 30
0.0
  0
SEQEND
  5
20B
  8
DEFAULT
 62
     5
  0
POLYLINE
  5
20C
  8
DEFAULT
 62
     5
 66
     1
 10
0.0
 20
0.0
 30
0.0
 70
     1
  0
VERTEX
  5
20D
  8
DEFAULT
 62
     5
 10
-190.0660690563375
 20
227.8886979078778
 30
0.0
 42
0.1662127852120611
  0
VERTEX
  5
20E
  8
DEFAULT
 62
     5
 10
-189.213638209377
 20
224.5744612404482
 30
0.0
 42
0.2404461653497529
  0
VERTEX
  5
20F
  8
DEFAULT
 62
     5
 10
-187.1372490025918
 20
223.5032804464703
 30
0.0
 42
0.241323963442713
  0
VERTEX
  5
210
  8
DEFAULT
 62
     5
 10
-185.1797835261289
 20
224.4867879869704
 30
0.0
 42
0.1627449374921604
  0
VERTEX
  5
211
  8
DEFAULT
 62
     5
 10
-184.3994023896708
 20
227.7133514009222
 30
0.0
 42
0.1661976731381975
  0
VERTEX
  5
212
  8
DEFAULT
 62
     5
 10
-185.2040894525634
 20
230.8218574579062
 30
0.0
 42
0.2412377667960285
  0
VERTEX
  5
213
  8
DEFAULT
 62
     5
 10
-187.1962759856289
 20
231.8366137798037
 30
0.0
 42
0.236742212932169
  0
VERTEX
  5
214
  8
DEFAULT
 62
     5
 10
-189.2500962513054
 20
230.8400860550087
 30
0.0
 42
0.1723447809988863
  0
SEQEND
  5
215
  8
DEFAULT
 62
     5
  0
POLYLINE
  5
216
  8
DEFAULT
 62
     5
 66
     1
 10
0.0
 20
0.0
 30
0.0
 70
     1
  0
VERTEX
  5
217
  8
DEFAULT
 62
     5
 10
-175.7327357230041
 20
230.1699471131371
 30
0.0
  0
VERTEX
  5
218
  8
DEFAULT
 62
     5
 10
-178.8438468341153
 20
230.6143915575815
 30
0.0
 42
-0.1714833175990226
  0
VERTEX
  5
219
  8
DEFAULT
 62
     5
 10
-177.0669362774153
 20
233.550156161737
 30
0.0
 42
-0.1608829132837452
  0
VERTEX
  5
21A
  8
DEFAULT
 62
     5
 10
-173.3212761975597
 20
234.5032804464705
 30
0.0
 42
-0.108836427888096
  0
VERTEX
  5
21B
  8
DEFAULT
 62
     5
 10
-169.9601655103103
 20
233.9572736477284
 30
0.0
 42
-0.1580303644335632
  0
VERTEX
  5
21C
  8
DEFAULT
 62
     5
 10
-168.405478023556
 20
232.570120896442
 30
0.0
 42
-0.1088017057953402
  0
VERTEX
  5
21D
  8
DEFAULT
 62
     5
 10
-167.9549579452264
 20
229.4824484906877
 30
0.0
  0
VERTEX
  5
21E
  8
DEFAULT
 62
     5
 10
-167.9549579452264
 20
225.4546702890482
 30
0.0
 42
0.0514080219695492
  0
VERTEX
  5
21F
  8
DEFAULT
 62
     5
 10
-167.7674576273301
 20
222.9190794681976
 30
0.0
 42
0.06922878642324
  0
VERTEX
  5
220
  8
DEFAULT
 62
     5
 10
-167.0660690563375
 20
221.1699471131371
 30
0.0
  0
VERTEX
  5
221
  8
DEFAULT
 62
     5
 10
-170.5105135007819
 20
221.1699471131371
 30
0.0
  0
VERTEX
  5
222
  8
DEFAULT
 62
     5
 10
-170.8403745589103
 20
222.1768916635469
 30
0.0
  0
VERTEX
  5
223
  8
DEFAULT
 62
     5
 10
-170.9619008001894
 20
222.5779343633766
 30
0.0
 42
-0.0933244186738212
  0
VERTEX
  5
224
  8
DEFAULT
 62
     5
 10
-172.8421106965128
 20
221.2723783839593
 30
0.0
 42
-0.1040133466925573
  0
VERTEX
  5
225
  8
DEFAULT
 62
     5
 10
-174.979262176214
 20
220.8366137798038
 30
0.0
 42
-0.1965430357596614
  0
VERTEX
  5
226
  8
DEFAULT
 62
     5
 10
-178.1346447961881
 20
221.9260240186074
 30
0.0
 42
-0.2154369487651259
  0
VERTEX
  5
227
  8
DEFAULT
 62
     5
 10
-179.2882912785597
 20
224.6803647864753
 30
0.0
 42
-0.1373780248024416
  0
VERTEX
  5
228
  8
DEFAULT
 62
     5
 10
-178.7744021777399
 20
226.645642034426
 30
0.0
 42
-0.1473783213971396
  0
VERTEX
  5
229
  8
DEFAULT
 62
     5
 10
-177.3342972295782
 20
227.9676904733432
 30
0.0
 42
-0.063440493484735
  0
VERTEX
  5
22A
  8
DEFAULT
 62
     5
 10
-174.6632902189054
 20
228.7689061087544
 30
0.0
 42
0.0472009877729144
  0
VERTEX
  5
22B
  8
DEFAULT
 62
     5
 10
-171.3994023896708
 20
229.6143915575815
 30
0.0
  0
VERTEX
  5
22C
  8
DEFAULT
 62
     5
 10
-171.3994023896708
 20
229.9633501293371
 30
0.0
 42
0.207092159965618
  0
VERTEX
  5
22D
  8
DEFAULT
 62
     5
 10
-171.8603392936153
 20
231.4060584361791
 30
0.0
 42
0.1777887432707698
  0
VERTEX
  5
22E
  8
DEFAULT
 62
     5
 10
-173.6007909606634
 20
231.8366137798037
 30
0.0
 42
0.1651091138038641
  0
VERTEX
  5
22F
  8
DEFAULT
 62
     5
 10
-174.9488806158943
 20
231.466822404542
 30
0.0
 42
0.1491587679877398
  0
SEQEND
  5
230
  8
DEFAULT
 62
     5
  0
POLYLINE
  5
231
  8
DEFAULT
 62
     5
 66
     1
 10
0.0
 20
0.0
 30
0.0
 70
     1
  0
VERTEX
  5
232
  8
DEFAULT
 62
     5
 10
-171.3994023896708
 20
227.3921693353593
 30
0.0
 42
-0.0261329476714756
  0
VERTEX
  5
233
  8
DEFAULT
 62
     5
 10
-173.4046099547548
 20
226.8661281190457
 30
0.0
 42
0.0811165779561061
  0
VERTEX
  5
234
  8
DEFAULT
 62
     5
 10
-175.1980121232313
 20
226.2671708188753
 30
0.0
 42
0.2517191883486102
  0
VERTEX
  5
235
  8
DEFAULT
 62
     5
 10
-175.8438468341153
 20
225.0553654222679
 30
0.0
 42
0.2041672574556484
  0
VERTEX
  5
236
  8
DEFAULT
 62
     5
 10
-175.328221595693
 20
223.8071002882852
 30
0.0
 42
0.2097521333282609
  0
VERTEX
  5
237
  8
DEFAULT
 62
     5
 10
-174.0139849282634
 20
223.2810582242482
 30
0.0
 42
0.1670482644845981
  0
VERTEX
  5
238
  8
DEFAULT
 62
     5
 10
-172.3143316471499
 20
223.8921701830827
 30
0.0
 42
0.1651612454991389
  0
VERTEX
  5
239
  8
DEFAULT
 62
     5
 10
-171.5278731813597
 20
225.0310594958333
 30
0.0
 42
0.0593667948163827
  0
VERTEX
  5
23A
  8
DEFAULT
 62
     5
 10
-171.3994023896708
 20
226.7064068505123
 30
0.0
  0
SEQEND
  5
23B
  8
DEFAULT
 62
     5
  0
POLYLINE
  5
23C
  8
DEFAULT
 62
     5
 66
     1
 10
0.0
 20
0.0
 30
0.0
 70
     1
  0
VERTEX
  5
23D
  8
DEFAULT
 62
     5
 10
-153.1771801674486
 20
230.3921693353593
 30
0.0
  0
VERTEX
  5
23E
  8
DEFAULT
 62
     5
 10
-156.6216246118931
 20
229.8366137798037
 30
0.0
 42
0.180996809817543
  0
VERTEX
  5
23F
  8
DEFAULT
 62
     5
 10
-157.390720853935
 20
231.3340104211236
 30
0.0
 42
0.1804760167669786
  0
VERTEX
  5
240
  8
DEFAULT
 62
     5
 10
-158.946277257214
 20
231.8366137798037
 30
0.0
 42
0.2329674834671419
  0
VERTEX
  5
241
  8
DEFAULT
 62
     5
 10
-160.9757907487325
 20
230.9338366378185
 30
0.0
 42
0.1695179555120666
  0
VERTEX
  5
242
  8
DEFAULT
 62
     5
 10
-161.7327357230041
 20
227.9130038343124
 30
0.0
 42
0.1610966817175083
  0
VERTEX
  5
243
  8
DEFAULT
 62
     5
 10
-160.9575613039066
 20
224.5857461348642
 30
0.0
 42
0.2405540491094188
  0
VERTEX
  5
244
  8
DEFAULT
 62
     5
 10
-158.8768317531153
 20
223.6143915575815
 30
0.0
 42
0.1883458441869417
  0
VERTEX
  5
245
  8
DEFAULT
 62
     5
 10
-157.2787416740227
 20
224.1647395480531
 30
0.0
 42
0.1622604489947806
  0
VERTEX
  5
246
  8
DEFAULT
 62
     5
 10
-156.3994023896708
 20
226.058836002026
 30
0.0
  0
VERTEX
  5
247
  8
DEFAULT
 62
     5
 10
-152.9549579452264
 20
225.6143915575815
 30
0.0
 42
-0.1724509721436068
  0
VERTEX
  5
248
  8
DEFAULT
 62
     5
 10
-154.9671100607202
 20
222.0432116113272
 30
0.0
 42
-0.1746967243539285
  0
VERTEX
  5
249
  8
DEFAULT
 62
     5
 10
-158.956692387382
 20
220.8366137798038
 30
0.0
 42
-0.2163976905724325
  0
VERTEX
  5
24A
  8
DEFAULT
 62
     5
 10
-163.4879437119498
 20
222.6465101032272
 30
0.0
 42
-0.1943870566321024
  0
VERTEX
  5
24B
  8
DEFAULT
 62
     5
 10
-165.1771801674486
 20
227.6577949976433
 30
0.0
 42
-0.1945054615972572
  0
VERTEX
  5
24C
  8
DEFAULT
 62
     5
 10
-163.4888117807511
 20
232.699461452379
 30
0.0
 42
-0.2157801631579943
  0
VERTEX
  5
24D
  8
DEFAULT
 62
     5
 10
-158.9219713307795
 20
234.5032804464705
 30
0.0
 42
-0.1599423076957993
  0
VERTEX
  5
24E
  8
DEFAULT
 62
     5
 10
-155.1754431821227
 20
233.4876560557717
 30
0.0
 42
-0.1682635697126464
  0
SEQEND
  5
24F
  8
DEFAULT
 62
     5
  0
POLYLINE
  5
250
  8
DEFAULT
 62
     5
 66
     1
 10
0.0
 20
0.0
 30
0.0
 70
     1
  0
VERTEX
  5
251
  8
DEFAULT
 62
     5
 10
-142.9549579452264
 20
225.2810582242482
 30
0.0
  0
VERTEX
  5
252
  8
DEFAULT
 62
     5
 10
-139.5105135007819
 20
224.8366137798038
 30
0.0
 42
-0.1601948643917513
  0
VERTEX
  5
253
  8
DEFAULT
 62
     5
 10
-141.6042632358683
 20
221.8591835686358
 30
0.0
 42
-0.1590209405814459
  0
VERTEX
  5
254
  8
DEFAULT
 62
     5
 10
-145.185859160014
 20
220.8366137798037
 30
0.0
 42
-0.2510606897924144
  0
VERTEX
  5
255
  8
DEFAULT
 62
     5
 10
-150.2205819120634
 20
223.0657805524359
 30
0.0
 42
-0.1603231689598272
  0
VERTEX
  5
256
  8
DEFAULT
 62
     5
 10
-151.5105135007819
 20
227.5709898129667
 30
0.0
 42
-0.1928988919450618
  0
VERTEX
  5
257
  8
DEFAULT
 62
     5
 10
-149.8099921508671
 20
232.6630034104507
 30
0.0
 42
-0.2186957110499445
  0
VERTEX
  5
258
  8
DEFAULT
 62
     5
 10
-145.5105135007819
 20
234.5032804464704
 30
0.0
 42
-0.2248762650829866
  0
VERTEX
  5
259
  8
DEFAULT
 62
     5
 10
-140.9028738171523
 20
232.5892184100691
 30
0.0
  0
VERTEX
  5
25A
  8
DEFAULT
 62
     5
 10
-140.7991242066345
 20
232.46760159329
 30
0.0
  0
VERTEX
  5
25B
  8
DEFAULT
 62
     5
 10
-140.6988129126448
 20
232.3420090152115
 30
0.0
  0
VERTEX
  5
25C
  8
DEFAULT
 62
     5
 10
-140.6019399351833
 20
232.2124406758338
 30
0.0
  0
VERTEX
  5
25D
  8
DEFAULT
 62
     5
 10
-140.50850527425
 20
232.0788965751568
 30
0.0
  0
VERTEX
  5
25E
  8
DEFAULT
 62
     5
 10
-140.4185089298448
 20
231.9413767131805
 30
0.0
  0
VERTEX
  5
25F
  8
DEFAULT
 62
     5
 10
-140.3319509019679
 20
231.799881089905
 30
0.0
  0
VERTEX
  5
260
  8
DEFAULT
 62
     5
 10
-140.2488311906191
 20
231.6544097053302
 30
0.0
  0
VERTEX
  5
261
  8
DEFAULT
 62
     5
 10
-140.1691497957985
 20
231.504962559456
 30
0.0
  0
VERTEX
  5
262
  8
DEFAULT
 62
     5
 10
-140.0929067175062
 20
231.3515396522826
 30
0.0
  0
VERTEX
  5
263
  8
DEFAULT
 62
     5
 10
-140.0201019557419
 20
231.19414098381
 30
0.0
  0
VERTEX
  5
264
  8
DEFAULT
 62
     5
 10
-139.9507355105059
 20
231.032766554038
 30
0.0
  0
VERTEX
  5
265
  8
DEFAULT
 62
     5
 10
-139.8848073817981
 20
230.8674163629668
 30
0.0
  0
VERTEX
  5
266
  8
DEFAULT
 62
     5
 10
-139.8223175696184
 20
230.6980904105962
 30
0.0
  0
VERTEX
  5
267
  8
DEFAULT
 62
     5
 10
-139.7632660739669
 20
230.5247886969264
 30
0.0
  0
VERTEX
  5
268
  8
DEFAULT
 62
     5
 10
-139.7076528948436
 20
230.3475112219573
 30
0.0
  0
VERTEX
  5
269
  8
DEFAULT
 62
     5
 10
-139.6554780322485
 20
230.166257985689
 30
0.0
  0
VERTEX
  5
26A
  8
DEFAULT
 62
     5
 10
-139.6067414861815
 20
229.9810289881213
 30
0.0
  0
VERTEX
  5
26B
  8
DEFAULT
 62
     5
 10
-139.5614432566428
 20
229.7918242292544
 30
0.0
  0
VERTEX
  5
26C
  8
DEFAULT
 62
     5
 10
-139.5195833436322
 20
229.5986437090882
 30
0.0
  0
VERTEX
  5
26D
  8
DEFAULT
 62
     5
 10
-139.4811617471499
 20
229.4014874276227
 30
0.0
  0
VERTEX
  5
26E
  8
DEFAULT
 62
     5
 10
-139.4461784671957
 20
229.2003553848579
 30
0.0
  0
VERTEX
  5
26F
  8
DEFAULT
 62
     5
 10
-139.4146335037697
 20
228.9952475807938
 30
0.0
  0
VERTEX
  5
270
  8
DEFAULT
 62
     5
 10
-139.3865268568719
 20
228.7861640154305
 30
0.0
  0
VERTEX
  5
271
  8
DEFAULT
 62
     5
 10
-139.3618585265022
 20
228.5731046887678
 30
0.0
  0
VERTEX
  5
272
  8
DEFAULT
 62
     5
 10
-139.3228368153475
 20
228.1350587515448
 30
0.0
  0
VERTEX
  5
273
  8
DEFAULT
 62
     5
 10
-139.2975683703054
 20
227.6811097691245
 30
0.0
  0
VERTEX
  5
274
  8
DEFAULT
 62
     5
 10
-139.2860531913762
 20
227.2112577415071
 30
0.0
  0
VERTEX
  5
275
  8
DEFAULT
 62
     5
 10
-139.2882912785597
 20
226.7255026686926
 30
0.0
  0
VERTEX
  5
276
  8
DEFAULT
 62
     5
 10
-148.0660690563375
 20
226.7255026686926
 30
0.0
 42
0.1907233177561219
  0
VERTEX
  5
277
  8
DEFAULT
 62
     5
 10
-147.2162415680573
 20
224.3513709494247
 30
0.0
 42
0.2135192120775014
  0
VERTEX
  5
278
  8
DEFAULT
 62
     5
 10
-145.1910675728215
 20
223.5032804464705
 30
0.0
 42
0.1657236937101151
  0
VERTEX
  5
279
  8
DEFAULT
 62
     5
 10
-143.8047837380597
 20
223.924287881005
 30
0.0
 42
0.1589948514629265
  0
SEQEND
  5
27A
  8
DEFAULT
 62
     5
  0
POLYLINE
  5
27B
  8
DEFAULT
 62
     5
 66
     1
 10
0.0
 20
0.0
 30
0.0
 70
     1
  0
VERTEX
  5
27C
  8
DEFAULT
 62
     5
 10
-142.7327357230041
 20
228.8366137798037
 30
0.0
 42
0.1931771868552356
  0
VERTEX
  5
27D
  8
DEFAULT
 62
     5
 10
-143.523533685077
 20
231.0718570340445
 30
0.0
 42
0.2094545272840906
  0
VERTEX
  5
27E
  8
DEFAULT
 62
     5
 10
-145.3559989496091
 20
231.8366137798037
 30
0.0
 42
0.217515125702245
  0
VERTEX
  5
27F
  8
DEFAULT
 62
     5
 10
-147.2639853521251
 20
231.0293233582309
 30
0.0
 42
0.1974850402976741
  0
VERTEX
  5
280
  8
DEFAULT
 62
     5
 10
-148.0053042402511
 20
228.8366137798037
 30
0.0
  0
SEQEND
  5
281
  8
DEFAULT
 62
     5
  0
POLYLINE
  5
282
  8
DEFAULT
 62
     5
 66
     1
 10
0.0
 20
0.0
 30
0.0
 70
     1
  0
VERTEX
  5
283
  8
DEFAULT
 62
     5
 10
-136.7327357230041
 20
221.1699471131371
 30
0.0
  0
VERTEX
  5
284
  8
DEFAULT
 62
     5
 10
-136.7327357230041
 20
224.6143915575815
 30
0.0
  0
VERTEX
  5
285
  8
DEFAULT
 62
     5
 10
-133.2882912785597
 20
224.6143915575815
 30
0.0
  0
VERTEX
  5
286
  8
DEFAULT
 62
     5
 10
-133.2882912785597
 20
221.1699471131371
 30
0.0
  0
SEQEND
  5
287
  8
DEFAULT
 62
     5
  0
POLYLINE
  5
288
  8
DEFAULT
 62
     5
 66
     1
 10
0.0
 20
0.0
 30
0.0
 70
     1
  0
VERTEX
  5
289
  8
DEFAULT
 62
     5
 10
-118.5105135007819
 20
230.3921693353593
 30
0.0
  0
VERTEX
  5
28A
  8
DEFAULT
 62
     5
 10
-121.9549579452264
 20
229.8366137798037
 30
0.0
 42
0.180996809817542
  0
VERTEX
  5
28B
  8
DEFAULT
 62
     5
 10
-122.7240541872684
 20
231.3340104211235
 30
0.0
 42
0.180476016766968
  0
VERTEX
  5
28C
  8
DEFAULT
 62
     5
 10
-124.2796105905474
 20
231.8366137798037
 30
0.0
 42
0.2329674834671273
  0
VERTEX
  5
28D
  8
DEFAULT
 62
     5
 10
-126.3091240820659
 20
230.9338366378185
 30
0.0
 42
0.1695179555120485
  0
VERTEX
  5
28E
  8
DEFAULT
 62
     5
 10
-127.0660690563375
 20
227.9130038343124
 30
0.0
 42
0.1610966817174925
  0
VERTEX
  5
28F
  8
DEFAULT
 62
     5
 10
-126.29089463724
 20
224.5857461348642
 30
0.0
 42
0.2405540491094068
  0
VERTEX
  5
290
  8
DEFAULT
 62
     5
 10
-124.2101650864486
 20
223.6143915575815
 30
0.0
 42
0.1883458441869579
  0
VERTEX
  5
291
  8
DEFAULT
 62
     5
 10
-122.612075007356
 20
224.1647395480531
 30
0.0
 42
0.1622604489947804
  0
VERTEX
  5
292
  8
DEFAULT
 62
     5
 10
-121.7327357230041
 20
226.058836002026
 30
0.0
  0
VERTEX
  5
293
  8
DEFAULT
 62
     5
 10
-118.2882912785597
 20
225.6143915575815
 30
0.0
 42
-0.1724509721436135
  0
VERTEX
  5
294
  8
DEFAULT
 62
     5
 10
-120.3004433940535
 20
222.0432116113272
 30
0.0
 42
-0.174696724353934
  0
VERTEX
  5
295
  8
DEFAULT
 62
     5
 10
-124.2900257207153
 20
220.8366137798038
 30
0.0
 42
-0.2163976905724379
  0
VERTEX
  5
296
  8
DEFAULT
 62
     5
 10
-128.8212770452831
 20
222.6465101032272
 30
0.0
 42
-0.1943870566321057
  0
VERTEX
  5
297
  8
DEFAULT
 62
     5
 10
-130.5105135007819
 20
227.6577949976433
 30
0.0
 42
-0.1945054615972479
  0
VERTEX
  5
298
  8
DEFAULT
 62
     5
 10
-128.8221451140844
 20
232.699461452379
 30
0.0
 42
-0.2157801631579868
  0
VERTEX
  5
299
  8
DEFAULT
 62
     5
 10
-124.2553046641128
 20
234.5032804464704
 30
0.0
 42
-0.1599423076958016
  0
VERTEX
  5
29A
  8
DEFAULT
 62
     5
 10
-120.508776515456
 20
233.4876560557716
 30
0.0
 42
-0.1682635697126408
  0
SEQEND
  5
29B
  8
DEFAULT
 62
     5
  0
POLYLINE
  5
29C
  8
DEFAULT
 62
     5
 66
     1
 10
0.0
 20
0.0
 30
0.0
 70
     1
  0
VERTEX
  5
29D
  8
DEFAULT
 62
     5
 10
-116.6216246118931
 20
227.8539751558284
 30
0.0
 42
-0.1222574291832695
  0
VERTEX
  5
29E
  8
DEFAULT
 62
     5
 10
-115.7822147969511
 20
231.1907816120901
 30
0.0
 42
-0.150919920783596
  0
VERTEX
  5
29F
  8
DEFAULT
 62
     5
 10
-113.4037418859536
 20
233.6534546536371
 30
0.0
 42
-0.128724606714414
  0
VERTEX
  5
2A0
  8
DEFAULT
 62
     5
 10
-109.9671092129967
 20
234.5032804464705
 30
0.0
 42
-0.210927407912845
  0
VERTEX
  5
2A1
  8
DEFAULT
 62
     5
 10
-105.1615549290264
 20
232.5761973780506
 30
0.0
 42
-0.2026212639801829
  0
VERTEX
  5
2A2
  8
DEFAULT
 62
     5
 10
-103.2882912785597
 20
227.7064068505123
 30
0.0
 42
-0.2022295973323271
  0
VERTEX
  5
2A3
  8
DEFAULT
 62
     5
 10
-105.1797835261288
 20
222.7880027746581
 30
0.0
 42
-0.2115506096600813
  0
VERTEX
  5
2A4
  8
DEFAULT
 62
     5
 10
-109.9428049820091
 20
220.8366137798038
 30
0.0
 42
-0.1188796278362306
  0
VERTEX
  5
2A5
  8
DEFAULT
 62
     5
 10
-113.3308258020967
 20
221.6491143096309
 30
0.0
 42
-0.1582355798320358
  0
VERTEX
  5
2A6
  8
DEFAULT
 62
     5
 10
-115.7822147969511
 20
224.0319275646346
 30
0.0
 42
-0.1239053267140384
  0
SEQEND
  5
2A7
  8
DEFAULT
 62
     5
  0
POLYLINE
  5
2A8
  8
DEFAULT
 62
     5
 66
     1
 10
0.0
 20
0.0
 30
0.0
 70
     1
  0
VERTEX
  5
2A9
  8
DEFAULT
 62
     5
 10
-113.1771801674486
 20
227.6699479608605
 30
0.0
 42
0.1807696907208269
  0
VERTEX
  5
2AA
  8
DEFAULT
 62
     5
 10
-112.2778744529449
 20
224.6595311352457
 30
0.0
 42
0.2292871242715419
  0
VERTEX
  5
2AB
  8
DEFAULT
 62
     5
 10
-110.06086064353
 20
223.6143915575815
 30
0.0
 42
0.2303193461660622
  0
VERTEX
  5
2AC
  8
DEFAULT
 62
     5
 10
-107.848186330398
 20
224.6595311352457
 30
0.0
 42
0.1794408075869627
  0
VERTEX
  5
2AD
  8
DEFAULT
 62
     5
 10
-106.9549579452264
 20
227.6942538872951
 30
0.0
 42
0.1800932450793849
  0
VERTEX
  5
2AE
  8
DEFAULT
 62
     5
 10
-107.848186330398
 20
230.6803639387518
 30
0.0
 42
0.2303192267206008
  0
VERTEX
  5
2AF
  8
DEFAULT
 62
     5
 10
-110.06086064353
 20
231.7255026686926
 30
0.0
 42
0.2292870050707584
  0
VERTEX
  5
2B0
  8
DEFAULT
 62
     5
 10
-112.2778744529448
 20
230.6803639387519
 30
0.0
 42
0.1807697890868558
  0
SEQEND
  5
2B1
  8
DEFAULT
 62
     5
  0
POLYLINE
  5
2B2
  8
DEFAULT
 62
     5
 66
     1
 10
0.0
 20
0.0
 30
0.0
 70
     1
  0
VERTEX
  5
2B3
  8
DEFAULT
 62
     5
 10
-100.9549579452264
 20
234.1699471131371
 30
0.0
  0
VERTEX
  5
2B4
  8
DEFAULT
 62
     5
 10
-97.84384683411528
 20
234.1699471131371
 30
0.0
  0
VERTEX
  5
2B5
  8
DEFAULT
 62
     5
 10
-97.84384683411528
 20
232.4077945737815
 30
0.0
 42
-0.2373869490350215
  0
VERTEX
  5
2B6
  8
DEFAULT
 62
     5
 10
-93.80044339405353
 20
234.5032804464704
 30
0.0
 42
-0.1315120310734641
  0
VERTEX
  5
2B7
  8
DEFAULT
 62
     5
 10
-91.6398532089955
 20
233.9824476429642
 30
0.0
 42
-0.1393853272245081
  0
VERTEX
  5
2B8
  8
DEFAULT
 62
     5
 10
-90.1372490025918
 20
232.4077945737814
 30
0.0
 42
-0.1018343532165948
  0
VERTEX
  5
2B9
  8
DEFAULT
 62
     5
 10
-88.29870725645108
 20
233.9824476429643
 30
0.0
 42
-0.1239296679571096
  0
VERTEX
  5
2BA
  8
DEFAULT
 62
     5
 10
-86.19280371042393
 20
234.5032804464705
 30
0.0
 42
-0.1355305589142082
  0
VERTEX
  5
2BB
  8
DEFAULT
 62
     5
 10
-83.78134588042641
 20
233.9199475369988
 30
0.0
 42
-0.1623661969580811
  0
VERTEX
  5
2BC
  8
DEFAULT
 62
     5
 10
-82.30738709673994
 20
232.2081421403914
 30
0.0
 42
-0.0915442810314488
  0
VERTEX
  5
2BD
  8
DEFAULT
 62
     5
 10
-81.95495794522635
 20
229.5067527216754
 30
0.0
  0
VERTEX
  5
2BE
  8
DEFAULT
 62
     5
 10
-81.95495794522637
 20
221.1699471131371
 30
0.0
  0
VERTEX
  5
2BF
  8
DEFAULT
 62
     5
 10
-85.39940238967083
 20
221.1699471131371
 30
0.0
  0
VERTEX
  5
2C0
  8
DEFAULT
 62
     5
 10
-85.39940238967083
 20
228.6039764274136
 30
0.0
 42
0.114147013791073
  0
VERTEX
  5
2C1
  8
DEFAULT
 62
     5
 10
-85.750095403582
 20
231.1022394420876
 30
0.0
 42
0.2721000606533845
  0
VERTEX
  5
2C2
  8
DEFAULT
 62
     5
 10
-87.20322053603874
 20
231.8366137798037
 30
0.0
 42
0.1575639071466365
  0
VERTEX
  5
2C3
  8
DEFAULT
 62
     5
 10
-88.54610347390908
 20
231.3956416105643
 30
0.0
 42
0.1657627374474086
  0
VERTEX
  5
2C4
  8
DEFAULT
 62
     5
 10
-89.45408987642509
 20
230.1039755796901
 30
0.0
 42
0.0723437487255011
  0
VERTEX
  5
2C5
  8
DEFAULT
 62
     5
 10
-89.73273572300414
 20
227.4164752617939
 30
0.0
  0
VERTEX
  5
2C6
  8
DEFAULT
 62
     5
 10
-89.73273572300414
 20
221.1699471131371
 30
0.0
  0
VERTEX
  5
2C7
  8
DEFAULT
 62
     5
 10
-93.1771801674486
 20
221.1699471131371
 30
0.0
  0
VERTEX
  5
2C8
  8
DEFAULT
 62
     5
 10
-93.17718016744863
 20
228.2966834626704
 30
0.0
 42
0.0609892367974982
  0
VERTEX
  5
2C9
  8
DEFAULT
 62
     5
 10
-93.35686701841031
 20
230.7472043887234
 30
0.0
 42
0.1633931196985564
  0
VERTEX
  5
2CA
  8
DEFAULT
 62
     5
 10
-93.91502593264615
 20
231.5675166900383
 30
0.0
 42
0.1561218014296967
  0
VERTEX
  5
2CB
  8
DEFAULT
 62
     5
 10
-94.9410688444066
 20
231.8366137798037
 30
0.0
 42
0.1551837175468132
  0
VERTEX
  5
2CC
  8
DEFAULT
 62
     5
 10
-96.34645019279552
 20
231.4077945737815
 30
0.0
 42
0.1670025847935571
  0
VERTEX
  5
2CD
  8
DEFAULT
 62
     5
 10
-97.24054749449184
 20
230.1708160296618
 30
0.0
 42
0.0722698594962405
  0
VERTEX
  5
2CE
  8
DEFAULT
 62
     5
 10
-97.51051350078191
 20
227.4893930410976
 30
0.0
  0
VERTEX
  5
2CF
  8
DEFAULT
 62
     5
 10
-97.51051350078191
 20
221.1699471131371
 30
0.0
  0
VERTEX
  5
2D0
  8
DEFAULT
 62
     5
 10
-100.9549579452264
 20
221.1699471131371
 30
0.0
  0
SEQEND
  5
2D1
  8
DEFAULT
 62
     5
  0
POLYLINE
  5
2D2
  8
DEFAULT
 62
     5
 66
     1
 10
0.0
 20
0.0
 30
0.0
 70
     1
  0
VERTEX
  5
2D3
  8
DEFAULT
 62
     5
 10
-379.9549579452263
 20
194.016095951128
 30
0.0
  0
VERTEX
  5
2D4
  8
DEFAULT
 62
     5
 10
-376.5105135007819
 20
192.9049848400169
 30
0.0
 42
-0.1675828542376482
  0
VERTEX
  5
2D5
  8
DEFAULT
 62
     5
 10
-379.2032205360388
 20
188.5499506343762
 30
0.0
 42
-0.1661937582504578
  0
VERTEX
  5
2D6
  8
DEFAULT
 62
     5
 10
-383.982734451419
 20
187.1272070622391
 30
0.0
 42
-0.2153191849994166
  0
VERTEX
  5
2D7
  8
DEFAULT
 62
     5
 10
-389.8707561192301
 20
189.5690481480032
 30
0.0
 42
-0.1965904895388744
  0
VERTEX
  5
2D8
  8
DEFAULT
 62
     5
 10
-392.1771801674486
 20
196.24526272376
 30
0.0
 42
-0.1937029714982915
  0
VERTEX
  5
2D9
  8
DEFAULT
 62
     5
 10
-389.8672838440251
 20
203.2044643378256
 30
0.0
 42
-0.2169724536664509
  0
VERTEX
  5
2DA
  8
DEFAULT
 62
     5
 10
-383.7952349812461
 20
205.6827626177947
 30
0.0
 42
-0.1976451736485172
  0
VERTEX
  5
2DB
  8
DEFAULT
 62
     5
 10
-378.4549570975029
 20
203.746999709086
 30
0.0
 42
-0.1363020021739196
  0
VERTEX
  5
2DC
  8
DEFAULT
 62
     5
 10
-376.6216246118931
 20
200.4605403955724
 30
0.0
  0
VERTEX
  5
2DD
  8
DEFAULT
 62
     5
 10
-380.0660690563375
 20
199.5716515066835
 30
0.0
 42
0.1763799485826958
  0
VERTEX
  5
2DE
  8
DEFAULT
 62
     5
 10
-381.4228393995807
 20
201.7669644437909
 30
0.0
 42
0.1713653637081462
  0
VERTEX
  5
2DF
  8
DEFAULT
 62
     5
 10
-383.9323881563943
 20
202.5716515066835
 30
0.0
 42
0.2243464100348594
  0
VERTEX
  5
2E0
  8
DEFAULT
 62
     5
 10
-387.2405474944918
 20
201.1428323006613
 30
0.0
  0
VERTEX
  5
2E1
  8
DEFAULT
 62
     5
 10
-387.3186801687069
 20
201.0518017709613
 30
0.0
  0
VERTEX
  5
2E2
  8
DEFAULT
 62
     5
 10
-387.394332440566
 20
200.9573125826142
 30
0.0
  0
VERTEX
  5
2E3
  8
DEFAULT
 62
     5
 10
-387.467504310069
 20
200.8593647356197
 30
0.0
  0
VERTEX
  5
2E4
  8
DEFAULT
 62
     5
 10
-387.5381957772161
 20
200.7579582299782
 30
0.0
  0
VERTEX
  5
2E5
  8
DEFAULT
 62
     5
 10
-387.6064068420071
 20
200.6530930656893
 30
0.0
  0
VERTEX
  5
2E6
  8
DEFAULT
 62
     5
 10
-387.672137504442
 20
200.5447692427533
 30
0.0
  0
VERTEX
  5
2E7
  8
DEFAULT
 62
     5
 10
-387.7353877645209
 20
200.4329867611701
 30
0.0
  0
VERTEX
  5
2E8
  8
DEFAULT
 62
     5
 10
-387.7961576222438
 20
200.3177456209397
 30
0.0
  0
VERTEX
  5
2E9
  8
DEFAULT
 62
     5
 10
-387.8544470776106
 20
200.1990458220621
 30
0.0
  0
VERTEX
  5
2EA
  8
DEFAULT
 62
     5
 10
-387.9102561306214
 20
200.0768873645373
 30
0.0
  0
VERTEX
  5
2EB
  8
DEFAULT
 62
     5
 10
-387.9635847812762
 20
199.9512702483652
 30
0.0
  0
VERTEX
  5
2EC
  8
DEFAULT
 62
     5
 10
-388.0144330295748
 20
199.822194473546
 30
0.0
  0
VERTEX
  5
2ED
  8
DEFAULT
 62
     5
 10
-388.0628008755175
 20
199.6896600400796
 30
0.0
  0
VERTEX
  5
2EE
  8
DEFAULT
 62
     5
 10
-388.1086883191041
 20
199.553666947966
 30
0.0
  0
VERTEX
  5
2EF
  8
DEFAULT
 62
     5
 10
-388.1520953603348
 20
199.4142151972052
 30
0.0
  0
VERTEX
  5
2F0
  8
DEFAULT
 62
     5
 10
-388.1930219992093
 20
199.2713047877971
 30
0.0
  0
VERTEX
  5
2F1
  8
DEFAULT
 62
     5
 10
-388.2314682357279
 20
199.1249357197419
 30
0.0
  0
VERTEX
  5
2F2
  8
DEFAULT
 62
     5
 10
-388.2674340698904
 20
198.9751079930394
 30
0.0
  0
VERTEX
  5
2F3
  8
DEFAULT
 62
     5
 10
-388.3009195016969
 20
198.8218216076898
 30
0.0
  0
VERTEX
  5
2F4
  8
DEFAULT
 62
     5
 10
-388.3319245311473
 20
198.6650765636929
 30
0.0
  0
VERTEX
  5
2F5
  8
DEFAULT
 62
     5
 10
-388.3604491582417
 20
198.5048728610489
 30
0.0
  0
VERTEX
  5
2F6
  8
DEFAULT
 62
     5
 10
-388.3864933829801
 20
198.3412104997576
 30
0.0
  0
VERTEX
  5
2F7
  8
DEFAULT
 62
     5
 10
-388.4311406253887
 20
198.0035098012335
 30
0.0
  0
VERTEX
  5
2F8
  8
DEFAULT
 62
     5
 10
-388.4658662583732
 20
197.6519744681206
 30
0.0
  0
VERTEX
  5
2F9
  8
DEFAULT
 62
     5
 10
-388.4906702819336
 20
197.2866045004188
 30
0.0
  0
VERTEX
  5
2FA
  8
DEFAULT
 62
     5
 10
-388.5055526960698
 20
196.9073998981283
 30
0.0
  0
VERTEX
  5
2FB
  8
DEFAULT
 62
     5
 10
-388.5105135007819
 20
196.5143606612489
 30
0.0
  0
VERTEX
  5
2FC
  8
DEFAULT
 62
     5
 10
-388.50563407752
 20
196.0977279929281
 30
0.0
  0
VERTEX
  5
2FD
  8
DEFAULT
 62
     5
 10
-388.4909958077341
 20
195.696354101459
 30
0.0
  0
VERTEX
  5
2FE
  8
DEFAULT
 62
     5
 10
-388.4665986914242
 20
195.3102389868415
 30
0.0
  0
VERTEX
  5
2FF
  8
DEFAULT
 62
     5
 10
-388.4324427285906
 20
194.9393826490756
 30
0.0
  0
VERTEX
  5
300
  8
DEFAULT
 62
     5
 10
-388.388527919233
 20
194.5837850881614
 30
0.0
  0
VERTEX
  5
301
  8
DEFAULT
 62
     5
 10
-388.3348542633515
 20
194.2434463040988
 30
0.0
  0
VERTEX
  5
302
  8
DEFAULT
 62
     5
 10
-388.3043578679643
 20
194.0789989533869
 30
0.0
  0
VERTEX
  5
303
  8
DEFAULT
 62
     5
 10
-388.2714217609461
 20
193.9183662968879
 30
0.0
  0
VERTEX
  5
304
  8
DEFAULT
 62
     5
 10
-388.2360459422969
 20
193.7615483346017
 30
0.0
  0
VERTEX
  5
305
  8
DEFAULT
 62
     5
 10
-388.1982304120168
 20
193.6085450665286
 30
0.0
  0
VERTEX
  5
306
  8
DEFAULT
 62
     5
 10
-388.1579751701056
 20
193.4593564926683
 30
0.0
  0
VERTEX
  5
307
  8
DEFAULT
 62
     5
 10
-388.1152802165635
 20
193.3139826130209
 30
0.0
  0
VERTEX
  5
308
  8
DEFAULT
 62
     5
 10
-388.0701455513905
 20
193.1724234275864
 30
0.0
  0
VERTEX
  5
309
  8
DEFAULT
 62
     5
 10
-388.0225711745864
 20
193.0346789363649
 30
0.0
  0
VERTEX
  5
30A
  8
DEFAULT
 62
     5
 10
-387.9725570861514
 20
192.9007491393562
 30
0.0
  0
VERTEX
  5
30B
  8
DEFAULT
 62
     5
 10
-387.9201032860854
 20
192.7706340365605
 30
0.0
  0
VERTEX
  5
30C
  8
DEFAULT
 62
     5
 10
-387.8652097743883
 20
192.6443336279777
 30
0.0
  0
VERTEX
  5
30D
  8
DEFAULT
 62
     5
 10
-387.8078765510604
 20
192.5218479136078
 30
0.0
  0
VERTEX
  5
30E
  8
DEFAULT
 62
     5
 10
-387.7481036161015
 20
192.4031768934507
 30
0.0
  0
VERTEX
  5
30F
  8
DEFAULT
 62
     5
 10
-387.6858909695115
 20
192.2883205675066
 30
0.0
  0
VERTEX
  5
310
  8
DEFAULT
 62
     5
 10
-387.6212386112906
 20
192.1772789357755
 30
0.0
  0
VERTEX
  5
311
  8
DEFAULT
 62
     5
 10
-387.5541465414387
 20
192.0700519982572
 30
0.0
  0
VERTEX
  5
312
  8
DEFAULT
 62
     5
 10
-387.4846147599559
 20
191.9666397549518
 30
0.0
  0
VERTEX
  5
313
  8
DEFAULT
 62
     5
 10
-387.412643266842
 20
191.8670422058593
 30
0.0
  0
VERTEX
  5
314
  8
DEFAULT
 62
     5
 10
-387.3757426284234
 20
191.8186739416429
 30
0.0
  0
VERTEX
  5
315
  8
DEFAULT
 62
     5
 10
-387.3382320620972
 20
191.7712593509798
 30
0.0
  0
VERTEX
  5
316
  8
DEFAULT
 62
     5
 10
-387.3001115678632
 20
191.7247984338699
 30
0.0
  0
VERTEX
  5
317
  8
DEFAULT
 62
     5
 10
-387.2613811457214
 20
191.6792911903132
 30
0.0
 42
0.2281724803033831
  0
VERTEX
  5
318
  8
DEFAULT
 62
     5
 10
-384.0139849282634
 20
190.2383181733503
 30
0.0
 42
0.1850882652803172
  0
VERTEX
  5
319
  8
DEFAULT
 62
     5
 10
-381.4783941074127
 20
191.1497768510712
 30
0.0
 42
0.1585189073719955
  0
SEQEND
  5
31A
  8
DEFAULT
 62
     5
  0
POLYLINE
  5
31B
  8
DEFAULT
 62
     5
 66
     1
 10
0.0
 20
0.0
 30
0.0
 70
     1
  0
VERTEX
  5
31C
  8
DEFAULT
 62
     5
 10
-374.2882912785597
 20
194.1445684382638
 30
0.0
 42
-0.1222574291832737
  0
VERTEX
  5
31D
  8
DEFAULT
 62
     5
 10
-373.4488814636176
 20
197.4813748945254
 30
0.0
 42
-0.1509199207835992
  0
VERTEX
  5
31E
  8
DEFAULT
 62
     5
 10
-371.0704085526202
 20
199.9440479360724
 30
0.0
 42
-0.1287246067143873
  0
VERTEX
  5
31F
  8
DEFAULT
 62
     5
 10
-367.6337758796634
 20
200.7938737289058
 30
0.0
 42
-0.2109274079128346
  0
VERTEX
  5
320
  8
DEFAULT
 62
     5
 10
-362.8282215956931
 20
198.866790660486
 30
0.0
 42
-0.2026212639801815
  0
VERTEX
  5
321
  8
DEFAULT
 62
     5
 10
-360.9549579452263
 20
193.9970001329477
 30
0.0
 42
-0.2022295973323336
  0
VERTEX
  5
322
  8
DEFAULT
 62
     5
 10
-362.8464501927954
 20
189.0785960570934
 30
0.0
 42
-0.2115506096600899
  0
VERTEX
  5
323
  8
DEFAULT
 62
     5
 10
-367.6094716486757
 20
187.1272070622392
 30
0.0
 42
-0.1188796278362446
  0
VERTEX
  5
324
  8
DEFAULT
 62
     5
 10
-370.9974924687634
 20
187.9397075920662
 30
0.0
 42
-0.158235579832017
  0
VERTEX
  5
325
  8
DEFAULT
 62
     5
 10
-373.4488814636177
 20
190.3225208470699
 30
0.0
 42
-0.1239053267140384
  0
SEQEND
  5
326
  8
DEFAULT
 62
     5
  0
POLYLINE
  5
327
  8
DEFAULT
 62
     5
 66
     1
 10
0.0
 20
0.0
 30
0.0
 70
     1
  0
VERTEX
  5
328
  8
DEFAULT
 62
     5
 10
-370.8438468341153
 20
193.9605412432958
 30
0.0
 42
0.1807696907208261
  0
VERTEX
  5
329
  8
DEFAULT
 62
     5
 10
-369.9445411196115
 20
190.9501244176811
 30
0.0
 42
0.2292871242715607
  0
VERTEX
  5
32A
  8
DEFAULT
 62
     5
 10
-367.7275273101967
 20
189.9049848400168
 30
0.0
 42
0.2303193461660662
  0
VERTEX
  5
32B
  8
DEFAULT
 62
     5
 10
-365.5148529970646
 20
190.9501244176811
 30
0.0
 42
0.1794408075869711
  0
VERTEX
  5
32C
  8
DEFAULT
 62
     5
 10
-364.621624611893
 20
193.9848471697304
 30
0.0
 42
0.180093245079381
  0
VERTEX
  5
32D
  8
DEFAULT
 62
     5
 10
-365.5148529970646
 20
196.9709572211872
 30
0.0
 42
0.23031922672059
  0
VERTEX
  5
32E
  8
DEFAULT
 62
     5
 10
-367.7275273101967
 20
198.016095951128
 30
0.0
 42
0.229287005070776
  0
VERTEX
  5
32F
  8
DEFAULT
 62
     5
 10
-369.9445411196116
 20
196.9709572211873
 30
0.0
 42
0.1807697890868472
  0
SEQEND
  5
330
  8
DEFAULT
 62
     5
  0
POLYLINE
  5
331
  8
DEFAULT
 62
     5
 66
     1
 10
0.0
 20
0.0
 30
0.0
 70
     1
  0
VERTEX
  5
332
  8
DEFAULT
 62
     5
 10
-358.2882912785597
 20
187.4605403955724
 30
0.0
  0
VERTEX
  5
333
  8
DEFAULT
 62
     5
 10
-358.2882912785597
 20
205.3494292844613
 30
0.0
  0
VERTEX
  5
334
  8
DEFAULT
 62
     5
 10
-354.8438468341153
 20
205.3494292844613
 30
0.0
  0
VERTEX
  5
335
  8
DEFAULT
 62
     5
 10
-354.8438468341153
 20
187.4605403955724
 30
0.0
  0
SEQEND
  5
336
  8
DEFAULT
 62
     5
  0
POLYLINE
  5
337
  8
DEFAULT
 62
     5
 66
     1
 10
0.0
 20
0.0
 30
0.0
 70
     1
  0
VERTEX
  5
338
  8
DEFAULT
 62
     5
 10
-351.3994023896708
 20
187.4605403955724
 30
0.0
  0
VERTEX
  5
339
  8
DEFAULT
 62
     5
 10
-351.3994023896708
 20
205.3494292844613
 30
0.0
  0
VERTEX
  5
33A
  8
DEFAULT
 62
     5
 10
-347.9549579452263
 20
205.3494292844613
 30
0.0
  0
VERTEX
  5
33B
  8
DEFAULT
 62
     5
 10
-347.9549579452263
 20
187.4605403955724
 30
0.0
  0
SEQEND
  5
33C
  8
DEFAULT
 62
     5
  0
POLYLINE
  5
33D
  8
DEFAULT
 62
     5
 66
     1
 10
0.0
 20
0.0
 30
0.0
 70
     1
  0
VERTEX
  5
33E
  8
DEFAULT
 62
     5
 10
-341.9549579452263
 20
196.4605403955724
 30
0.0
  0
VERTEX
  5
33F
  8
DEFAULT
 62
     5
 10
-345.0660690563375
 20
196.9049848400169
 30
0.0
 42
-0.1714833175990378
  0
VERTEX
  5
340
  8
DEFAULT
 62
     5
 10
-343.2891584996375
 20
199.8407494441724
 30
0.0
 42
-0.1608829132837412
  0
VERTEX
  5
341
  8
DEFAULT
 62
     5
 10
-339.5434984197819
 20
200.7938737289057
 30
0.0
 42
-0.1088364278880917
  0
VERTEX
  5
342
  8
DEFAULT
 62
     5
 10
-336.1823877325326
 20
200.2478669301638
 30
0.0
 42
-0.1580303644335397
  0
VERTEX
  5
343
  8
DEFAULT
 62
     5
 10
-334.6277002457783
 20
198.8607141788773
 30
0.0
 42
-0.1088017057953479
  0
VERTEX
  5
344
  8
DEFAULT
 62
     5
 10
-334.1771801674486
 20
195.773041773123
 30
0.0
  0
VERTEX
  5
345
  8
DEFAULT
 62
     5
 10
-334.1771801674486
 20
191.7452635714835
 30
0.0
 42
0.0514080219695433
  0
VERTEX
  5
346
  8
DEFAULT
 62
     5
 10
-333.9896798495523
 20
189.2096727506329
 30
0.0
 42
0.0692287864232465
  0
VERTEX
  5
347
  8
DEFAULT
 62
     5
 10
-333.2882912785597
 20
187.4605403955724
 30
0.0
  0
VERTEX
  5
348
  8
DEFAULT
 62
     5
 10
-336.7327357230041
 20
187.4605403955724
 30
0.0
  0
VERTEX
  5
349
  8
DEFAULT
 62
     5
 10
-337.0625967811325
 20
188.4674849459823
 30
0.0
  0
VERTEX
  5
34A
  8
DEFAULT
 62
     5
 10
-337.1841230224115
 20
188.8685276458119
 30
0.0
 42
-0.0933244186738258
  0
VERTEX
  5
34B
  8
DEFAULT
 62
     5
 10
-339.064332918735
 20
187.5629716663946
 30
0.0
 42
-0.1040133466925672
  0
VERTEX
  5
34C
  8
DEFAULT
 62
     5
 10
-341.2014843984363
 20
187.1272070622391
 30
0.0
 42
-0.1965430357596427
  0
VERTEX
  5
34D
  8
DEFAULT
 62
     5
 10
-344.3568670184102
 20
188.2166173010428
 30
0.0
 42
-0.2154369487651412
  0
VERTEX
  5
34E
  8
DEFAULT
 62
     5
 10
-345.5105135007818
 20
190.9709580689106
 30
0.0
 42
-0.1373780248024189
  0
VERTEX
  5
34F
  8
DEFAULT
 62
     5
 10
-344.9966243999622
 20
192.9362353168613
 30
0.0
 42
-0.1473783213971368
  0
VERTEX
  5
350
  8
DEFAULT
 62
     5
 10
-343.5565194518005
 20
194.2582837557785
 30
0.0
 42
-0.0634404934847336
  0
VERTEX
  5
351
  8
DEFAULT
 62
     5
 10
-340.8855124411276
 20
195.0594993911897
 30
0.0
 42
0.0472009877729185
  0
VERTEX
  5
352
  8
DEFAULT
 62
     5
 10
-337.621624611893
 20
195.9049848400169
 30
0.0
  0
VERTEX
  5
353
  8
DEFAULT
 62
     5
 10
-337.621624611893
 20
196.2539434117724
 30
0.0
 42
0.2070921599656304
  0
VERTEX
  5
354
  8
DEFAULT
 62
     5
 10
-338.0825615158375
 20
197.6966517186144
 30
0.0
 42
0.1777887432707675
  0
VERTEX
  5
355
  8
DEFAULT
 62
     5
 10
-339.8230131828856
 20
198.1272070622391
 30
0.0
 42
0.1651091138039324
  0
VERTEX
  5
356
  8
DEFAULT
 62
     5
 10
-341.1711028381165
 20
197.7574156869774
 30
0.0
 42
0.1491587679877729
  0
SEQEND
  5
357
  8
DEFAULT
 62
     5
  0
POLYLINE
  5
358
  8
DEFAULT
 62
     5
 66
     1
 10
0.0
 20
0.0
 30
0.0
 70
     1
  0
VERTEX
  5
359
  8
DEFAULT
 62
     5
 10
-337.621624611893
 20
193.6827626177947
 30
0.0
 42
-0.0261329476715278
  0
VERTEX
  5
35A
  8
DEFAULT
 62
     5
 10
-339.626832176977
 20
193.156721401481
 30
0.0
 42
0.0811165779561221
  0
VERTEX
  5
35B
  8
DEFAULT
 62
     5
 10
-341.4202343454535
 20
192.5577641013107
 30
0.0
 42
0.2517191883486388
  0
VERTEX
  5
35C
  8
DEFAULT
 62
     5
 10
-342.0660690563375
 20
191.3459587047033
 30
0.0
 42
0.2041672574556291
  0
VERTEX
  5
35D
  8
DEFAULT
 62
     5
 10
-341.5504438179153
 20
190.0976935707206
 30
0.0
 42
0.2097521333283129
  0
VERTEX
  5
35E
  8
DEFAULT
 62
     5
 10
-340.2362071504856
 20
189.5716515066836
 30
0.0
 42
0.1670482644845859
  0
VERTEX
  5
35F
  8
DEFAULT
 62
     5
 10
-338.5365538693721
 20
190.1827634655181
 30
0.0
 42
0.1651612454991717
  0
VERTEX
  5
360
  8
DEFAULT
 62
     5
 10
-337.750095403582
 20
191.3216527782687
 30
0.0
 42
0.0593667948163902
  0
VERTEX
  5
361
  8
DEFAULT
 62
     5
 10
-337.621624611893
 20
192.9970001329477
 30
0.0
  0
SEQEND
  5
362
  8
DEFAULT
 62
     5
  0
POLYLINE
  5
363
  8
DEFAULT
 62
     5
 66
     1
 10
0.0
 20
0.0
 30
0.0
 70
     1
  0
VERTEX
  5
364
  8
DEFAULT
 62
     5
 10
-330.621624611893
 20
200.4605403955724
 30
0.0
  0
VERTEX
  5
365
  8
DEFAULT
 62
     5
 10
-327.3994023896708
 20
200.4605403955724
 30
0.0
  0
VERTEX
  5
366
  8
DEFAULT
 62
     5
 10
-327.3994023896708
 20
198.5647086517205
 30
0.0
 42
-0.1189653659007768
  0
VERTEX
  5
367
  8
DEFAULT
 62
     5
 10
-325.7353390816844
 20
200.1654020894934
 30
0.0
 42
-0.1382105598910315
  0
VERTEX
  5
368
  8
DEFAULT
 62
     5
 10
-323.4080813822363
 20
200.7938737289057
 30
0.0
 42
-0.2273648758850353
  0
VERTEX
  5
369
  8
DEFAULT
 62
     5
 10
-319.621624611893
 20
199.0082841796403
 30
0.0
 42
-0.1838682188935985
  0
VERTEX
  5
36A
  8
DEFAULT
 62
     5
 10
-318.0660690563375
 20
194.0351934647551
 30
0.0
 42
-0.1823656645300289
  0
VERTEX
  5
36B
  8
DEFAULT
 62
     5
 10
-319.6346447961881
 20
188.9431798672711
 30
0.0
 42
-0.2285594541574883
  0
VERTEX
  5
36C
  8
DEFAULT
 62
     5
 10
-323.4358595838758
 20
187.1272070622391
 30
0.0
 42
-0.1163198006807496
  0
VERTEX
  5
36D
  8
DEFAULT
 62
     5
 10
-325.3612073624165
 20
187.5525548407799
 30
0.0
 42
-0.0904152380777873
  0
VERTEX
  5
36E
  8
DEFAULT
 62
     5
 10
-327.1771801674486
 20
189.0108892337674
 30
0.0
  0
VERTEX
  5
36F
  8
DEFAULT
 62
     5
 10
-327.1771801674486
 20
182.4605403955724
 30
0.0
  0
VERTEX
  5
370
  8
DEFAULT
 62
     5
 10
-330.621624611893
 20
182.4605403955724
 30
0.0
  0
SEQEND
  5
371
  8
DEFAULT
 62
     5
  0
POLYLINE
  5
372
  8
DEFAULT
 62
     5
 66
     1
 10
0.0
 20
0.0
 30
0.0
 70
     1
  0
VERTEX
  5
373
  8
DEFAULT
 62
     5
 10
-327.1771801674486
 20
194.1792911903132
 30
0.0
 42
0.1662127852120631
  0
VERTEX
  5
374
  8
DEFAULT
 62
     5
 10
-326.3247493204881
 20
190.8650545228836
 30
0.0
 42
0.2404461653497394
  0
VERTEX
  5
375
  8
DEFAULT
 62
     5
 10
-324.2483601137029
 20
189.7938737289058
 30
0.0
 42
0.2413239634427373
  0
VERTEX
  5
376
  8
DEFAULT
 62
     5
 10
-322.2908946372399
 20
190.7773812694057
 30
0.0
 42
0.1627449374921768
  0
VERTEX
  5
377
  8
DEFAULT
 62
     5
 10
-321.5105135007819
 20
194.0039446833576
 30
0.0
 42
0.1661976731382195
  0
VERTEX
  5
378
  8
DEFAULT
 62
     5
 10
-322.3152005636745
 20
197.1124507403416
 30
0.0
 42
0.2412377667960432
  0
VERTEX
  5
379
  8
DEFAULT
 62
     5
 10
-324.3073870967399
 20
198.1272070622391
 30
0.0
 42
0.2367422129321798
  0
VERTEX
  5
37A
  8
DEFAULT
 62
     5
 10
-326.3612073624165
 20
197.130679337444
 30
0.0
 42
0.1723447809988966
  0
SEQEND
  5
37B
  8
DEFAULT
 62
     5
  0
POLYLINE
  5
37C
  8
DEFAULT
 62
     5
 66
     1
 10
0.0
 20
0.0
 30
0.0
 70
     1
  0
VERTEX
  5
37D
  8
DEFAULT
 62
     5
 10
-316.621624611893
 20
191.1272070622391
 30
0.0
  0
VERTEX
  5
37E
  8
DEFAULT
 62
     5
 10
-313.1771801674486
 20
191.5716515066835
 30
0.0
 42
0.181713453741302
  0
VERTEX
  5
37F
  8
DEFAULT
 62
     5
 10
-312.2856862244325
 20
190.0803321946959
 30
0.0
 42
0.1637490318832714
  0
VERTEX
  5
380
  8
DEFAULT
 62
     5
 10
-310.4080813822363
 20
189.5716515066835
 30
0.0
 42
0.1581548590316569
  0
VERTEX
  5
381
  8
DEFAULT
 62
     5
 10
-308.4063452446338
 20
190.0699162168045
 30
0.0
 42
0.2454173628753651
  0
VERTEX
  5
382
  8
DEFAULT
 62
     5
 10
-307.9549579452264
 20
191.0039446833576
 30
0.0
 42
0.1967133408660341
  0
VERTEX
  5
383
  8
DEFAULT
 62
     5
 10
-308.1997482608337
 20
191.6636667996144
 30
0.0
 42
0.1152480441762656
  0
VERTEX
  5
384
  8
DEFAULT
 62
     5
 10
-309.3525266744041
 20
192.123736482481
 30
0.0
 42
-0.0750101977649439
  0
VERTEX
  5
385
  8
DEFAULT
 62
     5
 10
-314.6337758796634
 20
193.8233880681478
 30
0.0
 42
-0.263057537723739
  0
VERTEX
  5
386
  8
DEFAULT
 62
     5
 10
-316.1771801674486
 20
196.7713056355205
 30
0.0
 42
-0.2278055359034032
  0
VERTEX
  5
387
  8
DEFAULT
 62
     5
 10
-314.8429787653139
 20
199.6341516126489
 30
0.0
 42
-0.1789409577799168
  0
VERTEX
  5
388
  8
DEFAULT
 62
     5
 10
-310.7066936589671
 20
200.7938737289057
 30
0.0
 42
-0.1478680227512858
  0
VERTEX
  5
389
  8
DEFAULT
 62
     5
 10
-306.741415563293
 20
199.8954369309267
 30
0.0
 42
-0.1798681362132051
  0
VERTEX
  5
38A
  8
DEFAULT
 62
     5
 10
-304.9549579452263
 20
197.2383181733502
 30
0.0
  0
VERTEX
  5
38B
  8
DEFAULT
 62
     5
 10
-308.1771801674486
 20
196.6827626177947
 30
0.0
 42
0.1762609448244558
  0
VERTEX
  5
38C
  8
DEFAULT
 62
     5
 10
-308.9653739231177
 20
197.9197420096378
 30
0.0
 42
0.1598214678236604
  0
VERTEX
  5
38D
  8
DEFAULT
 62
     5
 10
-310.621624611893
 20
198.3494292844614
 30
0.0
 42
0.1371855487857757
  0
VERTEX
  5
38E
  8
DEFAULT
 62
     5
 10
-312.5643320710116
 20
197.9640135185008
 30
0.0
 42
0.2593740206710692
  0
VERTEX
  5
38F
  8
DEFAULT
 62
     5
 10
-312.9549579452263
 20
197.2539434117724
 30
0.0
 42
0.2456185528239316
  0
VERTEX
  5
390
  8
DEFAULT
 62
     5
 10
-312.6129439238807
 20
196.6185272219501
 30
0.0
 42
0.0664798749578787
  0
VERTEX
  5
391
  8
DEFAULT
 62
     5
 10
-309.4098183675621
 20
195.6350205291737
 30
0.0
 42
-0.1095214193377505
  0
VERTEX
  5
392
  8
DEFAULT
 62
     5
 10
-305.5851657222412
 20
194.0890137304316
 30
0.0
 42
-0.2284114958797572
  0
VERTEX
  5
393
  8
DEFAULT
 62
     5
 10
-304.5105135007819
 20
191.5143606612489
 30
0.0
 42
-0.2276229810650862
  0
VERTEX
  5
394
  8
DEFAULT
 62
     5
 10
-306.0000966751672
 20
188.4206100784391
 30
0.0
 42
-0.1809722242825303
  0
VERTEX
  5
395
  8
DEFAULT
 62
     5
 10
-310.4080813822363
 20
187.1272070622392
 30
0.0
 42
-0.1534212868271903
  0
VERTEX
  5
396
  8
DEFAULT
 62
     5
 10
-314.6016590294646
 20
188.2035962690243
 30
0.0
 42
-0.1853542620166216
  0
SEQEND
  5
397
  8
DEFAULT
 62
     5
  0
POLYLINE
  5
398
  8
DEFAULT
 62
     5
 66
     1
 10
0.0
 20
0.0
 30
0.0
 70
     1
  0
VERTEX
  5
399
  8
DEFAULT
 62
     5
 10
-301.5105135007819
 20
202.3494292844613
 30
0.0
  0
VERTEX
  5
39A
  8
DEFAULT
 62
     5
 10
-301.5105135007819
 20
205.3494292844613
 30
0.0
  0
VERTEX
  5
39B
  8
DEFAULT
 62
     5
 10
-298.0660690563375
 20
205.3494292844613
 30
0.0
  0
VERTEX
  5
39C
  8
DEFAULT
 62
     5
 10
-298.0660690563375
 20
202.3494292844613
 30
0.0
  0
SEQEND
  5
39D
  8
DEFAULT
 62
     5
  0
POLYLINE
  5
39E
  8
DEFAULT
 62
     5
 66
     1
 10
0.0
 20
0.0
 30
0.0
 70
     1
  0
VERTEX
  5
39F
  8
DEFAULT
 62
     5
 10
-301.5105135007819
 20
187.4605403955724
 30
0.0
  0
VERTEX
  5
3A0
  8
DEFAULT
 62
     5
 10
-301.5105135007819
 20
200.4605403955724
 30
0.0
  0
VERTEX
  5
3A1
  8
DEFAULT
 62
     5
 10
-298.0660690563375
 20
200.4605403955724
 30
0.0
  0
VERTEX
  5
3A2
  8
DEFAULT
 62
     5
 10
-298.0660690563375
 20
187.4605403955724
 30
0.0
  0
SEQEND
  5
3A3
  8
DEFAULT
 62
     5
  0
POLYLINE
  5
3A4
  8
DEFAULT
 62
     5
 66
     1
 10
0.0
 20
0.0
 30
0.0
 70
     1
  0
VERTEX
  5
3A5
  8
DEFAULT
 62
     5
 10
-294.621624611893
 20
187.4605403955724
 30
0.0
  0
VERTEX
  5
3A6
  8
DEFAULT
 62
     5
 10
-294.621624611893
 20
205.3494292844613
 30
0.0
  0
VERTEX
  5
3A7
  8
DEFAULT
 62
     5
 10
-291.1771801674486
 20
205.3494292844613
 30
0.0
  0
VERTEX
  5
3A8
  8
DEFAULT
 62
     5
 10
-291.1771801674485
 20
198.9952639953452
 30
0.0
 42
-0.2270822596882966
  0
VERTEX
  5
3A9
  8
DEFAULT
 62
     5
 10
-287.4653739231177
 20
200.7938737289058
 30
0.0
 42
-0.2252479393351336
  0
VERTEX
  5
3AA
  8
DEFAULT
 62
     5
 10
-283.5964506166572
 20
199.0638397351959
 30
0.0
 42
-0.1849988564295938
  0
VERTEX
  5
3AB
  8
DEFAULT
 62
     5
 10
-282.0660690563375
 20
194.0959582808416
 30
0.0
 42
-0.1811789010422538
  0
VERTEX
  5
3AC
  8
DEFAULT
 62
     5
 10
-283.6233599017721
 20
188.9371033856625
 30
0.0
 42
-0.2291506328684916
  0
VERTEX
  5
3AD
  8
DEFAULT
 62
     5
 10
-287.4063452446338
 20
187.1272070622391
 30
0.0
 42
-0.1258590372261157
  0
VERTEX
  5
3AE
  8
DEFAULT
 62
     5
 10
-289.5652001398128
 20
187.7009920626205
 30
0.0
 42
-0.1164914631293919
  0
VERTEX
  5
3AF
  8
DEFAULT
 62
     5
 10
-291.3994023896709
 20
189.3563738348712
 30
0.0
  0
VERTEX
  5
3B0
  8
DEFAULT
 62
     5
 10
-291.3994023896708
 20
187.4605403955724
 30
0.0
  0
SEQEND
  5
3B1
  8
DEFAULT
 62
     5
  0
POLYLINE
  5
3B2
  8
DEFAULT
 62
     5
 66
     1
 10
0.0
 20
0.0
 30
0.0
 70
     1
  0
VERTEX
  5
3B3
  8
DEFAULT
 62
     5
 10
-291.1771801674486
 20
194.2018609791452
 30
0.0
 42
0.1375284068188433
  0
VERTEX
  5
3B4
  8
DEFAULT
 62
     5
 10
-290.5504429701917
 20
191.1810273279157
 30
0.0
 42
0.2740108968145542
  0
VERTEX
  5
3B5
  8
DEFAULT
 62
     5
 10
-288.2119012240511
 20
189.7938737289057
 30
0.0
 42
0.239121506296672
  0
VERTEX
  5
3B6
  8
DEFAULT
 62
     5
 10
-286.3004433940536
 20
190.778249338207
 30
0.0
 42
0.166474269586803
  0
VERTEX
  5
3B7
  8
DEFAULT
 62
     5
 10
-285.5105135007819
 20
193.8806806090292
 30
0.0
 42
0.1640109831052168
  0
VERTEX
  5
3B8
  8
DEFAULT
 62
     5
 10
-286.3065198756622
 20
197.130679337444
 30
0.0
 42
0.24050299122675
  0
VERTEX
  5
3B9
  8
DEFAULT
 62
     5
 10
-288.3438459863918
 20
198.1272070622392
 30
0.0
 42
0.2344888738737176
  0
VERTEX
  5
3BA
  8
DEFAULT
 62
     5
 10
-290.3690199816276
 20
197.1549852638786
 30
0.0
 42
0.1733692477042076
  0
SEQEND
  5
3BB
  8
DEFAULT
 62
     5
  0
POLYLINE
  5
3BC
  8
DEFAULT
 62
     5
 66
     1
 10
0.0
 20
0.0
 30
0.0
 70
     1
  0
VERTEX
  5
3BD
  8
DEFAULT
 62
     5
 10
-279.3994023896708
 20
187.4605403955724
 30
0.0
  0
VERTEX
  5
3BE
  8
DEFAULT
 62
     5
 10
-279.3994023896708
 20
205.3494292844613
 30
0.0
  0
VERTEX
  5
3BF
  8
DEFAULT
 62
     5
 10
-275.9549579452263
 20
205.3494292844613
 30
0.0
  0
VERTEX
  5
3C0
  8
DEFAULT
 62
     5
 10
-275.9549579452263
 20
187.4605403955724
 30
0.0
  0
SEQEND
  5
3C1
  8
DEFAULT
 62
     5
  0
POLYLINE
  5
3C2
  8
DEFAULT
 62
     5
 66
     1
 10
0.0
 20
0.0
 30
0.0
 70
     1
  0
VERTEX
  5
3C3
  8
DEFAULT
 62
     5
 10
-264.9549579452264
 20
191.5716515066835
 30
0.0
  0
VERTEX
  5
3C4
  8
DEFAULT
 62
     5
 10
-261.5105135007819
 20
191.1272070622391
 30
0.0
 42
-0.1601948643917282
  0
VERTEX
  5
3C5
  8
DEFAULT
 62
     5
 10
-263.6042632358683
 20
188.1497768510712
 30
0.0
 42
-0.159020940581437
  0
VERTEX
  5
3C6
  8
DEFAULT
 62
     5
 10
-267.185859160014
 20
187.1272070622391
 30
0.0
 42
-0.2510606897924114
  0
VERTEX
  5
3C7
  8
DEFAULT
 62
     5
 10
-272.2205819120633
 20
189.3563738348712
 30
0.0
 42
-0.160323168959855
  0
VERTEX
  5
3C8
  8
DEFAULT
 62
     5
 10
-273.5105135007819
 20
193.861583095402
 30
0.0
 42
-0.1928988919450546
  0
VERTEX
  5
3C9
  8
DEFAULT
 62
     5
 10
-271.809992150867
 20
198.953596692886
 30
0.0
 42
-0.2186957110499472
  0
VERTEX
  5
3CA
  8
DEFAULT
 62
     5
 10
-267.5105135007819
 20
200.7938737289057
 30
0.0
 42
-0.224876265082983
  0
VERTEX
  5
3CB
  8
DEFAULT
 62
     5
 10
-262.9028738171523
 20
198.8798116925045
 30
0.0
  0
VERTEX
  5
3CC
  8
DEFAULT
 62
     5
 10
-262.7991242055818
 20
198.7581949327406
 30
0.0
  0
VERTEX
  5
3CD
  8
DEFAULT
 62
     5
 10
-262.6988129106074
 20
198.632602407999
 30
0.0
  0
VERTEX
  5
3CE
  8
DEFAULT
 62
     5
 10
-262.6019399322291
 20
198.5030341182797
 30
0.0
  0
VERTEX
  5
3CF
  8
DEFAULT
 62
     5
 10
-262.508505270447
 20
198.3694900635828
 30
0.0
  0
VERTEX
  5
3D0
  8
DEFAULT
 62
     5
 10
-262.4185089252609
 20
198.2319702439081
 30
0.0
  0
VERTEX
  5
3D1
  8
DEFAULT
 62
     5
 10
-262.3319508966708
 20
198.0904746592558
 30
0.0
  0
VERTEX
  5
3D2
  8
DEFAULT
 62
     5
 10
-262.2488311846769
 20
197.9450033096257
 30
0.0
  0
VERTEX
  5
3D3
  8
DEFAULT
 62
     5
 10
-262.1691497892791
 20
197.795556195018
 30
0.0
  0
VERTEX
  5
3D4
  8
DEFAULT
 62
     5
 10
-262.0929067104774
 20
197.6421333154326
 30
0.0
  0
VERTEX
  5
3D5
  8
DEFAULT
 62
     5
 10
-262.0201019482718
 20
197.4847346708695
 30
0.0
  0
VERTEX
  5
3D6
  8
DEFAULT
 62
     5
 10
-261.9507355026623
 20
197.3233602613288
 30
0.0
  0
VERTEX
  5
3D7
  8
DEFAULT
 62
     5
 10
-261.8848073736488
 20
197.1580100868104
 30
0.0
  0
VERTEX
  5
3D8
  8
DEFAULT
 62
     5
 10
-261.8223175612314
 20
196.9886841473142
 30
0.0
  0
VERTEX
  5
3D9
  8
DEFAULT
 62
     5
 10
-261.7632660654102
 20
196.8153824428404
 30
0.0
  0
VERTEX
  5
3DA
  8
DEFAULT
 62
     5
 10
-261.7076528861851
 20
196.6381049733889
 30
0.0
  0
VERTEX
  5
3DB
  8
DEFAULT
 62
     5
 10
-261.655478023556
 20
196.4568517389598
 30
0.0
  0
VERTEX
  5
3DC
  8
DEFAULT
 62
     5
 10
-261.606741477523
 20
196.2716227395529
 30
0.0
  0
VERTEX
  5
3DD
  8
DEFAULT
 62
     5
 10
-261.5614432480861
 20
196.0824179751683
 30
0.0
  0
VERTEX
  5
3DE
  8
DEFAULT
 62
     5
 10
-261.5195833352453
 20
195.8892374458061
 30
0.0
  0
VERTEX
  5
3DF
  8
DEFAULT
 62
     5
 10
-261.4811617390006
 20
195.6920811514662
 30
0.0
  0
VERTEX
  5
3E0
  8
DEFAULT
 62
     5
 10
-261.446178459352
 20
195.4909490921486
 30
0.0
  0
VERTEX
  5
3E1
  8
DEFAULT
 62
     5
 10
-261.4146334962995
 20
195.2858412678533
 30
0.0
  0
VERTEX
  5
3E2
  8
DEFAULT
 62
     5
 10
-261.3865268498432
 20
195.0767576785803
 30
0.0
  0
VERTEX
  5
3E3
  8
DEFAULT
 62
     5
 10
-261.3618585199828
 20
194.8636983243297
 30
0.0
  0
VERTEX
  5
3E4
  8
DEFAULT
 62
     5
 10
-261.3228368100505
 20
194.4256523208954
 30
0.0
  0
VERTEX
  5
3E5
  8
DEFAULT
 62
     5
 10
-261.2975683665025
 20
193.9717032575503
 30
0.0
  0
VERTEX
  5
3E6
  8
DEFAULT
 62
     5
 10
-261.2860531893389
 20
193.5018511342945
 30
0.0
  0
VERTEX
  5
3E7
  8
DEFAULT
 62
     5
 10
-261.2882912785597
 20
193.016095951128
 30
0.0
  0
VERTEX
  5
3E8
  8
DEFAULT
 62
     5
 10
-270.0660690563375
 20
193.016095951128
 30
0.0
 42
0.1907233177561226
  0
VERTEX
  5
3E9
  8
DEFAULT
 62
     5
 10
-269.2162415680572
 20
190.6419642318601
 30
0.0
 42
0.213519212077532
  0
VERTEX
  5
3EA
  8
DEFAULT
 62
     5
 10
-267.1910675728215
 20
189.7938737289058
 30
0.0
 42
0.1657236937100932
  0
VERTEX
  5
3EB
  8
DEFAULT
 62
     5
 10
-265.8047837380597
 20
190.2148811634403
 30
0.0
 42
0.1589948514629379
  0
SEQEND
  5
3EC
  8
DEFAULT
 62
     5
  0
POLYLINE
  5
3ED
  8
DEFAULT
 62
     5
 66
     1
 10
0.0
 20
0.0
 30
0.0
 70
     1
  0
VERTEX
  5
3EE
  8
DEFAULT
 62
     5
 10
-264.7327357230041
 20
195.1272070622391
 30
0.0
 42
0.1931771868552459
  0
VERTEX
  5
3EF
  8
DEFAULT
 62
     5
 10
-265.523533685077
 20
197.3624503164799
 30
0.0
 42
0.2094545272841026
  0
VERTEX
  5
3F0
  8
DEFAULT
 62
     5
 10
-267.3559989496091
 20
198.1272070622391
 30
0.0
 42
0.2175151257022354
  0
VERTEX
  5
3F1
  8
DEFAULT
 62
     5
 10
-269.2639853521251
 20
197.3199166406662
 30
0.0
 42
0.1974850402976597
  0
VERTEX
  5
3F2
  8
DEFAULT
 62
     5
 10
-270.0053042402511
 20
195.1272070622391
 30
0.0
  0
SEQEND
  5
3F3
  8
DEFAULT
 62
     5
  0
POLYLINE
  5
3F4
  8
DEFAULT
 62
     5
 66
     1
 10
0.0
 20
0.0
 30
0.0
 70
     1
  0
VERTEX
  5
3F5
  8
DEFAULT
 62
     5
 10
-252.9549579452264
 20
191.1272070622391
 30
0.0
  0
VERTEX
  5
3F6
  8
DEFAULT
 62
     5
 10
-249.5105135007819
 20
191.5716515066835
 30
0.0
 42
0.1817134537412732
  0
VERTEX
  5
3F7
  8
DEFAULT
 62
     5
 10
-248.6190195577659
 20
190.0803321946958
 30
0.0
 42
0.1637490318832717
  0
VERTEX
  5
3F8
  8
DEFAULT
 62
     5
 10
-246.7414147155696
 20
189.5716515066835
 30
0.0
 42
0.1581548590316419
  0
VERTEX
  5
3F9
  8
DEFAULT
 62
     5
 10
-244.7396785779671
 20
190.0699162168045
 30
0.0
 42
0.2454173628753144
  0
VERTEX
  5
3FA
  8
DEFAULT
 62
     5
 10
-244.2882912785597
 20
191.0039446833576
 30
0.0
 42
0.196713340865956
  0
VERTEX
  5
3FB
  8
DEFAULT
 62
     5
 10
-244.5330815941671
 20
191.6636667996144
 30
0.0
 42
0.1152480441762709
  0
VERTEX
  5
3FC
  8
DEFAULT
 62
     5
 10
-245.6858600077375
 20
192.123736482481
 30
0.0
 42
-0.0750101977649383
  0
VERTEX
  5
3FD
  8
DEFAULT
 62
     5
 10
-250.9671092129967
 20
193.8233880681478
 30
0.0
 42
-0.2630575377237099
  0
VERTEX
  5
3FE
  8
DEFAULT
 62
     5
 10
-252.5105135007819
 20
196.7713056355205
 30
0.0
 42
-0.2278055359034063
  0
VERTEX
  5
3FF
  8
DEFAULT
 62
     5
 10
-251.1763120986473
 20
199.634151612649
 30
0.0
 42
-0.1789409577799132
  0
VERTEX
  5
400
  8
DEFAULT
 62
     5
 10
-247.0400269923005
 20
200.7938737289057
 30
0.0
 42
-0.1478680227512773
  0
VERTEX
  5
401
  8
DEFAULT
 62
     5
 10
-243.0747488966264
 20
199.8954369309267
 30
0.0
 42
-0.1798681362132021
  0
VERTEX
  5
402
  8
DEFAULT
 62
     5
 10
-241.2882912785597
 20
197.2383181733502
 30
0.0
  0
VERTEX
  5
403
  8
DEFAULT
 62
     5
 10
-244.5105135007819
 20
196.6827626177947
 30
0.0
 42
0.176260944824386
  0
VERTEX
  5
404
  8
DEFAULT
 62
     5
 10
-245.2987072564511
 20
197.9197420096378
 30
0.0
 42
0.1598214678236683
  0
VERTEX
  5
405
  8
DEFAULT
 62
     5
 10
-246.9549579452264
 20
198.3494292844614
 30
0.0
 42
0.1371855487857747
  0
VERTEX
  5
406
  8
DEFAULT
 62
     5
 10
-248.8976654043449
 20
197.9640135185008
 30
0.0
 42
0.259374020670978
  0
VERTEX
  5
407
  8
DEFAULT
 62
     5
 10
-249.2882912785597
 20
197.2539434117724
 30
0.0
 42
0.2456185528239672
  0
VERTEX
  5
408
  8
DEFAULT
 62
     5
 10
-248.946277257214
 20
196.6185272219502
 30
0.0
 42
0.0664798749578855
  0
VERTEX
  5
409
  8
DEFAULT
 62
     5
 10
-245.7431517008955
 20
195.6350205291736
 30
0.0
 42
-0.1095214193377492
  0
VERTEX
  5
40A
  8
DEFAULT
 62
     5
 10
-241.9184990555745
 20
194.0890137304316
 30
0.0
 42
-0.2284114958797656
  0
VERTEX
  5
40B
  8
DEFAULT
 62
     5
 10
-240.8438468341153
 20
191.5143606612489
 30
0.0
 42
-0.2276229810650902
  0
VERTEX
  5
40C
  8
DEFAULT
 62
     5
 10
-242.3334300085004
 20
188.4206100784391
 30
0.0
 42
-0.1809722242825245
  0
VERTEX
  5
40D
  8
DEFAULT
 62
     5
 10
-246.7414147155696
 20
187.1272070622391
 30
0.0
 42
-0.1534212868271893
  0
VERTEX
  5
40E
  8
DEFAULT
 62
     5
 10
-250.934992362798
 20
188.2035962690242
 30
0.0
 42
-0.1853542620165964
  0
SEQEND
  5
40F
  8
DEFAULT
 62
     5
  0
POLYLINE
  5
410
  8
DEFAULT
 62
     5
 66
     1
 10
0.0
 20
0.0
 30
0.0
 70
     1
  0
VERTEX
  5
411
  8
DEFAULT
 62
     5
 10
-231.8438468341153
 20
200.4605403955724
 30
0.0
  0
VERTEX
  5
412
  8
DEFAULT
 62
     5
 10
-231.8438468341153
 20
197.7938737289057
 30
0.0
  0
VERTEX
  5
413
  8
DEFAULT
 62
     5
 10
-234.1771801674486
 20
197.7938737289057
 30
0.0
  0
VERTEX
  5
414
  8
DEFAULT
 62
     5
 10
-234.1771801674486
 20
192.4258193389699
 30
0.0
 42
0.034088066697502
  0
VERTEX
  5
415
  8
DEFAULT
 62
     5
 10
-234.1112077862782
 20
190.5256447079416
 30
0.0
 42
0.177762969804198
  0
VERTEX
  5
416
  8
DEFAULT
 62
     5
 10
-233.813464426072
 20
190.0803321946959
 30
0.0
 42
0.167141113472481
  0
VERTEX
  5
417
  8
DEFAULT
 62
     5
 10
-233.2466239761004
 20
189.9049848400169
 30
0.0
 42
0.0818670423875044
  0
VERTEX
  5
418
  8
DEFAULT
 62
     5
 10
-231.8994015419474
 20
190.2331114559897
 30
0.0
  0
VERTEX
  5
419
  8
DEFAULT
 62
     5
 10
-231.621624611893
 20
187.6272079099625
 30
0.0
 42
-0.1009135694950901
  0
VERTEX
  5
41A
  8
DEFAULT
 62
     5
 10
-234.3021786839326
 20
187.1272070622391
 30
0.0
 42
-0.1023112505794197
  0
VERTEX
  5
41B
  8
DEFAULT
 62
     5
 10
-235.9558251663042
 20
187.4431798672712
 30
0.0
 42
-0.1427327602514328
  0
VERTEX
  5
41C
  8
DEFAULT
 62
     5
 10
-237.0365547170955
 20
188.2600207411045
 30
0.0
 42
-0.1112474266807631
  0
VERTEX
  5
41D
  8
DEFAULT
 62
     5
 10
-237.5122479429374
 20
189.6150549467453
 30
0.0
 42
-0.0357944377719358
  0
VERTEX
  5
41E
  8
DEFAULT
 62
     5
 10
-237.621624611893
 20
192.0647078039971
 30
0.0
  0
VERTEX
  5
41F
  8
DEFAULT
 62
     5
 10
-237.621624611893
 20
197.7938737289057
 30
0.0
  0
VERTEX
  5
420
  8
DEFAULT
 62
     5
 10
-239.2882912785597
 20
197.7938737289057
 30
0.0
  0
VERTEX
  5
421
  8
DEFAULT
 62
     5
 10
-239.2882912785597
 20
200.4605403955724
 30
0.0
  0
VERTEX
  5
422
  8
DEFAULT
 62
     5
 10
-237.621624611893
 20
200.4605403955724
 30
0.0
  0
VERTEX
  5
423
  8
DEFAULT
 62
     5
 10
-237.621624611893
 20
202.9049848400169
 30
0.0
  0
VERTEX
  5
424
  8
DEFAULT
 62
     5
 10
-234.1771801674486
 20
204.9049848400169
 30
0.0
  0
VERTEX
  5
425
  8
DEFAULT
 62
     5
 10
-234.1771801674486
 20
200.4605403955724
 30
0.0
  0
SEQEND
  5
426
  8
DEFAULT
 62
     5
  0
POLYLINE
  5
427
  8
DEFAULT
 62
     5
 66
     1
 10
0.0
 20
0.0
 30
0.0
 70
     1
  0
VERTEX
  5
428
  8
DEFAULT
 62
     5
 10
-230.2882912785597
 20
194.1445684382638
 30
0.0
 42
-0.1222574291832738
  0
VERTEX
  5
429
  8
DEFAULT
 62
     5
 10
-229.4488814636177
 20
197.4813748945255
 30
0.0
 42
-0.1509199207835993
  0
VERTEX
  5
42A
  8
DEFAULT
 62
     5
 10
-227.0704085526202
 20
199.9440479360724
 30
0.0
 42
-0.1287246067143958
  0
VERTEX
  5
42B
  8
DEFAULT
 62
     5
 10
-223.6337758796634
 20
200.7938737289057
 30
0.0
 42
-0.2109274079128413
  0
VERTEX
  5
42C
  8
DEFAULT
 62
     5
 10
-218.828221595693
 20
198.866790660486
 30
0.0
 42
-0.2026212639801792
  0
VERTEX
  5
42D
  8
DEFAULT
 62
     5
 10
-216.9549579452264
 20
193.9970001329477
 30
0.0
 42
-0.2022295973323248
  0
VERTEX
  5
42E
  8
DEFAULT
 62
     5
 10
-218.8464501927955
 20
189.0785960570934
 30
0.0
 42
-0.211550609660089
  0
VERTEX
  5
42F
  8
DEFAULT
 62
     5
 10
-223.6094716486757
 20
187.1272070622391
 30
0.0
 42
-0.1188796278362306
  0
VERTEX
  5
430
  8
DEFAULT
 62
     5
 10
-226.9974924687634
 20
187.9397075920662
 30
0.0
 42
-0.1582355798320325
  0
VERTEX
  5
431
  8
DEFAULT
 62
     5
 10
-229.4488814636177
 20
190.3225208470699
 30
0.0
 42
-0.1239053267140383
  0
SEQEND
  5
432
  8
DEFAULT
 62
     5
  0
POLYLINE
  5
433
  8
DEFAULT
 62
     5
 66
     1
 10
0.0
 20
0.0
 30
0.0
 70
     1
  0
VERTEX
  5
434
  8
DEFAULT
 62
     5
 10
-226.8438468341153
 20
193.9605412432958
 30
0.0
 42
0.1807696907208203
  0
VERTEX
  5
435
  8
DEFAULT
 62
     5
 10
-225.9445411196115
 20
190.9501244176811
 30
0.0
 42
0.2292871242715519
  0
VERTEX
  5
436
  8
DEFAULT
 62
     5
 10
-223.7275273101967
 20
189.9049848400169
 30
0.0
 42
0.2303193461660644
  0
VERTEX
  5
437
  8
DEFAULT
 62
     5
 10
-221.5148529970646
 20
190.950124417681
 30
0.0
 42
0.179440807586974
  0
VERTEX
  5
438
  8
DEFAULT
 62
     5
 10
-220.621624611893
 20
193.9848471697304
 30
0.0
 42
0.1800932450793998
  0
VERTEX
  5
439
  8
DEFAULT
 62
     5
 10
-221.5148529970647
 20
196.9709572211872
 30
0.0
 42
0.2303192267205909
  0
VERTEX
  5
43A
  8
DEFAULT
 62
     5
 10
-223.7275273101967
 20
198.0160959511279
 30
0.0
 42
0.2292870050707524
  0
VERTEX
  5
43B
  8
DEFAULT
 62
     5
 10
-225.9445411196115
 20
196.9709572211872
 30
0.0
 42
0.1807697890868493
  0
SEQEND
  5
43C
  8
DEFAULT
 62
     5
  0
POLYLINE
  5
43D
  8
DEFAULT
 62
     5
 66
     1
 10
0.0
 20
0.0
 30
0.0
 70
     1
  0
VERTEX
  5
43E
  8
DEFAULT
 62
     5
 10
-215.0660690563375
 20
194.1445684382638
 30
0.0
 42
-0.1222574291832733
  0
VERTEX
  5
43F
  8
DEFAULT
 62
     5
 10
-214.2266592413955
 20
197.4813748945255
 30
0.0
 42
-0.1509199207835941
  0
VERTEX
  5
440
  8
DEFAULT
 62
     5
 10
-211.848186330398
 20
199.9440479360724
 30
0.0
 42
-0.1287246067144008
  0
VERTEX
  5
441
  8
DEFAULT
 62
     5
 10
-208.4115536574412
 20
200.7938737289058
 30
0.0
 42
-0.2109274079128346
  0
VERTEX
  5
442
  8
DEFAULT
 62
     5
 10
-203.6059993734708
 20
198.866790660486
 30
0.0
 42
-0.2026212639801772
  0
VERTEX
  5
443
  8
DEFAULT
 62
     5
 10
-201.7327357230041
 20
193.9970001329477
 30
0.0
 42
-0.2022295973323255
  0
VERTEX
  5
444
  8
DEFAULT
 62
     5
 10
-203.6242279705733
 20
189.0785960570934
 30
0.0
 42
-0.2115506096600975
  0
VERTEX
  5
445
  8
DEFAULT
 62
     5
 10
-208.3872494264535
 20
187.1272070622391
 30
0.0
 42
-0.118879627836231
  0
VERTEX
  5
446
  8
DEFAULT
 62
     5
 10
-211.7752702465412
 20
187.9397075920662
 30
0.0
 42
-0.1582355798320199
  0
VERTEX
  5
447
  8
DEFAULT
 62
     5
 10
-214.2266592413955
 20
190.32252084707
 30
0.0
 42
-0.1239053267140502
  0
SEQEND
  5
448
  8
DEFAULT
 62
     5
  0
POLYLINE
  5
449
  8
DEFAULT
 62
     5
 66
     1
 10
0.0
 20
0.0
 30
0.0
 70
     1
  0
VERTEX
  5
44A
  8
DEFAULT
 62
     5
 10
-211.621624611893
 20
193.9605412432958
 30
0.0
 42
0.1807696907208212
  0
VERTEX
  5
44B
  8
DEFAULT
 62
     5
 10
-210.7223188973893
 20
190.950124417681
 30
0.0
 42
0.22928712427154
  0
VERTEX
  5
44C
  8
DEFAULT
 62
     5
 10
-208.5053050879745
 20
189.9049848400169
 30
0.0
 42
0.2303193461660616
  0
VERTEX
  5
44D
  8
DEFAULT
 62
     5
 10
-206.2926307748425
 20
190.9501244176811
 30
0.0
 42
0.1794408075869761
  0
VERTEX
  5
44E
  8
DEFAULT
 62
     5
 10
-205.3994023896708
 20
193.9848471697304
 30
0.0
 42
0.1800932450793959
  0
VERTEX
  5
44F
  8
DEFAULT
 62
     5
 10
-206.2926307748424
 20
196.9709572211872
 30
0.0
 42
0.2303192267206084
  0
VERTEX
  5
450
  8
DEFAULT
 62
     5
 10
-208.5053050879745
 20
198.016095951128
 30
0.0
 42
0.2292870050707586
  0
VERTEX
  5
451
  8
DEFAULT
 62
     5
 10
-210.7223188973893
 20
196.9709572211872
 30
0.0
 42
0.1807697890868431
  0
SEQEND
  5
452
  8
DEFAULT
 62
     5
  0
POLYLINE
  5
453
  8
DEFAULT
 62
     5
 66
     1
 10
0.0
 20
0.0
 30
0.0
 70
     1
  0
VERTEX
  5
454
  8
DEFAULT
 62
     5
 10
-199.0660690563375
 20
187.4605403955724
 30
0.0
  0
VERTEX
  5
455
  8
DEFAULT
 62
     5
 10
-199.0660690563375
 20
205.3494292844613
 30
0.0
  0
VERTEX
  5
456
  8
DEFAULT
 62
     5
 10
-195.621624611893
 20
205.3494292844613
 30
0.0
  0
VERTEX
  5
457
  8
DEFAULT
 62
     5
 10
-195.621624611893
 20
187.4605403955724
 30
0.0
  0
SEQEND
  5
458
  8
DEFAULT
 62
     5
  0
POLYLINE
  5
459
  8
DEFAULT
 62
     5
 66
     1
 10
0.0
 20
0.0
 30
0.0
 70
     1
  0
VERTEX
  5
45A
  8
DEFAULT
 62
     5
 10
-185.2882912785597
 20
200.4605403955724
 30
0.0
  0
VERTEX
  5
45B
  8
DEFAULT
 62
     5
 10
-182.0660690563375
 20
200.4605403955724
 30
0.0
  0
VERTEX
  5
45C
  8
DEFAULT
 62
     5
 10
-182.0660690563375
 20
198.5647086517205
 30
0.0
 42
-0.118965365900752
  0
VERTEX
  5
45D
  8
DEFAULT
 62
     5
 10
-180.4020057483511
 20
200.1654020894934
 30
0.0
 42
-0.1382105598910454
  0
VERTEX
  5
45E
  8
DEFAULT
 62
     5
 10
-178.0747480489029
 20
200.7938737289058
 30
0.0
 42
-0.2273648758850219
  0
VERTEX
  5
45F
  8
DEFAULT
 62
     5
 10
-174.2882912785597
 20
199.0082841796403
 30
0.0
 42
-0.1838682188936154
  0
VERTEX
  5
460
  8
DEFAULT
 62
     5
 10
-172.7327357230041
 20
194.0351934647552
 30
0.0
 42
-0.1823656645300196
  0
VERTEX
  5
461
  8
DEFAULT
 62
     5
 10
-174.3013114628548
 20
188.9431798672711
 30
0.0
 42
-0.2285594541574815
  0
VERTEX
  5
462
  8
DEFAULT
 62
     5
 10
-178.1025262505424
 20
187.1272070622391
 30
0.0
 42
-0.1163198006807651
  0
VERTEX
  5
463
  8
DEFAULT
 62
     5
 10
-180.0278740290832
 20
187.5525548407798
 30
0.0
 42
-0.0904152380777479
  0
VERTEX
  5
464
  8
DEFAULT
 62
     5
 10
-181.8438468341153
 20
189.0108892337674
 30
0.0
  0
VERTEX
  5
465
  8
DEFAULT
 62
     5
 10
-181.8438468341153
 20
182.4605403955724
 30
0.0
  0
VERTEX
  5
466
  8
DEFAULT
 62
     5
 10
-185.2882912785597
 20
182.4605403955724
 30
0.0
  0
SEQEND
  5
467
  8
DEFAULT
 62
     5
  0
POLYLINE
  5
468
  8
DEFAULT
 62
     5
 66
     1
 10
0.0
 20
0.0
 30
0.0
 70
     1
  0
VERTEX
  5
469
  8
DEFAULT
 62
     5
 10
-181.8438468341153
 20
194.1792911903132
 30
0.0
 42
0.1662127852120593
  0
VERTEX
  5
46A
  8
DEFAULT
 62
     5
 10
-180.9914159871547
 20
190.8650545228836
 30
0.0
 42
0.2404461653497684
  0
VERTEX
  5
46B
  8
DEFAULT
 62
     5
 10
-178.9150267803696
 20
189.7938737289057
 30
0.0
 42
0.2413239634427152
  0
VERTEX
  5
46C
  8
DEFAULT
 62
     5
 10
-176.9575613039066
 20
190.7773812694057
 30
0.0
 42
0.1627449374921693
  0
VERTEX
  5
46D
  8
DEFAULT
 62
     5
 10
-176.1771801674486
 20
194.0039446833576
 30
0.0
 42
0.1661976731381928
  0
VERTEX
  5
46E
  8
DEFAULT
 62
     5
 10
-176.9818672303412
 20
197.1124507403416
 30
0.0
 42
0.2412377667960614
  0
VERTEX
  5
46F
  8
DEFAULT
 62
     5
 10
-178.9740537634066
 20
198.1272070622391
 30
0.0
 42
0.2367422129321863
  0
VERTEX
  5
470
  8
DEFAULT
 62
     5
 10
-181.0278740290832
 20
197.130679337444
 30
0.0
 42
0.1723447809988914
  0
SEQEND
  5
471
  8
DEFAULT
 62
     5
  0
POLYLINE
  5
472
  8
DEFAULT
 62
     5
 66
     1
 10
0.0
 20
0.0
 30
0.0
 70
     1
  0
VERTEX
  5
473
  8
DEFAULT
 62
     5
 10
-170.0660690563375
 20
187.4605403955724
 30
0.0
  0
VERTEX
  5
474
  8
DEFAULT
 62
     5
 10
-170.0660690563375
 20
205.3494292844613
 30
0.0
  0
VERTEX
  5
475
  8
DEFAULT
 62
     5
 10
-166.621624611893
 20
205.3494292844613
 30
0.0
  0
VERTEX
  5
476
  8
DEFAULT
 62
     5
 10
-166.621624611893
 20
187.4605403955724
 30
0.0
  0
SEQEND
  5
477
  8
DEFAULT
 62
     5
  0
POLYLINE
  5
478
  8
DEFAULT
 62
     5
 66
     1
 10
0.0
 20
0.0
 30
0.0
 70
     1
  0
VERTEX
  5
479
  8
DEFAULT
 62
     5
 10
-160.621624611893
 20
196.4605403955724
 30
0.0
  0
VERTEX
  5
47A
  8
DEFAULT
 62
     5
 10
-163.7327357230041
 20
196.9049848400169
 30
0.0
 42
-0.171483317599022
  0
VERTEX
  5
47B
  8
DEFAULT
 62
     5
 10
-161.9558251663042
 20
199.8407494441724
 30
0.0
 42
-0.1608829132837479
  0
VERTEX
  5
47C
  8
DEFAULT
 62
     5
 10
-158.2101650864486
 20
200.7938737289058
 30
0.0
 42
-0.1088364278880934
  0
VERTEX
  5
47D
  8
DEFAULT
 62
     5
 10
-154.8490543991992
 20
200.2478669301638
 30
0.0
 42
-0.1580303644335389
  0
VERTEX
  5
47E
  8
DEFAULT
 62
     5
 10
-153.2943669124449
 20
198.8607141788773
 30
0.0
 42
-0.1088017057953475
  0
VERTEX
  5
47F
  8
DEFAULT
 62
     5
 10
-152.8438468341153
 20
195.773041773123
 30
0.0
  0
VERTEX
  5
480
  8
DEFAULT
 62
     5
 10
-152.8438468341153
 20
191.7452635714835
 30
0.0
 42
0.0514080219695379
  0
VERTEX
  5
481
  8
DEFAULT
 62
     5
 10
-152.656346516219
 20
189.2096727506329
 30
0.0
 42
0.0692287864232478
  0
VERTEX
  5
482
  8
DEFAULT
 62
     5
 10
-151.9549579452264
 20
187.4605403955724
 30
0.0
  0
VERTEX
  5
483
  8
DEFAULT
 62
     5
 10
-155.3994023896708
 20
187.4605403955724
 30
0.0
  0
VERTEX
  5
484
  8
DEFAULT
 62
     5
 10
-155.7292634477992
 20
188.4674849459823
 30
0.0
  0
VERTEX
  5
485
  8
DEFAULT
 62
     5
 10
-155.8507896890783
 20
188.8685276458119
 30
0.0
 42
-0.0933244186738186
  0
VERTEX
  5
486
  8
DEFAULT
 62
     5
 10
-157.7309995854017
 20
187.5629716663946
 30
0.0
 42
-0.1040133466925512
  0
VERTEX
  5
487
  8
DEFAULT
 62
     5
 10
-159.8681510651029
 20
187.1272070622391
 30
0.0
 42
-0.196543035759651
  0
VERTEX
  5
488
  8
DEFAULT
 62
     5
 10
-163.023533685077
 20
188.2166173010428
 30
0.0
 42
-0.2154369487651316
  0
VERTEX
  5
489
  8
DEFAULT
 62
     5
 10
-164.1771801674486
 20
190.9709580689106
 30
0.0
 42
-0.1373780248024606
  0
VERTEX
  5
48A
  8
DEFAULT
 62
     5
 10
-163.6632910666289
 20
192.9362353168613
 30
0.0
 42
-0.1473783213971141
  0
VERTEX
  5
48B
  8
DEFAULT
 62
     5
 10
-162.2231861184671
 20
194.2582837557786
 30
0.0
 42
-0.0634404934847307
  0
VERTEX
  5
48C
  8
DEFAULT
 62
     5
 10
-159.5521791077943
 20
195.0594993911897
 30
0.0
 42
0.0472009877729176
  0
VERTEX
  5
48D
  8
DEFAULT
 62
     5
 10
-156.2882912785597
 20
195.9049848400169
 30
0.0
  0
VERTEX
  5
48E
  8
DEFAULT
 62
     5
 10
-156.2882912785597
 20
196.2539434117724
 30
0.0
 42
0.2070921599656343
  0
VERTEX
  5
48F
  8
DEFAULT
 62
     5
 10
-156.7492281825041
 20
197.6966517186144
 30
0.0
 42
0.1777887432707755
  0
VERTEX
  5
490
  8
DEFAULT
 62
     5
 10
-158.4896798495523
 20
198.1272070622391
 30
0.0
 42
0.1651091138039015
  0
VERTEX
  5
491
  8
DEFAULT
 62
     5
 10
-159.8377695047832
 20
197.7574156869774
 30
0.0
 42
0.1491587679877643
  0
SEQEND
  5
492
  8
DEFAULT
 62
     5
  0
POLYLINE
  5
493
  8
DEFAULT
 62
     5
 66
     1
 10
0.0
 20
0.0
 30
0.0
 70
     1
  0
VERTEX
  5
494
  8
DEFAULT
 62
     5
 10
-156.2882912785597
 20
193.6827626177947
 30
0.0
 42
-0.0261329476715181
  0
VERTEX
  5
495
  8
DEFAULT
 62
     5
 10
-158.2934988436437
 20
193.156721401481
 30
0.0
 42
0.0811165779560996
  0
VERTEX
  5
496
  8
DEFAULT
 62
     5
 10
-160.0869010121203
 20
192.5577641013107
 30
0.0
 42
0.2517191883486533
  0
VERTEX
  5
497
  8
DEFAULT
 62
     5
 10
-160.7327357230041
 20
191.3459587047033
 30
0.0
 42
0.2041672574556534
  0
VERTEX
  5
498
  8
DEFAULT
 62
     5
 10
-160.2171104845819
 20
190.0976935707206
 30
0.0
 42
0.2097521333282963
  0
VERTEX
  5
499
  8
DEFAULT
 62
     5
 10
-158.9028738171523
 20
189.5716515066835
 30
0.0
 42
0.167048264484593
  0
VERTEX
  5
49A
  8
DEFAULT
 62
     5
 10
-157.2032205360387
 20
190.1827634655181
 30
0.0
 42
0.1651612454991233
  0
VERTEX
  5
49B
  8
DEFAULT
 62
     5
 10
-156.4167620702486
 20
191.3216527782687
 30
0.0
 42
0.0593667948163597
  0
VERTEX
  5
49C
  8
DEFAULT
 62
     5
 10
-156.2882912785597
 20
192.9970001329477
 30
0.0
  0
SEQEND
  5
49D
  8
DEFAULT
 62
     5
  0
POLYLINE
  5
49E
  8
DEFAULT
 62
     5
 66
     1
 10
0.0
 20
0.0
 30
0.0
 70
     1
  0
VERTEX
  5
49F
  8
DEFAULT
 62
     5
 10
-137.5105135007819
 20
187.4605403955724
 30
0.0
  0
VERTEX
  5
4A0
  8
DEFAULT
 62
     5
 10
-140.9549579452264
 20
187.4605403955724
 30
0.0
  0
VERTEX
  5
4A1
  8
DEFAULT
 62
     5
 10
-140.9549579452264
 20
194.097694418444
 30
0.0
 42
0.0659043403441952
  0
VERTEX
  5
4A2
  8
DEFAULT
 62
     5
 10
-141.1719717546412
 20
196.8233889158711
 30
0.0
 42
0.1600130695765396
  0
VERTEX
  5
4A3
  8
DEFAULT
 62
     5
 10
-141.8768326008387
 20
197.7843258198156
 30
0.0
 42
0.1575149176298404
  0
VERTEX
  5
4A4
  8
DEFAULT
 62
     5
 10
-143.0504438179152
 20
198.1272070622391
 30
0.0
 42
0.1576987046345054
  0
VERTEX
  5
4A5
  8
DEFAULT
 62
     5
 10
-144.6277002457783
 20
197.6376238878539
 30
0.0
 42
0.1684371822617205
  0
VERTEX
  5
4A6
  8
DEFAULT
 62
     5
 10
-145.5851657222412
 20
196.3398813753712
 30
0.0
 42
0.0659809918576762
  0
VERTEX
  5
4A7
  8
DEFAULT
 62
     5
 10
-145.8438468341153
 20
193.3511654220638
 30
0.0
  0
VERTEX
  5
4A8
  8
DEFAULT
 62
     5
 10
-145.8438468341153
 20
187.4605403955724
 30
0.0
  0
VERTEX
  5
4A9
  8
DEFAULT
 62
     5
 10
-149.2882912785597
 20
187.4605403955724
 30
0.0
  0
VERTEX
  5
4AA
  8
DEFAULT
 62
     5
 10
-149.2882912785597
 20
200.4605403955724
 30
0.0
  0
VERTEX
  5
4AB
  8
DEFAULT
 62
     5
 10
-146.0660690563375
 20
200.4605403955724
 30
0.0
  0
VERTEX
  5
4AC
  8
DEFAULT
 62
     5
 10
-146.0660690563375
 20
198.5647086517205
 30
0.0
 42
-0.2486296121988594
  0
VERTEX
  5
4AD
  8
DEFAULT
 62
     5
 10
-141.8299577332955
 20
200.7938737289057
 30
0.0
 42
-0.1053164015607901
  0
VERTEX
  5
4AE
  8
DEFAULT
 62
     5
 10
-139.7735341089387
 20
200.3824158989082
 30
0.0
 42
-0.1292191717088507
  0
VERTEX
  5
4AF
  8
DEFAULT
 62
     5
 10
-138.3638115688202
 20
199.3329368249613
 30
0.0
 42
-0.1054932374262118
  0
VERTEX
  5
4B0
  8
DEFAULT
 62
     5
 10
-137.6980129709548
 20
197.8841520365107
 30
0.0
 42
-0.0533641385177251
  0
VERTEX
  5
4B1
  8
DEFAULT
 62
     5
 10
-137.5105135007819
 20
195.5629725141181
 30
0.0
  0
SEQEND
  5
4B2
  8
DEFAULT
 62
     5
  0
ENDSEC
  0
EOF
