  0
SECTION
  2
HEADER
  9
$ACADVER
  1
AC1009
  9
$DWGCODEPAGE
  3
ansi_1252
  9
$INSBASE
 10
0.0
 20
0.0
 30
0.0
  9
$EXTMIN
 10
113.903
 20
259.345
 30
0.0
  9
$EXTMAX
 10
1150.03
 20
650.9262426344668
 30
0.0
  9
$LIMMIN
 10
0.0
 20
0.0
  9
$LIMMAX
 10
12.0
 20
9.0
  9
$ORTHOMODE
 70
     0
  9
$REGENMODE
 70
     1
  9
$FILLMODE
 70
     1
  9
$QTEXTMODE
 70
     0
  9
$MIRRTEXT
 70
     1
  9
$DRAGMODE
 70
     2
  9
$LTSCALE
 40
1.0
  9
$OSMODE
 70
    37
  9
$ATTMODE
 70
     1
  9
$TEXTSIZE
 40
0.2
  9
$TRACEWID
 40
0.05
  9
$TEXTSTYLE
  7
STANDARD
  9
$CLAYER
  8
DEFAULT
  9
$CELTYPE
  6
BYLAYER
  9
$CECOLOR
 62
   256
  9
$DIMSCALE
 40
1.0
  9
$DIMASZ
 40
0.18
  9
$DIMEXO
 40
0.0625
  9
$DIMDLI
 40
0.38
  9
$DIMRND
 40
0.0
  9
$DIMDLE
 40
0.0
  9
$DIMEXE
 40
0.18
  9
$DIMTP
 40
0.0
  9
$DIMTM
 40
0.0
  9
$DIMTXT
 40
0.18
  9
$DIMCEN
 40
0.09
  9
$DIMTSZ
 40
0.0
  9
$DIMTOL
 70
     0
  9
$DIMLIM
 70
     0
  9
$DIMTIH
 70
     1
  9
$DIMTOH
 70
     1
  9
$DIMSE1
 70
     0
  9
$DIMSE2
 70
     0
  9
$DIMTAD
 70
     0
  9
$DIMZIN
 70
     0
  9
$DIMBLK
  1

  9
$DIMASO
 70
     1
  9
$DIMSHO
 70
     1
  9
$DIMPOST
  1

  9
$DIMAPOST
  1

  9
$DIMALT
 70
     0
  9
$DIMALTD
 70
     2
  9
$DIMALTF
 40
25.4
  9
$DIMLFAC
 40
1.0
  9
$DIMTOFL
 70
     0
  9
$DIMTVP
 40
0.0
  9
$DIMTIX
 70
     0
  9
$DIMSOXD
 70
     0
  9
$DIMSAH
 70
     0
  9
$DIMBLK1
  1

  9
$DIMBLK2
  1

  9
$DIMSTYLE
  2
STANDARD
  9
$DIMCLRD
 70
     0
  9
$DIMCLRE
 70
     0
  9
$DIMCLRT
 70
     0
  9
$DIMTFAC
 40
1.0
  9
$DIMGAP
 40
0.09
  9
$LUNITS
 70
     2
  9
$LUPREC
 70
     4
  9
$SKETCHINC
 40
0.1
  9
$FILLETRAD
 40
0.5
  9
$AUNITS
 70
     0
  9
$AUPREC
 70
     0
  9
$MENU
  1
.
  9
$ELEVATION
 40
0.0
  9
$PELEVATION
 40
0.0
  9
$THICKNESS
 40
0.0
  9
$LIMCHECK
 70
     0
  9
$CHAMFERA
 40
0.0
  9
$CHAMFERB
 40
0.0
  9
$SKPOLY
 70
     0
  9
$TDCREATE
 40
2458802.577138275
  9
$TDUPDATE
 40
2458802.577157361
  9
$TDINDWG
 40
0.0000000116
  9
$TDUSRTIMER
 40
0.0000000116
  9
$USRTIMER
 70
     1
  9
$ANGBASE
 50
0.0
  9
$ANGDIR
 70
     0
  9
$PDMODE
 70
     0
  9
$PDSIZE
 40
0.0
  9
$PLINEWID
 40
0.0
  9
$COORDS
 70
     1
  9
$SPLFRAME
 70
     0
  9
$SPLINETYPE
 70
     6
  9
$SPLINESEGS
 70
     8
  9
$ATTDIA
 70
     0
  9
$ATTREQ
 70
     1
  9
$HANDLING
 70
     1
  9
$HANDSEED
  5
4DF
  9
$SURFTAB1
 70
     6
  9
$SURFTAB2
 70
     6
  9
$SURFTYPE
 70
     6
  9
$SURFU
 70
     6
  9
$SURFV
 70
     6
  9
$UCSNAME
  2

  9
$UCSORG
 10
0.0
 20
0.0
 30
0.0
  9
$UCSXDIR
 10
1.0
 20
0.0
 30
0.0
  9
$UCSYDIR
 10
0.0
 20
1.0
 30
0.0
  9
$PUCSNAME
  2

  9
$PUCSORG
 10
0.0
 20
0.0
 30
0.0
  9
$PUCSXDIR
 10
1.0
 20
0.0
 30
0.0
  9
$PUCSYDIR
 10
0.0
 20
1.0
 30
0.0
  9
$USERI1
 70
     0
  9
$USERI2
 70
     0
  9
$USERI3
 70
     0
  9
$USERI4
 70
     0
  9
$USERI5
 70
     0
  9
$USERR1
 40
0.0
  9
$USERR2
 40
0.0
  9
$USERR3
 40
0.0
  9
$USERR4
 40
0.0
  9
$USERR5
 40
0.0
  9
$WORLDVIEW
 70
     1
  9
$SHADEDGE
 70
     3
  9
$SHADEDIF
 70
    70
  9
$TILEMODE
 70
     1
  9
$MAXACTVP
 70
    64
  9
$PLIMCHECK
 70
     0
  9
$PEXTMIN
 10
1.000000000000000E+20
 20
1.000000000000000E+20
 30
1.000000000000000E+20
  9
$PEXTMAX
 10
-1.000000000000000E+20
 20
-1.000000000000000E+20
 30
-1.000000000000000E+20
  9
$PLIMMIN
 10
0.0
 20
0.0
  9
$PLIMMAX
 10
12.0
 20
9.0
  9
$UNITMODE
 70
     0
  9
$VISRETAIN
 70
     1
  9
$PLINEGEN
 70
     0
  9
$PSLTSCALE
 70
     1
  0
ENDSEC
  0
SECTION
  2
TABLES
  0
TABLE
  2
VPORT
 70
     1
  0
VPORT
  2
*ACTIVE
 70
     0
 10
0.0
 20
0.0
 11
1.0
 21
1.0
 12
631.9665
 22
455.1356213172334
 13
0.0
 23
0.0
 14
0.5
 24
0.5
 15
0.5
 25
0.5
 16
0.0
 26
0.0
 36
1.0
 17
0.0
 27
0.0
 37
0.0
 40
399.4128674871561
 41
2.646007742937789
 42
50.0
 43
0.0
 44
0.0
 50
0.0
 51
0.0
 71
     0
 72
   100
 73
     1
 74
     3
 75
     0
 76
     0
 77
     0
 78
     0
  0
ENDTAB
  0
TABLE
  2
LTYPE
 70
     1
  0
LTYPE
  2
CONTINUOUS
 70
     0
  3
Solid line
 72
    65
 73
     0
 40
0.0
  0
ENDTAB
  0
TABLE
  2
LAYER
 70
     5
  0
LAYER
  2
0
 70
     0
 62
     7
  6
CONTINUOUS
  0
LAYER
  2
DEFAULT
 70
     0
 62
     7
  6
CONTINUOUS
  0
LAYER
  2
PROJITEM005
 70
     0
 62
     7
  6
CONTINUOUS
  0
LAYER
  2
PROJITEM004
 70
     0
 62
     7
  6
CONTINUOUS
  0
LAYER
  2
VIEW
 70
     0
 62
     7
  6
CONTINUOUS
  0
ENDTAB
  0
TABLE
  2
STYLE
 70
     1
  0
STYLE
  2
STANDARD
 70
     0
 40
0.0
 41
1.0
 50
0.0
 71
     0
 42
0.2
  3
txt
  4

  0
ENDTAB
  0
TABLE
  2
VIEW
 70
     0
  0
ENDTAB
  0
TABLE
  2
UCS
 70
     0
  0
ENDTAB
  0
TABLE
  2
APPID
 70
     1
  0
APPID
  2
ACAD
 70
     0
  0
ENDTAB
  0
TABLE
  2
DIMSTYLE
 70
     1
  0
DIMSTYLE
  2
STANDARD
 70
     0
  3

  4

  5

  6

  7

 40
1.0
 41
0.18
 42
0.0625
 43
0.38
 44
0.18
 45
0.0
 46
0.0
 47
0.0
 48
0.0
140
0.18
141
0.09
142
0.0
143
25.4
144
1.0
145
0.0
146
1.0
147
0.09
 71
     0
 72
     0
 73
     1
 74
     1
 75
     0
 76
     0
 77
     0
 78
     0
170
     0
171
     2
172
     0
173
     0
174
     0
175
     0
176
     0
177
     0
178
     0
  0
ENDTAB
  0
ENDSEC
  0
SECTION
  2
BLOCKS
  0
BLOCK
  8
0
  2
$MODEL_SPACE
 70
     0
 10
0.0
 20
0.0
 30
0.0
  3
$MODEL_SPACE
  1

  0
ENDBLK
  5
21
  8
0
  0
BLOCK
 67
     1
  8
0
  2
$PAPER_SPACE
 70
     0
 10
0.0
 20
0.0
 30
0.0
  3
$PAPER_SPACE
  1

  0
ENDBLK
  5
1D
 67
     1
  8
0
  0
ENDSEC
  0
SECTION
  2
ENTITIES
  0
ARC
  5
6F
  8
DEFAULT
 62
     5
 10
237.3060917210295
 20
643.7500199763892
 30
0.0
 40
3.498621896445047
 50
313.9945181087882
 51
350.0245809014402
  0
ARC
  5
70
  8
DEFAULT
 62
     5
 10
238.098375322593
 20
643.1342786114257
 30
0.0
 40
2.509378989654134
 50
268.7995699757063
 51
310.7440017320201
  0
ARC
  5
71
  8
DEFAULT
 62
     5
 10
237.9610868258102
 20
643.3543135141517
 30
0.0
 40
2.73017785007355
 50
220.3650626589204
 51
271.778168853412
  0
ARC
  5
72
  8
DEFAULT
 62
     5
 10
239.9491514649402
 20
644.3563923928612
 30
0.0
 40
4.921931854768401
 50
174.7181842163763
 51
214.2528990294191
  0
ARC
  5
73
  8
DEFAULT
 62
     5
 10
239.6191756949595
 20
645.2142415960816
 30
0.0
 40
4.58894308433279
 50
144.2531323547036
 51
185.0602900479716
  0
ARC
  5
74
  8
DEFAULT
 62
     5
 10
238.0055250128067
 20
646.0374677064041
 30
0.0
 40
2.811799277576061
 50
88.07041346579268
 51
138.6493535138736
  0
ARC
  5
75
  8
DEFAULT
 62
     5
 10
238.1770774997728
 20
646.2103795235585
 30
0.0
 40
2.63841326621399
 50
52.77342586575215
 51
91.66966734235642
  0
ARC
  5
76
  8
DEFAULT
 62
     5
 10
238.2156094430425
 20
646.3372753727035
 30
0.0
 40
2.514484299046805
 50
11.71144300531283
 51
51.72321619526215
  0
LINE
  5
77
  8
DEFAULT
 62
     5
 10
242.9740442354489
 20
647.4402651793614
 30
0.0
 11
240.6777479391526
 21
646.8476725867688
 31
0.0
  0
ARC
  5
78
  8
DEFAULT
 62
     5
 10
238.4189919558093
 20
646.3356464907126
 30
0.0
 40
4.687076244052598
 50
13.63131435009205
 51
44.6781106630518
  0
ARC
  5
79
  8
DEFAULT
 62
     5
 10
238.4031403259177
 20
645.9491522467453
 30
0.0
 40
4.977090387721553
 50
47.71496896937392
 51
92.435535374549
  0
ARC
  5
7A
  8
DEFAULT
 62
     5
 10
237.9816971836394
 20
645.65100104101
 30
0.0
 40
5.274925046947384
 50
87.71904592684268
 51
136.6864712047543
  0
ARC
  5
7B
  8
DEFAULT
 62
     5
 10
239.1368330454486
 20
645.0368962241037
 30
0.0
 40
6.545813033039428
 50
139.7127769619441
 51
183.5631754350065
  0
ARC
  5
7C
  8
DEFAULT
 62
     5
 10
238.8137364807957
 20
644.2844590745765
 30
0.0
 40
6.219672946387482
 50
176.8144901065434
 51
221.3023814298225
  0
ARC
  5
7D
  8
DEFAULT
 62
     5
 10
237.9064286490805
 20
643.7116144140251
 30
0.0
 40
5.162724515601812
 50
223.1728451406922
 51
271.7782810070689
  0
ARC
  5
7E
  8
DEFAULT
 62
     5
 10
238.2724254738966
 20
643.6863507239636
 30
0.0
 40
5.139096326249072
 50
267.7050584585705
 51
305.4488858452609
  0
ARC
  5
7F
  8
DEFAULT
 62
     5
 10
237.9409625558389
 20
643.5543272967077
 30
0.0
 40
5.235271641052609
 50
309.2448201172325
 51
347.2983782784446
  0
LINE
  5
80
  8
DEFAULT
 62
     5
 10
240.7518220132266
 20
643.1439688830651
 30
0.0
 11
243.0481183095229
 21
642.4032281423245
 31
0.0
  0
ARC
  5
81
  8
DEFAULT
 62
     5
 10
249.8715603170902
 20
643.0673678469325
 30
0.0
 40
5.344423927549835
 50
178.260311626737
 51
206.5133228978466
  0
ARC
  5
82
  8
DEFAULT
 62
     5
 10
248.3532690160675
 20
642.4046684750266
 30
0.0
 40
3.690951123629655
 50
207.829357806611
 51
243.7960756150947
  0
ARC
  5
83
  8
DEFAULT
 62
     5
 10
248.9758158112404
 20
643.5050139260783
 30
0.0
 40
4.953641680506288
 50
242.9552851068532
 51
270.0732199272363
  0
ARC
  5
84
  8
DEFAULT
 62
     5
 10
249.1012532428065
 20
642.7863706831207
 30
0.0
 40
4.23666897347485
 50
268.3890104354318
 51
316.1683840769723
  0
ARC
  5
85
  8
DEFAULT
 62
     5
 10
248.9002838422873
 20
642.9868830228008
 30
0.0
 40
4.520510304321882
 50
316.0991094726585
 51
1.829960797439861
  0
ARC
  5
86
  8
DEFAULT
 62
     5
 10
248.9528619945915
 20
643.2769042915398
 30
0.0
 40
4.468001819898102
 50
358.1317098974977
 51
43.94879123902939
  0
ARC
  5
87
  8
DEFAULT
 62
     5
 10
249.1128342031431
 20
643.3919007295784
 30
0.0
 40
4.27311214854185
 50
44.32731784384032
 51
91.96996516042975
  0
ARC
  5
88
  8
DEFAULT
 62
     5
 10
248.9024820456522
 20
643.0033489773584
 30
0.0
 40
4.659570602357352
 50
89.21963203499368
 51
118.5597929667299
  0
ARC
  5
89
  8
DEFAULT
 62
     5
 10
248.5397106870208
 20
643.7082333363088
 30
0.0
 40
3.867068942211248
 50
118.8318095034148
 51
153.1610350812231
  0
ARC
  5
8A
  8
DEFAULT
 62
     5
 10
249.2902917850556
 20
643.2146699226304
 30
0.0
 40
4.760715459209655
 50
151.9391303283216
 51
179.8201073407797
  0
ARC
  5
8B
  8
DEFAULT
 62
     5
 10
249.8105182067762
 20
643.3083544027342
 30
0.0
 40
2.991411040754063
 50
142.8740851018558
 51
183.860842983115
  0
ARC
  5
8C
  8
DEFAULT
 62
     5
 10
248.8842003436598
 20
643.9354506036738
 30
0.0
 40
1.875283669225219
 50
89.41208358049472
 51
141.0679209762865
  0
ARC
  5
8D
  8
DEFAULT
 62
     5
 10
248.9248225894121
 20
643.9460280201652
 30
0.0
 40
1.86473010118133
 50
38.77640312110913
 51
90.65694191496726
  0
ARC
  5
8E
  8
DEFAULT
 62
     5
 10
248.0024459975916
 20
643.3186820130707
 30
0.0
 40
2.978025216286309
 50
356.2350865018913
 51
37.07168058540091
  0
ARC
  5
8F
  8
DEFAULT
 62
     5
 10
247.9483752203656
 20
642.9144892093988
 30
0.0
 40
3.032854533797968
 50
323.2530680751439
 51
3.944815398816534
  0
ARC
  5
90
  8
DEFAULT
 62
     5
 10
248.9248224215405
 20
642.26783508004
 30
0.0
 40
1.864729507444371
 50
269.3430630342209
 51
321.2236278239485
  0
ARC
  5
91
  8
DEFAULT
 62
     5
 10
248.8842005117529
 20
642.2784124891189
 30
0.0
 40
1.875283068268301
 50
218.9320481217828
 51
270.5879114718769
  0
ARC
  5
92
  8
DEFAULT
 62
     5
 10
249.8105205224964
 20
642.9055106029688
 30
0.0
 40
2.991413338873287
 50
176.1391635071765
 51
217.1258995579696
  0
LINE
  5
93
  8
DEFAULT
 62
     5
 10
257.4925627539674
 20
638.7735985126948
 30
0.0
 11
255.1962664576711
 21
638.7735985126948
 31
0.0
  0
LINE
  5
94
  8
DEFAULT
 62
     5
 10
257.4925627539674
 20
650.6995244386208
 30
0.0
 11
257.4925627539674
 21
638.7735985126948
 31
0.0
  0
LINE
  5
95
  8
DEFAULT
 62
     5
 10
255.1962664576711
 20
650.6995244386208
 30
0.0
 11
257.4925627539674
 21
650.6995244386208
 31
0.0
  0
LINE
  5
96
  8
DEFAULT
 62
     5
 10
255.1962664576711
 20
638.7735985126948
 30
0.0
 11
255.1962664576711
 21
650.6995244386208
 31
0.0
  0
LINE
  5
97
  8
DEFAULT
 62
     5
 10
262.08515534656
 20
638.7735985126948
 30
0.0
 11
259.7888590502637
 21
638.7735985126948
 31
0.0
  0
LINE
  5
98
  8
DEFAULT
 62
     5
 10
262.08515534656
 20
650.6995244386208
 30
0.0
 11
262.08515534656
 21
638.7735985126948
 31
0.0
  0
LINE
  5
99
  8
DEFAULT
 62
     5
 10
259.7888590502637
 20
650.6995244386208
 30
0.0
 11
262.08515534656
 21
650.6995244386208
 31
0.0
  0
LINE
  5
9A
  8
DEFAULT
 62
     5
 10
259.7888590502637
 20
638.7735985126948
 30
0.0
 11
259.7888590502637
 21
650.6995244386208
 31
0.0
  0
ARC
  5
9B
  8
DEFAULT
 62
     5
 10
267.76329973354
 20
644.3495146126871
 30
0.0
 40
1.730900268010371
 50
131.8832255126467
 51
165.817711006123
  0
ARC
  5
9C
  8
DEFAULT
 62
     5
 10
267.4201924419926
 20
644.4377359867934
 30
0.0
 40
1.449542476957693
 50
86.58842567010261
 51
124.0903098983584
  0
ARC
  5
9D
  8
DEFAULT
 62
     5
 10
267.6957396537535
 20
644.1611904940511
 30
0.0
 40
1.733882366675478
 50
55.94263924993975
 51
96.26746730820702
  0
ARC
  5
9E
  8
DEFAULT
 62
     5
 10
267.7091102407788
 20
644.7617197984985
 30
0.0
 40
1.271179330345268
 50
354.3181458611962
 51
41.11861076838515
  0
LINE
  5
9F
  8
DEFAULT
 62
     5
 10
268.9740442354488
 20
644.4032281423245
 30
0.0
 11
268.9740442354488
 21
644.6358671901614
 31
0.0
  0
ARC
  5
A0
  8
DEFAULT
 62
     5
 10
264.9073241763033
 20
655.6205096663339
 30
0.0
 40
11.93170636700131
 50
279.1179904553924
 51
289.9276370485028
  0
ARC
  5
A1
  8
DEFAULT
 62
     5
 10
268.0042124612846
 20
636.5836480854765
 30
0.0
 40
7.355479678500206
 50
99.4375268491655
 51
113.9575582475087
  0
ARC
  5
A2
  8
DEFAULT
 62
     5
 10
266.0000125355066
 20
641.2715372710963
 30
0.0
 40
2.25879234102382
 50
115.7850175715131
 51
149.3202322545673
  0
ARC
  5
A3
  8
DEFAULT
 62
     5
 10
266.2253529990361
 20
641.1572866192827
 30
0.0
 40
2.510943288033574
 50
149.7017198693735
 51
180.9905895128796
  0
ARC
  5
A4
  8
DEFAULT
 62
     5
 10
266.1312533881367
 20
641.0468261414564
 30
0.0
 40
2.417398477375662
 50
178.4105964305278
 51
227.0418252861266
  0
ARC
  5
A5
  8
DEFAULT
 62
     5
 10
266.4238005905668
 20
641.4868867433288
 30
0.0
 40
2.94006966521076
 50
228.7138226467358
 51
273.1912429493763
  0
ARC
  5
A6
  8
DEFAULT
 62
     5
 10
266.6091579907389
 20
642.084065212532
 30
0.0
 40
3.532755488804971
 50
269.6482693741282
 51
293.4009598741291
  0
ARC
  5
A7
  8
DEFAULT
 62
     5
 10
266.3277093769043
 20
642.6056648304041
 30
0.0
 40
4.123550644320064
 50
294.1115382807212
 51
315.4381483601234
  0
LINE
  5
A8
  8
DEFAULT
 62
     5
 10
269.3467294559559
 20
639.4448948796347
 30
0.0
 11
269.2657119617699
 21
639.7122566795211
 31
0.0
  0
LINE
  5
A9
  8
DEFAULT
 62
     5
 10
269.5666368280415
 20
638.7735985126948
 30
0.0
 11
269.3467294559559
 21
639.4448948796347
 31
0.0
  0
LINE
  5
AA
  8
DEFAULT
 62
     5
 10
271.8629331243378
 20
638.7735985126948
 30
0.0
 11
269.5666368280415
 21
638.7735985126948
 31
0.0
  0
ARC
  5
AB
  8
DEFAULT
 62
     5
 10
275.8199500089636
 20
641.0371263208258
 30
0.0
 40
4.558677523514539
 50
193.9300067760614
 51
209.770801839449
  0
ARC
  5
AC
  8
DEFAULT
 62
     5
 10
279.5315928404395
 20
641.3911599988292
 30
0.0
 40
8.264706454308689
 50
178.343431642186
 51
190.1149198716225
  0
LINE
  5
AD
  8
DEFAULT
 62
     5
 10
271.2703405317451
 20
644.3152660977285
 30
0.0
 11
271.2703405317451
 21
641.6300806299688
 31
0.0
  0
ARC
  5
AE
  8
DEFAULT
 62
     5
 10
266.4463416709559
 20
644.6625356878534
 30
0.0
 40
4.836482314360563
 50
355.8824994975324
 51
20.72031271770571
  0
ARC
  5
AF
  8
DEFAULT
 62
     5
 10
269.0253398792044
 20
645.2373959950017
 30
0.0
 40
2.252309562874641
 50
30.29899769647172
 51
66.21983099005568
  0
ARC
  5
B0
  8
DEFAULT
 62
     5
 10
267.986941972133
 20
642.3944167441417
 30
0.0
 40
5.276276231894585
 50
68.35015950611248
 51
93.19583731453113
  0
ARC
  5
B1
  8
DEFAULT
 62
     5
 10
267.4060739460104
 20
643.5648979033928
 30
0.0
 40
4.107608632257616
 50
85.99736018460881
 51
122.5557386378892
  0
ARC
  5
B2
  8
DEFAULT
 62
     5
 10
267.3727833927456
 20
644.3722676886501
 30
0.0
 40
3.433325610016329
 50
129.3537682085851
 51
168.2762710025826
  0
LINE
  5
B3
  8
DEFAULT
 62
     5
 10
266.08515534656
 20
644.7735985126948
 30
0.0
 11
264.0110812724859
 21
645.0698948089911
 31
0.0
  0
LINE
  5
B4
  8
DEFAULT
 62
     5
 10
268.9740442354488
 20
642.4645716709449
 30
0.0
 11
268.9740442354488
 21
642.9217466608429
 31
0.0
  0
ARC
  5
B5
  8
DEFAULT
 62
     5
 10
264.2444179166174
 20
642.2655210108665
 30
0.0
 40
4.733813080494489
 50
348.8200066324551
 51
2.409923246701498
  0
ARC
  5
B6
  8
DEFAULT
 62
     5
 10
267.5083241557545
 20
641.7400218426835
 30
0.0
 40
1.434760761232113
 50
306.6162767139246
 51
344.12979148606
  0
ARC
  5
B7
  8
DEFAULT
 62
     5
 10
267.2048385409604
 20
642.033159884705
 30
0.0
 40
1.852338566804311
 50
270.8089086703802
 51
308.7432843414105
  0
ARC
  5
B8
  8
DEFAULT
 62
     5
 10
267.1925076387691
 20
641.354686837204
 30
0.0
 40
1.174311596839535
 50
224.4931823485007
 51
271.8778886342624
  0
ARC
  5
B9
  8
DEFAULT
 62
     5
 10
267.1594695379636
 20
641.3511607196394
 30
0.0
 40
1.148458672254281
 50
179.3655616979573
 51
225.5228831191666
  0
ARC
  5
BA
  8
DEFAULT
 62
     5
 10
266.9778730805054
 20
641.3672914841185
 30
0.0
 40
0.9667978362218599
 50
123.6866761500135
 51
180.2023317014793
  0
ARC
  5
BB
  8
DEFAULT
 62
     5
 10
268.2619921413504
 20
638.7108212639703
 30
0.0
 40
3.910460531917946
 50
99.19322986520942
 51
117.7431657009978
  0
LINE
  5
BC
  8
DEFAULT
 62
     5
 10
268.9740442354488
 20
642.9217466608429
 30
0.0
 11
267.6372391920596
 21
642.5710525166338
 31
0.0
  0
LINE
  5
BD
  8
DEFAULT
 62
     5
 10
273.6407109021155
 20
635.4402651793614
 30
0.0
 11
273.6407109021155
 21
647.4402651793614
 31
0.0
  0
LINE
  5
BE
  8
DEFAULT
 62
     5
 10
275.9370071984118
 20
635.4402651793614
 30
0.0
 11
273.6407109021155
 21
635.4402651793614
 31
0.0
  0
LINE
  5
BF
  8
DEFAULT
 62
     5
 10
275.9370071984118
 20
639.8071644048248
 30
0.0
 11
275.9370071984118
 21
635.4402651793614
 31
0.0
  0
ARC
  5
C0
  8
DEFAULT
 62
     5
 10
279.2085719951423
 20
642.6411558705958
 30
0.0
 40
4.3283534799354
 50
220.9007318098053
 51
241.5661874466089
  0
ARC
  5
C1
  8
DEFAULT
 62
     5
 10
278.39064393342
 20
641.414531687747
 30
0.0
 40
2.863442913844366
 50
244.2726796918135
 51
270.811948416138
  0
ARC
  5
C2
  8
DEFAULT
 62
     5
 10
278.443252598748
 20
641.7837642912681
 30
0.0
 40
3.232410393028838
 50
269.7867331572219
 51
321.2841313139737
  0
ARC
  5
C3
  8
DEFAULT
 62
     5
 10
276.9893245453413
 20
642.8452314371797
 30
0.0
 40
5.031406725793063
 50
322.2083304958643
 51
3.549163290848773
  0
ARC
  5
C4
  8
DEFAULT
 62
     5
 10
277.1371219655878
 20
643.4520394245457
 30
0.0
 40
4.882899176811701
 50
356.5323869042126
 51
38.20640735221283
  0
ARC
  5
C5
  8
DEFAULT
 62
     5
 10
278.4706537328468
 20
644.4351658475624
 30
0.0
 40
3.227389317839533
 50
39.13414313351488
 51
90.37128862661132
  0
ARC
  5
C6
  8
DEFAULT
 62
     5
 10
278.4173776204063
 20
644.7001897674448
 30
0.0
 40
2.962474401380867
 50
89.3740878535401
 51
120.8502051532842
  0
ARC
  5
C7
  8
DEFAULT
 62
     5
 10
278.5543292022249
 20
644.4116367585522
 30
0.0
 40
3.280569236724005
 50
120.3193567705113
 51
147.4566672859269
  0
LINE
  5
C8
  8
DEFAULT
 62
     5
 10
275.7888590502637
 20
647.4402651793614
 30
0.0
 11
275.7888590502637
 21
646.1763773501268
 31
0.0
  0
LINE
  5
C9
  8
DEFAULT
 62
     5
 10
273.6407109021155
 20
647.4402651793614
 30
0.0
 11
275.7888590502637
 21
647.4402651793614
 31
0.0
  0
ARC
  5
CA
  8
DEFAULT
 62
     5
 10
278.9783730499386
 20
643.4709103067238
 30
0.0
 40
3.049179120397348
 50
144.9882955085167
 51
184.1025636427777
  0
ARC
  5
CB
  8
DEFAULT
 62
     5
 10
277.8278319383024
 20
644.1876806170504
 30
0.0
 40
1.697176447906745
 50
89.24475713170712
 51
142.5212040476848
  0
ARC
  5
CC
  8
DEFAULT
 62
     5
 10
277.853988161295
 20
644.2501914939891
 30
0.0
 40
1.634522513559822
 50
35.88161498662821
 51
90.13269813492269
  0
ARC
  5
CD
  8
DEFAULT
 62
     5
 10
276.4153824113819
 20
643.3873684322837
 30
0.0
 40
3.308974120938731
 50
355.6409990602575
 51
33.38569955694864
  0
ARC
  5
CE
  8
DEFAULT
 62
     5
 10
276.2378605512528
 20
642.8383660096064
 30
0.0
 40
3.489629050995542
 50
327.9163505649297
 51
4.890584762904584
  0
ARC
  5
CF
  8
DEFAULT
 62
     5
 10
277.9023554293033
 20
641.9301526471833
 30
0.0
 40
1.601049758400575
 50
269.5418747231207
 51
323.8116259011411
  0
ARC
  5
D0
  8
DEFAULT
 62
     5
 10
277.8969925157743
 20
642.0422656927462
 30
0.0
 40
1.71312777426967
 50
215.6716059179294
 51
269.7512137839977
  0
ARC
  5
D1
  8
DEFAULT
 62
     5
 10
279.452626333459
 20
642.9791646039243
 30
0.0
 40
3.526249490253313
 50
175.5499574469991
 51
213.2980282733154
  0
ARC
  5
D2
  8
DEFAULT
 62
     5
 10
286.1858983445507
 20
641.9974151932303
 30
0.0
 40
3.305060952621564
 50
193.639477995301
 51
235.642849666004
  0
ARC
  5
D3
  8
DEFAULT
 62
     5
 10
286.860341206252
 20
643.3585654359871
 30
0.0
 40
4.814004243697688
 50
238.159578227903
 51
273.0491002450745
  0
ARC
  5
D4
  8
DEFAULT
 62
     5
 10
287.4335846659927
 20
642.9090975728014
 30
0.0
 40
4.369249001160414
 50
265.8370475315998
 51
306.8687304499963
  0
ARC
  5
D5
  8
DEFAULT
 62
     5
 10
288.403699308114
 20
641.4790647309619
 30
0.0
 40
2.644420612867792
 50
308.643358781666
 51
359.9367468738358
  0
ARC
  5
D6
  8
DEFAULT
 62
     5
 10
288.909248586463
 20
641.5911242814037
 30
0.0
 40
2.141957946692385
 50
356.9229204449131
 51
48.38809149795566
  0
ARC
  5
D7
  8
DEFAULT
 62
     5
 10
286.7323490383392
 20
637.9574792912933
 30
0.0
 40
6.353069783037744
 50
55.48997422037526
 51
80.49079123416314
  0
ARC
  5
D8
  8
DEFAULT
 62
     5
 10
289.1689845599054
 20
652.5459107663887
 30
0.0
 40
8.437452921693279
 50
245.3242690751278
 51
260.5379478007172
  0
ARC
  5
D9
  8
DEFAULT
 62
     5
 10
285.9376490271059
 20
645.3088043030472
 30
0.0
 40
0.5191982132227669
 50
180.6919878173374
 51
235.8909058817811
  0
ARC
  5
DA
  8
DEFAULT
 62
     5
 10
285.9742733523966
 20
645.3051047341297
 30
0.0
 40
0.5557906184884529
 50
122.1025650625544
 51
180.2650295622456
  0
ARC
  5
DB
  8
DEFAULT
 62
     5
 10
286.7859042920309
 20
643.588609923561
 30
0.0
 40
2.451477958841025
 50
85.5984778103112
 51
116.8440511744687
  0
ARC
  5
DC
  8
DEFAULT
 62
     5
 10
287.089482437402
 20
644.2065577070258
 30
0.0
 40
1.829944782125126
 50
57.29557343185149
 51
93.61678476170569
  0
ARC
  5
DD
  8
DEFAULT
 62
     5
 10
287.2076333072803
 20
644.6119371506192
 30
0.0
 40
1.43000390616345
 50
12.51231288667268
 51
52.4976347664119
  0
LINE
  5
DE
  8
DEFAULT
 62
     5
 10
290.7518220132266
 20
645.2921170312133
 30
0.0
 11
288.6036738650785
 21
644.9217466608429
 31
0.0
  0
ARC
  5
DF
  8
DEFAULT
 62
     5
 10
287.7738924851025
 20
644.5760376632313
 30
0.0
 40
3.06281470802972
 50
13.52076832651134
 51
54.30739001654121
  0
ARC
  5
E0
  8
DEFAULT
 62
     5
 10
287.2485764063996
 20
642.9913426554109
 30
0.0
 40
4.682874801116993
 50
60.41117304737026
 51
94.05622536397172
  0
ARC
  5
E1
  8
DEFAULT
 62
     5
 10
286.5841549107504
 20
643.5467114148421
 30
0.0
 40
4.12923947447756
 50
85.37193491886813
 51
125.9526890296469
  0
ARC
  5
E2
  8
DEFAULT
 62
     5
 10
285.7008890738854
 20
645.0095877697493
 30
0.0
 40
2.430719311612684
 50
129.3460050027539
 51
180.679169048214
  0
ARC
  5
E3
  8
DEFAULT
 62
     5
 10
285.5232900342377
 20
644.9083310914801
 30
0.0
 40
2.254113934526794
 50
178.1582720960514
 51
237.11101242342
  0
ARC
  5
E4
  8
DEFAULT
 62
     5
 10
289.814934625361
 20
654.1174356421428
 30
0.0
 40
12.396593264577
 50
243.5809247213919
 51
260.739862117501
  0
ARC
  5
E5
  8
DEFAULT
 62
     5
 10
287.5478734236149
 20
640.0840843388395
 30
0.0
 40
1.81880097353101
 50
55.09479244160784
 51
81.39168200520241
  0
ARC
  5
E6
  8
DEFAULT
 62
     5
 10
288.1329007136118
 20
641.1564007983131
 30
0.0
 40
0.6192617938866632
 50
358.0999050951305
 51
42.6149035809774
  0
ARC
  5
E7
  8
DEFAULT
 62
     5
 10
288.0052510986392
 20
641.1126061545926
 30
0.0
 40
0.7469332270842388
 50
306.6292317714877
 51
1.784661908063166
  0
ARC
  5
E8
  8
DEFAULT
 62
     5
 10
287.2717045554742
 20
642.4037985842949
 30
0.0
 40
2.228211109531157
 50
266.0034536137422
 51
301.9521232462417
  0
ARC
  5
E9
  8
DEFAULT
 62
     5
 10
286.9943996653917
 20
642.2103829708477
 30
0.0
 40
2.033041282067168
 50
236.2421151013718
 51
273.4404973158058
  0
ARC
  5
EA
  8
DEFAULT
 62
     5
 10
286.8901702947341
 20
641.8079071736803
 30
0.0
 40
1.646217052779399
 50
190.2724325504404
 51
231.4685841511424
  0
LINE
  5
EB
  8
DEFAULT
 62
     5
 10
282.9740442354488
 20
641.2180429571392
 30
0.0
 11
285.2703405317451
 21
641.5143392534355
 31
0.0
  0
LINE
  5
EC
  8
DEFAULT
 62
     5
 10
295.3444146058192
 20
648.6995244386208
 30
0.0
 11
293.0481183095229
 21
648.6995244386208
 31
0.0
  0
LINE
  5
ED
  8
DEFAULT
 62
     5
 10
295.3444146058192
 20
650.6995244386208
 30
0.0
 11
295.3444146058192
 21
648.6995244386208
 31
0.0
  0
LINE
  5
EE
  8
DEFAULT
 62
     5
 10
293.0481183095229
 20
650.6995244386208
 30
0.0
 11
295.3444146058192
 21
650.6995244386208
 31
0.0
  0
LINE
  5
EF
  8
DEFAULT
 62
     5
 10
293.0481183095229
 20
648.6995244386208
 30
0.0
 11
293.0481183095229
 21
650.6995244386208
 31
0.0
  0
LINE
  5
F0
  8
DEFAULT
 62
     5
 10
295.3444146058192
 20
638.7735985126948
 30
0.0
 11
293.0481183095229
 21
638.7735985126948
 31
0.0
  0
LINE
  5
F1
  8
DEFAULT
 62
     5
 10
295.3444146058192
 20
647.4402651793614
 30
0.0
 11
295.3444146058192
 21
638.7735985126948
 31
0.0
  0
LINE
  5
F2
  8
DEFAULT
 62
     5
 10
293.0481183095229
 20
647.4402651793614
 30
0.0
 11
295.3444146058192
 21
647.4402651793614
 31
0.0
  0
LINE
  5
F3
  8
DEFAULT
 62
     5
 10
293.0481183095229
 20
638.7735985126948
 30
0.0
 11
293.0481183095229
 21
647.4402651793614
 31
0.0
  0
LINE
  5
F4
  8
DEFAULT
 62
     5
 10
299.7888590502637
 20
638.7735985126948
 30
0.0
 11
297.6407109021155
 21
638.7735985126948
 31
0.0
  0
LINE
  5
F5
  8
DEFAULT
 62
     5
 10
299.7888590502637
 20
640.0374874722273
 30
0.0
 11
299.7888590502637
 21
638.7735985126948
 31
0.0
  0
ARC
  5
F6
  8
DEFAULT
 62
     5
 10
302.7365079762773
 20
642.0743119155744
 30
0.0
 40
3.58291613131617
 50
214.6444603695358
 51
241.2225452594129
  0
ARC
  5
F7
  8
DEFAULT
 62
     5
 10
302.479067767957
 20
641.5561792107379
 30
0.0
 40
3.004934969932399
 50
240.7689636725708
 51
269.4628564847154
  0
ARC
  5
F8
  8
DEFAULT
 62
     5
 10
302.4646350725897
 20
641.76165072559
 30
0.0
 40
3.210303829759567
 50
269.7548121292328
 51
321.380955481205
  0
ARC
  5
F9
  8
DEFAULT
 62
     5
 10
300.9021274132706
 20
642.8631209604268
 30
0.0
 40
5.119865751503449
 50
322.6638660988786
 51
3.741412067184754
  0
ARC
  5
FA
  8
DEFAULT
 62
     5
 10
301.1785329401759
 20
643.5216267451007
 30
0.0
 40
4.843425371117876
 50
356.1594097740781
 51
38.08402893660559
  0
ARC
  5
FB
  8
DEFAULT
 62
     5
 10
302.4860375053013
 20
644.368339363887
 30
0.0
 40
3.29499020834695
 50
40.51983112126644
 51
91.29544765063035
  0
ARC
  5
FC
  8
DEFAULT
 62
     5
 10
302.4262906658244
 20
644.4791573712727
 30
0.0
 40
3.183364183618693
 50
90.26540630819744
 51
141.4409609119326
  0
LINE
  5
FD
  8
DEFAULT
 62
     5
 10
299.9370071984118
 20
650.6995244386208
 30
0.0
 11
299.9370071984118
 21
646.4634142458766
 31
0.0
  0
LINE
  5
FE
  8
DEFAULT
 62
     5
 10
297.6407109021155
 20
650.6995244386208
 30
0.0
 11
299.9370071984118
 21
650.6995244386208
 31
0.0
  0
LINE
  5
FF
  8
DEFAULT
 62
     5
 10
297.6407109021155
 20
638.7735985126948
 30
0.0
 11
297.6407109021155
 21
650.6995244386208
 31
0.0
  0
ARC
  5
100
  8
DEFAULT
 62
     5
 10
302.960018126059
 20
643.498622557839
 30
0.0
 40
3.031809438894139
 50
145.0238802827934
 51
184.3661269770972
  0
ARC
  5
101
  8
DEFAULT
 62
     5
 10
301.8038647703145
 20
644.2003581173999
 30
0.0
 40
1.684495592443758
 50
89.25059474189837
 51
142.0377759795355
  0
ARC
  5
102
  8
DEFAULT
 62
     5
 10
301.854364191109
 20
644.2223467061688
 30
0.0
 40
1.662606649418955
 50
36.88916019207791
 51
90.98107963565225
  0
ARC
  5
103
  8
DEFAULT
 62
     5
 10
300.2356657066324
 20
643.3498884663692
 30
0.0
 40
3.491704919578043
 50
355.1338305972957
 51
32.39067744464908
  0
ARC
  5
104
  8
DEFAULT
 62
     5
 10
300.4315373728589
 20
642.7884738927673
 30
0.0
 40
3.293942237349073
 50
326.8118940658014
 51
4.618279131283307
  0
ARC
  5
105
  8
DEFAULT
 62
     5
 10
301.9041377462999
 20
641.9133787536394
 30
0.0
 40
1.584254516375482
 50
270.3516087234791
 51
324.1441333507948
  0
ARC
  5
106
  8
DEFAULT
 62
     5
 10
301.9147305528887
 20
642.1071550276924
 30
0.0
 40
1.778001172648742
 50
208.6777372109103
 51
269.9719410191532
  0
ARC
  5
107
  8
DEFAULT
 62
     5
 10
303.7375380889689
 20
643.0060265271751
 30
0.0
 40
3.809536298152317
 50
176.0596132566309
 51
207.382308833049
  0
LINE
  5
108
  8
DEFAULT
 62
     5
 10
310.08515534656
 20
638.7735985126948
 30
0.0
 11
307.7888590502637
 21
638.7735985126948
 31
0.0
  0
LINE
  5
109
  8
DEFAULT
 62
     5
 10
310.08515534656
 20
650.6995244386208
 30
0.0
 11
310.08515534656
 21
638.7735985126948
 31
0.0
  0
LINE
  5
10A
  8
DEFAULT
 62
     5
 10
307.7888590502637
 20
650.6995244386208
 30
0.0
 11
310.08515534656
 21
650.6995244386208
 31
0.0
  0
LINE
  5
10B
  8
DEFAULT
 62
     5
 10
307.7888590502637
 20
638.7735985126948
 30
0.0
 11
307.7888590502637
 21
650.6995244386208
 31
0.0
  0
ARC
  5
10C
  8
DEFAULT
 62
     5
 10
315.7489294769191
 20
641.9303943817071
 30
0.0
 40
1.720619017097205
 50
309.8704139527593
 51
346.0068734975936
  0
ARC
  5
10D
  8
DEFAULT
 62
     5
 10
315.9780690443793
 20
641.8253716995956
 30
0.0
 40
1.497063563929248
 50
268.0737802158685
 51
305.7127643708755
  0
ARC
  5
10E
  8
DEFAULT
 62
     5
 10
315.884504232856
 20
642.1205718077481
 30
0.0
 40
1.791939625394648
 50
223.1718025183386
 51
271.3828474240115
  0
ARC
  5
10F
  8
DEFAULT
 62
     5
 10
316.293563590646
 20
642.4015468669888
 30
0.0
 40
2.283739128201344
 50
178.0990568725093
 51
221.2909003311105
  0
LINE
  5
110
  8
DEFAULT
 62
     5
 10
319.8629331243378
 20
642.4773022163985
 30
0.0
 11
314.0110812724859
 21
642.4773022163985
 31
0.0
  0
ARC
  5
111
  8
DEFAULT
 62
     5
 10
314.2722389566097
 20
643.0406610126073
 30
0.0
 40
5.619006532327131
 50
354.2458860579203
 51
36.54405305836555
  0
ARC
  5
112
  8
DEFAULT
 62
     5
 10
315.9037988566816
 20
643.7822137671047
 30
0.0
 40
3.884874480012342
 50
42.09421627119431
 51
92.78875801437378
  0
ARC
  5
113
  8
DEFAULT
 62
     5
 10
315.6170125414077
 20
643.929168207302
 30
0.0
 40
3.73459926302608
 50
88.49981548250125
 51
137.8442905362506
  0
ARC
  5
114
  8
DEFAULT
 62
     5
 10
316.5174713064648
 20
643.3237013364125
 30
0.0
 40
4.811001816001474
 50
139.6964411077409
 51
183.3691958329048
  0
ARC
  5
115
  8
DEFAULT
 62
     5
 10
316.7078472205966
 20
642.8457264775798
 30
0.0
 40
4.996877707814331
 50
177.7608171736367
 51
214.1941373506129
  0
ARC
  5
116
  8
DEFAULT
 62
     5
 10
315.6395368698047
 20
642.4260629755772
 30
0.0
 40
3.885650094665425
 50
217.9313661296704
 51
274.3050754920474
  0
ARC
  5
117
  8
DEFAULT
 62
     5
 10
316.080453240154
 20
642.551107134204
 30
0.0
 40
4.002513837964776
 50
267.8632558196331
 51
304.0055471031305
  0
ARC
  5
118
  8
DEFAULT
 62
     5
 10
315.9986461499031
 20
642.3480012005306
 30
0.0
 40
3.884133546628145
 50
306.6825197833383
 51
343.0871710223436
  0
LINE
  5
119
  8
DEFAULT
 62
     5
 10
317.4184886798933
 20
641.5143392534355
 30
0.0
 11
319.7147849761896
 21
641.2180429571392
 31
0.0
  0
LINE
  5
11A
  8
DEFAULT
 62
     5
 10
314.0515911498768
 20
643.8847096238059
 30
0.0
 11
317.5666368280415
 21
643.8847096238059
 31
0.0
  0
ARC
  5
11B
  8
DEFAULT
 62
     5
 10
316.0770542214231
 20
644.0143797666577
 30
0.0
 40
2.029609568400991
 50
138.9778315301127
 51
183.6630767309381
  0
ARC
  5
11C
  8
DEFAULT
 62
     5
 10
315.7711032288889
 20
644.2228252571934
 30
0.0
 40
1.662540146677603
 50
88.39067061460476
 51
137.4768620086535
  0
ARC
  5
11D
  8
DEFAULT
 62
     5
 10
315.8467829428154
 20
644.2356354242137
 30
0.0
 40
1.649328965160458
 50
43.68770022018187
 51
91.00707066117933
  0
ARC
  5
11E
  8
DEFAULT
 62
     5
 10
315.4465124472854
 20
643.9729779740768
 30
0.0
 40
2.121961048543505
 50
357.6159488918154
 51
41.35019279845192
  0
ARC
  5
11F
  8
DEFAULT
 62
     5
 10
328.6303427889951
 20
641.9974151932303
 30
0.0
 40
3.305060952621564
 50
193.639477995301
 51
235.642849666004
  0
ARC
  5
120
  8
DEFAULT
 62
     5
 10
329.3047856506963
 20
643.3585654359867
 30
0.0
 40
4.814004243697351
 50
238.159578227902
 51
273.0491002450754
  0
ARC
  5
121
  8
DEFAULT
 62
     5
 10
329.8780291104372
 20
642.9090975728016
 30
0.0
 40
4.369249001160505
 50
265.8370475315992
 51
306.8687304499955
  0
ARC
  5
122
  8
DEFAULT
 62
     5
 10
330.8481437525587
 20
641.4790647309618
 30
0.0
 40
2.644420612867565
 50
308.6433587816653
 51
359.9367468738383
  0
ARC
  5
123
  8
DEFAULT
 62
     5
 10
331.3536930309076
 20
641.5911242814037
 30
0.0
 40
2.14195794669231
 50
356.9229204449099
 51
48.38809149795794
  0
ARC
  5
124
  8
DEFAULT
 62
     5
 10
329.1767934827836
 20
637.9574792912931
 30
0.0
 40
6.353069783037976
 50
55.489974220376
 51
80.49079123416298
  0
ARC
  5
125
  8
DEFAULT
 62
     5
 10
331.6134290043485
 20
652.5459107663839
 30
0.0
 40
8.437452921688372
 50
245.3242690751227
 51
260.537947800721
  0
ARC
  5
126
  8
DEFAULT
 62
     5
 10
328.3820934715505
 20
645.3088043030472
 30
0.0
 40
0.5191982132228806
 50
180.6919878173373
 51
235.8909058817725
  0
ARC
  5
127
  8
DEFAULT
 62
     5
 10
328.4187177968412
 20
645.3051047341297
 30
0.0
 40
0.5557906184885436
 50
122.1025650625693
 51
180.2650295622456
  0
ARC
  5
128
  8
DEFAULT
 62
     5
 10
329.2303487364753
 20
643.5886099235612
 30
0.0
 40
2.451477958840803
 50
85.59847781030946
 51
116.8440511744699
  0
ARC
  5
129
  8
DEFAULT
 62
     5
 10
329.5339268818464
 20
644.2065577070257
 30
0.0
 40
1.829944782125221
 50
57.29557343185342
 51
93.61678476170569
  0
ARC
  5
12A
  8
DEFAULT
 62
     5
 10
329.6520777517247
 20
644.6119371506193
 30
0.0
 40
1.430003906163426
 50
12.51231288666823
 51
52.49763476640454
  0
LINE
  5
12B
  8
DEFAULT
 62
     5
 10
333.1962664576711
 20
645.2921170312133
 30
0.0
 11
331.0481183095229
 21
644.9217466608429
 31
0.0
  0
ARC
  5
12C
  8
DEFAULT
 62
     5
 10
330.2183369295468
 20
644.5760376632311
 30
0.0
 40
3.062814708030004
 50
13.52076832651473
 51
54.30739001654109
  0
ARC
  5
12D
  8
DEFAULT
 62
     5
 10
329.6930208508441
 20
642.9913426554111
 30
0.0
 40
4.682874801116766
 50
60.41117304736949
 51
94.05622536397192
  0
ARC
  5
12E
  8
DEFAULT
 62
     5
 10
329.0285993551947
 20
643.5467114148423
 30
0.0
 40
4.12923947447731
 50
85.3719349188671
 51
125.9526890296475
  0
ARC
  5
12F
  8
DEFAULT
 62
     5
 10
328.14533351833
 20
645.0095877697493
 30
0.0
 40
2.430719311612854
 50
129.346005002758
 51
180.679169048214
  0
ARC
  5
130
  8
DEFAULT
 62
     5
 10
327.9677344786822
 20
644.9083310914801
 30
0.0
 40
2.254113934526794
 50
178.1582720960514
 51
237.11101242342
  0
ARC
  5
131
  8
DEFAULT
 62
     5
 10
332.2593790698057
 20
654.1174356421433
 30
0.0
 40
12.39659326457749
 50
243.5809247213919
 51
260.7398621175004
  0
ARC
  5
132
  8
DEFAULT
 62
     5
 10
329.9923178680594
 20
640.0840843388396
 30
0.0
 40
1.818800973530884
 50
55.09479244160725
 51
81.39168200520363
  0
ARC
  5
133
  8
DEFAULT
 62
     5
 10
330.5773451580565
 20
641.1564007983133
 30
0.0
 40
0.6192617938863829
 50
358.0999050951191
 51
42.6149035809839
  0
ARC
  5
134
  8
DEFAULT
 62
     5
 10
330.4496955430836
 20
641.1126061545925
 30
0.0
 40
0.7469332270841815
 50
306.6292317714964
 51
1.784661908072018
  0
ARC
  5
135
  8
DEFAULT
 62
     5
 10
329.7161489999185
 20
642.4037985842951
 30
0.0
 40
2.228211109531379
 50
266.0034536137441
 51
301.9521232462411
  0
ARC
  5
136
  8
DEFAULT
 62
     5
 10
329.4388441098361
 20
642.2103829708474
 30
0.0
 40
2.033041282066852
 50
236.2421151013677
 51
273.4404973158065
  0
ARC
  5
137
  8
DEFAULT
 62
     5
 10
329.3346147391784
 20
641.8079071736802
 30
0.0
 40
1.646217052779211
 50
190.2724325504376
 51
231.4685841511447
  0
LINE
  5
138
  8
DEFAULT
 62
     5
 10
325.4184886798933
 20
641.2180429571392
 30
0.0
 11
327.7147849761896
 21
641.5143392534355
 31
0.0
  0
LINE
  5
139
  8
DEFAULT
 62
     5
 10
337.9370071984118
 20
647.4402651793614
 30
0.0
 11
339.4925627539674
 21
647.4402651793614
 31
0.0
  0
LINE
  5
13A
  8
DEFAULT
 62
     5
 10
337.9370071984118
 20
650.4032281423245
 30
0.0
 11
337.9370071984118
 21
647.4402651793614
 31
0.0
  0
LINE
  5
13B
  8
DEFAULT
 62
     5
 10
335.6407109021155
 20
649.0698948089911
 30
0.0
 11
337.9370071984118
 21
650.4032281423245
 31
0.0
  0
LINE
  5
13C
  8
DEFAULT
 62
     5
 10
335.6407109021155
 20
647.4402651793614
 30
0.0
 11
335.6407109021155
 21
649.0698948089911
 31
0.0
  0
LINE
  5
13D
  8
DEFAULT
 62
     5
 10
334.5295997910044
 20
647.4402651793614
 30
0.0
 11
335.6407109021155
 21
647.4402651793614
 31
0.0
  0
LINE
  5
13E
  8
DEFAULT
 62
     5
 10
334.5295997910044
 20
645.6624874015837
 30
0.0
 11
334.5295997910044
 21
647.4402651793614
 31
0.0
  0
LINE
  5
13F
  8
DEFAULT
 62
     5
 10
335.6407109021155
 20
645.6624874015837
 30
0.0
 11
334.5295997910044
 21
645.6624874015837
 31
0.0
  0
LINE
  5
140
  8
DEFAULT
 62
     5
 10
335.6407109021155
 20
641.8430434516446
 30
0.0
 11
335.6407109021155
 21
645.6624874015837
 31
0.0
  0
ARC
  5
141
  8
DEFAULT
 62
     5
 10
347.0686708738826
 20
641.535121482749
 30
0.0
 40
11.43210763836835
 50
178.4565607902524
 51
186.6565407911663
  0
ARC
  5
142
  8
DEFAULT
 62
     5
 10
337.8771298271007
 20
640.4621090491678
 30
0.0
 40
2.178147299107769
 50
186.648129215604
 51
212.0397559740705
  0
ARC
  5
143
  8
DEFAULT
 62
     5
 10
337.3253805058525
 20
640.2705457613653
 30
0.0
 40
1.614084350440446
 50
216.6709158171647
 51
249.163388481863
  0
ARC
  5
144
  8
DEFAULT
 62
     5
 10
337.8117961938207
 20
641.3223194039629
 30
0.0
 40
2.771259562073712
 50
247.4991673670443
 51
270.8658740788675
  0
ARC
  5
145
  8
DEFAULT
 62
     5
 10
337.9298117810686
 20
643.1001042662865
 30
0.0
 40
4.549365123794963
 50
269.0410687811214
 51
292.0907242138892
  0
LINE
  5
146
  8
DEFAULT
 62
     5
 10
339.4555262820793
 20
640.6219792196396
 30
0.0
 11
339.6407109021155
 21
638.8847101889548
 31
0.0
  0
ARC
  5
147
  8
DEFAULT
 62
     5
 10
338.3429221173886
 20
643.2369255894372
 30
0.0
 40
2.84180093324722
 50
274.3279277792321
 51
293.0487227247457
  0
ARC
  5
148
  8
DEFAULT
 62
     5
 10
338.5383961642705
 20
641.0111182864198
 30
0.0
 40
0.6081864328449171
 50
233.8334457002202
 51
271.7885227949224
  0
ARC
  5
149
  8
DEFAULT
 62
     5
 10
338.4845584848256
 20
640.9389002451223
 30
0.0
 40
0.5181136682051091
 50
193.607795427604
 51
233.9268976046544
  0
LINE
  5
14A
  8
DEFAULT
 62
     5
 10
337.9370071984118
 20
642.0837844749598
 30
0.0
 11
337.9809887858588
 21
640.8170013876075
 31
0.0
  0
LINE
  5
14B
  8
DEFAULT
 62
     5
 10
337.9370071984118
 20
645.6624874015837
 30
0.0
 11
337.9370071984118
 21
642.0837844749598
 31
0.0
  0
LINE
  5
14C
  8
DEFAULT
 62
     5
 10
339.4925627539674
 20
645.6624874015837
 30
0.0
 11
337.9370071984118
 21
645.6624874015837
 31
0.0
  0
LINE
  5
14D
  8
DEFAULT
 62
     5
 10
339.4925627539674
 20
647.4402651793614
 30
0.0
 11
339.4925627539674
 21
645.6624874015837
 31
0.0
  0
ARC
  5
14E
  8
DEFAULT
 62
     5
 10
345.8715603170903
 20
643.0673678469327
 30
0.0
 40
5.344423927550038
 50
178.2603116267395
 51
206.5133228978483
  0
ARC
  5
14F
  8
DEFAULT
 62
     5
 10
344.3532690160672
 20
642.4046684750264
 30
0.0
 40
3.690951123629326
 50
207.8293578066097
 51
243.7960756150971
  0
ARC
  5
150
  8
DEFAULT
 62
     5
 10
344.9758158112403
 20
643.505013926078
 30
0.0
 40
4.953641680506061
 50
242.9552851068529
 51
270.073219927237
  0
ARC
  5
151
  8
DEFAULT
 62
     5
 10
345.1012532428065
 20
642.7863706831206
 30
0.0
 40
4.236668973474771
 50
268.3890104354317
 51
316.1683840769734
  0
ARC
  5
152
  8
DEFAULT
 62
     5
 10
344.900283842287
 20
642.9868830228008
 30
0.0
 40
4.520510304322223
 50
316.0991094726612
 51
1.829960797439723
  0
ARC
  5
153
  8
DEFAULT
 62
     5
 10
344.9528619945915
 20
643.2769042915398
 30
0.0
 40
4.468001819898122
 50
358.1317098974977
 51
43.94879123902913
  0
ARC
  5
154
  8
DEFAULT
 62
     5
 10
345.1128342031432
 20
643.3919007295785
 30
0.0
 40
4.273112148541738
 50
44.32731784383977
 51
91.96996516043056
  0
ARC
  5
155
  8
DEFAULT
 62
     5
 10
344.9024820456522
 20
643.0033489773584
 30
0.0
 40
4.659570602357365
 50
89.21963203499438
 51
118.5597929667302
  0
ARC
  5
156
  8
DEFAULT
 62
     5
 10
344.5397106870206
 20
643.708233336309
 30
0.0
 40
3.867068942210942
 50
118.8318095034126
 51
153.1610350812246
  0
ARC
  5
157
  8
DEFAULT
 62
     5
 10
345.290291785056
 20
643.2146699226303
 30
0.0
 40
4.760715459210025
 50
151.9391303283237
 51
179.8201073407784
  0
ARC
  5
158
  8
DEFAULT
 62
     5
 10
345.8105182067759
 20
643.3083544027344
 30
0.0
 40
2.991411040753722
 50
142.8740851018563
 51
183.8608429831198
  0
ARC
  5
159
  8
DEFAULT
 62
     5
 10
344.8842003436599
 20
643.9354506036734
 30
0.0
 40
1.875283669225558
 50
89.41208358049829
 51
141.0679209762811
  0
ARC
  5
15A
  8
DEFAULT
 62
     5
 10
344.9248225894122
 20
643.9460280201655
 30
0.0
 40
1.864730101181028
 50
38.77640312110316
 51
90.65694191497089
  0
ARC
  5
15B
  8
DEFAULT
 62
     5
 10
344.002445997592
 20
643.3186820130709
 30
0.0
 40
2.978025216285898
 50
356.2350865018863
 51
37.07168058540103
  0
ARC
  5
15C
  8
DEFAULT
 62
     5
 10
343.9483752203663
 20
642.9144892093985
 30
0.0
 40
3.032854533797308
 50
323.2530680751399
 51
3.944815398821668
  0
ARC
  5
15D
  8
DEFAULT
 62
     5
 10
344.9248224215406
 20
642.2678350800396
 30
0.0
 40
1.864729507444031
 50
269.3430630342173
 51
321.2236278239567
  0
ARC
  5
15E
  8
DEFAULT
 62
     5
 10
344.8842005117529
 20
642.278412489119
 30
0.0
 40
1.875283068268395
 50
218.9320481217849
 51
270.5879114718769
  0
ARC
  5
15F
  8
DEFAULT
 62
     5
 10
345.8105205224961
 20
642.9055106029688
 30
0.0
 40
2.991413338872919
 50
176.139163507176
 51
217.1258995579745
  0
LINE
  5
160
  8
DEFAULT
 62
     5
 10
353.4925627539674
 20
641.4541542801812
 30
0.0
 11
353.4925627539674
 21
638.7735985126948
 31
0.0
  0
ARC
  5
161
  8
DEFAULT
 62
     5
 10
367.8292477799459
 20
642.0156081219428
 30
0.0
 40
14.34767465307687
 50
170.5847659886309
 51
182.2426736111734
  0
ARC
  5
162
  8
DEFAULT
 62
     5
 10
355.4874986819974
 20
644.028935593439
 30
0.0
 40
1.843119354743284
 50
135.4130385873503
 51
169.5663233838005
  0
ARC
  5
163
  8
DEFAULT
 62
     5
 10
354.9175380850044
 20
644.4194297797305
 30
0.0
 40
1.169459423468593
 50
88.36541865200519
 51
129.4248126679477
  0
ARC
  5
164
  8
DEFAULT
 62
     5
 10
354.8539358977299
 20
643.7314304394708
 30
0.0
 40
1.859512537070527
 50
52.96039300966177
 51
87.01105821606559
  0
LINE
  5
165
  8
DEFAULT
 62
     5
 10
356.6777479391526
 20
647.2261449326174
 30
0.0
 11
355.9740448005978
 21
645.2157292373005
 31
0.0
  0
ARC
  5
166
  8
DEFAULT
 62
     5
 10
355.2127119545671
 20
644.9853458009865
 30
0.0
 40
2.677220794863311
 50
56.82331375475592
 51
89.55929956903857
  0
ARC
  5
167
  8
DEFAULT
 62
     5
 10
355.2112423621717
 20
646.0373965344043
 30
0.0
 40
1.625240611446448
 50
89.22221917152534
 51
124.7274094550603
  0
ARC
  5
168
  8
DEFAULT
 62
     5
 10
356.7436506939519
 20
644.411552289683
 30
0.0
 40
3.848900640377646
 50
129.6943849709466
 51
152.0272350136561
  0
LINE
  5
169
  8
DEFAULT
 62
     5
 10
353.3444146058192
 20
647.4402651793614
 30
0.0
 11
353.3444146058192
 21
646.2168860972199
 31
0.0
  0
LINE
  5
16A
  8
DEFAULT
 62
     5
 10
351.1962664576711
 20
647.4402651793614
 30
0.0
 11
353.3444146058192
 21
647.4402651793614
 31
0.0
  0
LINE
  5
16B
  8
DEFAULT
 62
     5
 10
351.1962664576711
 20
638.7735985126948
 30
0.0
 11
351.1962664576711
 21
647.4402651793614
 31
0.0
  0
LINE
  5
16C
  8
DEFAULT
 62
     5
 10
353.4925627539674
 20
638.7735985126948
 30
0.0
 11
351.1962664576711
 21
638.7735985126948
 31
0.0
  0
ARC
  5
16D
  8
DEFAULT
 62
     5
 10
361.0225589927989
 20
644.3495146126874
 30
0.0
 40
1.730900268009974
 50
131.8832255126433
 51
165.8177110061244
  0
ARC
  5
16E
  8
DEFAULT
 62
     5
 10
360.6794517012519
 20
644.4377359867934
 30
0.0
 40
1.449542476957693
 50
86.58842567010261
 51
124.0903098983584
  0
ARC
  5
16F
  8
DEFAULT
 62
     5
 10
360.9549989130128
 20
644.1611904940512
 30
0.0
 40
1.733882366675352
 50
55.94263924993919
 51
96.26746730820929
  0
ARC
  5
170
  8
DEFAULT
 62
     5
 10
360.9683695000379
 20
644.7617197984983
 30
0.0
 40
1.271179330345483
 50
354.3181458612023
 51
41.11861076838781
  0
LINE
  5
171
  8
DEFAULT
 62
     5
 10
362.2333034947081
 20
644.4032281423245
 30
0.0
 11
362.2333034947081
 21
644.6358671901614
 31
0.0
  0
ARC
  5
172
  8
DEFAULT
 62
     5
 10
358.1665834355634
 20
655.6205096663309
 30
0.0
 40
11.93170636699826
 50
279.1179904553906
 51
289.9276370485038
  0
ARC
  5
173
  8
DEFAULT
 62
     5
 10
361.2634717205439
 20
636.5836480854763
 30
0.0
 40
7.355479678500437
 50
99.43752684916521
 51
113.9575582475084
  0
ARC
  5
174
  8
DEFAULT
 62
     5
 10
359.2592717947659
 20
641.2715372710963
 30
0.0
 40
2.25879234102382
 50
115.7850175715131
 51
149.3202322545673
  0
ARC
  5
175
  8
DEFAULT
 62
     5
 10
359.4846122582953
 20
641.1572866192826
 30
0.0
 40
2.510943288033515
 50
149.70171986937
 51
180.990589512877
  0
ARC
  5
176
  8
DEFAULT
 62
     5
 10
359.3905126473954
 20
641.0468261414563
 30
0.0
 40
2.41739847737523
 50
178.4105964305248
 51
227.0418252861336
  0
ARC
  5
177
  8
DEFAULT
 62
     5
 10
359.683059849826
 20
641.4868867433283
 30
0.0
 40
2.940069665210309
 50
228.7138226467324
 51
273.1912429493779
  0
ARC
  5
178
  8
DEFAULT
 62
     5
 10
359.8684172499982
 20
642.0840652125322
 30
0.0
 40
3.532755488805203
 50
269.6482693741282
 51
293.4009598741284
  0
ARC
  5
179
  8
DEFAULT
 62
     5
 10
359.5869686361626
 20
642.6056648304052
 30
0.0
 40
4.123550644321551
 50
294.1115382807278
 51
315.4381483601216
  0
LINE
  5
17A
  8
DEFAULT
 62
     5
 10
362.6059887152151
 20
639.4448948796347
 30
0.0
 11
362.5249712210291
 21
639.7122566795211
 31
0.0
  0
LINE
  5
17B
  8
DEFAULT
 62
     5
 10
362.8258960873007
 20
638.7735985126948
 30
0.0
 11
362.6059887152151
 21
639.4448948796347
 31
0.0
  0
LINE
  5
17C
  8
DEFAULT
 62
     5
 10
365.122192383597
 20
638.7735985126948
 30
0.0
 11
362.8258960873007
 21
638.7735985126948
 31
0.0
  0
ARC
  5
17D
  8
DEFAULT
 62
     5
 10
369.0792092682228
 20
641.0371263208257
 30
0.0
 40
4.558677523514457
 50
193.9300067760602
 51
209.7708018394481
  0
ARC
  5
17E
  8
DEFAULT
 62
     5
 10
372.7908520997177
 20
641.3911599988303
 30
0.0
 40
8.264706454327579
 50
178.3434316421977
 51
190.1149198716072
  0
LINE
  5
17F
  8
DEFAULT
 62
     5
 10
364.5295997910044
 20
644.3152660977285
 30
0.0
 11
364.5295997910044
 21
641.6300806299688
 31
0.0
  0
ARC
  5
180
  8
DEFAULT
 62
     5
 10
359.7056009302152
 20
644.6625356878535
 30
0.0
 40
4.836482314360468
 50
355.8824994975309
 51
20.72031271770469
  0
ARC
  5
181
  8
DEFAULT
 62
     5
 10
362.284599138464
 20
645.237395995002
 30
0.0
 40
2.252309562874295
 50
30.29899769647037
 51
66.21983099006127
  0
ARC
  5
182
  8
DEFAULT
 62
     5
 10
361.2462012313923
 20
642.394416744142
 30
0.0
 40
5.276276231894361
 50
68.35015950611213
 51
93.1958373145319
  0
ARC
  5
183
  8
DEFAULT
 62
     5
 10
360.6653332052696
 20
643.5648979033928
 30
0.0
 40
4.107608632257616
 50
85.99736018460881
 51
122.5557386378892
  0
ARC
  5
184
  8
DEFAULT
 62
     5
 10
360.6320426520049
 20
644.3722676886503
 30
0.0
 40
3.433325610016305
 50
129.3537682085871
 51
168.2762710025845
  0
LINE
  5
185
  8
DEFAULT
 62
     5
 10
359.3444146058192
 20
644.7735985126948
 30
0.0
 11
357.2703405317451
 21
645.0698948089911
 31
0.0
  0
LINE
  5
186
  8
DEFAULT
 62
     5
 10
362.2333034947081
 20
642.4645716709449
 30
0.0
 11
362.2333034947081
 21
642.9217466608429
 31
0.0
  0
ARC
  5
187
  8
DEFAULT
 62
     5
 10
357.5036771758731
 20
642.265521010867
 30
0.0
 40
4.733813080498057
 50
348.8200066324567
 51
2.409923246692802
  0
ARC
  5
188
  8
DEFAULT
 62
     5
 10
360.7675834150138
 20
641.7400218426834
 30
0.0
 40
1.434760761231988
 50
306.6162767139255
 51
344.1297914860638
  0
ARC
  5
189
  8
DEFAULT
 62
     5
 10
360.4640978002196
 20
642.033159884705
 30
0.0
 40
1.852338566804311
 50
270.8089086703802
 51
308.7432843414105
  0
ARC
  5
18A
  8
DEFAULT
 62
     5
 10
360.4517668980283
 20
641.3546868372039
 30
0.0
 40
1.174311596839415
 50
224.4931823484986
 51
271.8778886342654
  0
ARC
  5
18B
  8
DEFAULT
 62
     5
 10
360.4187287972229
 20
641.3511607196396
 30
0.0
 40
1.148458672254394
 50
179.365561697963
 51
225.5228831191645
  0
ARC
  5
18C
  8
DEFAULT
 62
     5
 10
360.2371323397645
 20
641.3672914841185
 30
0.0
 40
0.9667978362217654
 50
123.6866761500051
 51
180.2023317014793
  0
ARC
  5
18D
  8
DEFAULT
 62
     5
 10
361.5212514006095
 20
638.710821263971
 30
0.0
 40
3.910460531917227
 50
99.1932298652069
 51
117.7431657009988
  0
LINE
  5
18E
  8
DEFAULT
 62
     5
 10
362.2333034947081
 20
642.9217466608429
 30
0.0
 11
360.8964984513188
 21
642.5710525166338
 31
0.0
  0
LINE
  5
18F
  8
DEFAULT
 62
     5
 10
366.6696470939723
 20
637.9020709998306
 30
0.0
 11
366.6777479391526
 21
638.1810059201022
 31
0.0
  0
ARC
  5
190
  8
DEFAULT
 62
     5
 10
369.0652868725004
 20
637.8596532810527
 30
0.0
 40
2.396015277775174
 50
178.985614468565
 51
231.7777965780986
  0
ARC
  5
191
  8
DEFAULT
 62
     5
 10
370.2320555979132
 20
640.0880090840819
 30
0.0
 40
4.89042378441976
 50
237.1995604188995
 51
275.2425652658152
  0
ARC
  5
192
  8
DEFAULT
 62
     5
 10
370.8429036473459
 20
641.5042594240692
 30
0.0
 40
6.288355341897449
 50
268.5055750754587
 51
286.1287233722974
  0
ARC
  5
193
  8
DEFAULT
 62
     5
 10
371.7147374379128
 20
638.4339462005792
 30
0.0
 40
3.096735743311738
 50
286.4137135182841
 51
312.2809690041001
  0
ARC
  5
194
  8
DEFAULT
 62
     5
 10
371.7588424958143
 20
638.146648021183
 30
0.0
 40
2.859021708146701
 50
315.5022141311767
 51
343.5788237631035
  0
ARC
  5
195
  8
DEFAULT
 62
     5
 10
366.8919270911404
 20
639.3310467829812
 30
0.0
 40
7.86589350294537
 50
345.3256040847971
 51
2.237770072412248
  0
LINE
  5
196
  8
DEFAULT
 62
     5
 10
374.7518220132266
 20
647.4402651793614
 30
0.0
 11
374.7518220132266
 21
639.638182605447
 31
0.0
  0
LINE
  5
197
  8
DEFAULT
 62
     5
 10
372.6036738650785
 20
647.4402651793614
 30
0.0
 11
374.7518220132266
 21
647.4402651793614
 31
0.0
  0
LINE
  5
198
  8
DEFAULT
 62
     5
 10
372.6036738650785
 20
646.2319326231079
 30
0.0
 11
372.6036738650785
 21
647.4402651793614
 31
0.0
  0
ARC
  5
199
  8
DEFAULT
 62
     5
 10
369.9798236298031
 20
644.5409484534165
 30
0.0
 40
3.121540888616012
 50
32.80043327048886
 51
89.93611421519617
  0
ARC
  5
19A
  8
DEFAULT
 62
     5
 10
369.9252893478019
 20
644.3552930120768
 30
0.0
 40
3.307703199078535
 50
88.9950196571043
 51
139.3842173020058
  0
ARC
  5
19B
  8
DEFAULT
 62
     5
 10
371.2189644973527
 20
643.5022466326791
 30
0.0
 40
4.848947931356617
 50
141.6844928773976
 51
183.9356711126129
  0
ARC
  5
19C
  8
DEFAULT
 62
     5
 10
371.4800659164319
 20
642.9846065438916
 30
0.0
 40
5.101963156143285
 50
177.9239266715167
 51
212.3435958669688
  0
ARC
  5
19D
  8
DEFAULT
 62
     5
 10
369.8315904227928
 20
641.904522989375
 30
0.0
 40
3.131550092950154
 50
211.7839529703376
 51
271.1452998304837
  0
ARC
  5
19E
  8
DEFAULT
 62
     5
 10
369.9045365712936
 20
641.8668457474881
 30
0.0
 40
3.09326456022547
 50
269.8082341200572
 51
325.5572317139015
  0
LINE
  5
19F
  8
DEFAULT
 62
     5
 10
372.4555257169303
 20
638.8708210881351
 30
0.0
 11
372.4555257169303
 21
640.117348671643
 31
0.0
  0
ARC
  5
1A0
  8
DEFAULT
 62
     5
 10
368.9402011758918
 20
638.691595640241
 30
0.0
 40
3.519890394600447
 50
345.8753124425766
 51
2.918643199280497
  0
ARC
  5
1A1
  8
DEFAULT
 62
     5
 10
371.3157540760251
 20
638.1747763372553
 30
0.0
 40
1.092861098149803
 50
303.2534377384766
 51
341.7552349421322
  0
ARC
  5
1A2
  8
DEFAULT
 62
     5
 10
370.7814478604735
 20
639.5045597267336
 30
0.0
 40
2.513788683635449
 50
266.367727593915
 51
296.8040482730682
  0
ARC
  5
1A3
  8
DEFAULT
 62
     5
 10
370.4947324247935
 20
638.5730113656622
 30
0.0
 40
1.582332581615705
 50
237.0859876726817
 51
274.6203022113514
  0
ARC
  5
1A4
  8
DEFAULT
 62
     5
 10
370.2733948189364
 20
637.9204114908797
 30
0.0
 40
0.9296659936105203
 50
182.2008650916842
 51
226.6247617960576
  0
LINE
  5
1A5
  8
DEFAULT
 62
     5
 10
366.6777479391526
 20
638.1810059201022
 30
0.0
 11
369.3444146058192
 21
637.8847096238059
 31
0.0
  0
ARC
  5
1A6
  8
DEFAULT
 62
     5
 10
371.7928118532757
 20
643.4889892842665
 30
0.0
 40
3.124095537640082
 50
146.0251206250952
 51
184.3577576357512
  0
ARC
  5
1A7
  8
DEFAULT
 62
     5
 10
370.5091331763686
 20
644.2458198792369
 30
0.0
 40
1.639081883212435
 50
89.12269842731239
 51
142.8869182853915
  0
ARC
  5
1A8
  8
DEFAULT
 62
     5
 10
370.5612792196623
 20
644.1781819850315
 30
0.0
 40
1.706742004436055
 50
37.70819223227817
 51
90.90810453995894
  0
ARC
  5
1A9
  8
DEFAULT
 62
     5
 10
369.3082624713429
 20
643.4368015623171
 30
0.0
 40
3.156635194963762
 50
355.5838083816699
 51
34.44175517807802
  0
ARC
  5
1AA
  8
DEFAULT
 62
     5
 10
369.4873637807825
 20
642.9779185423657
 30
0.0
 40
2.97599788087715
 50
323.746673764429
 51
4.158745487726645
  0
ARC
  5
1AB
  8
DEFAULT
 62
     5
 10
370.5067618263947
 20
642.3138917330946
 30
0.0
 40
1.762555504597798
 50
269.6136924162764
 51
321.5567929501011
  0
ARC
  5
1AC
  8
DEFAULT
 62
     5
 10
370.4903654222235
 20
642.1532584429278
 30
0.0
 40
1.601888508991907
 50
216.4625352094093
 51
270.1614105472086
  0
ARC
  5
1AD
  8
DEFAULT
 62
     5
 10
371.9202243946536
 20
642.988549558564
 30
0.0
 40
3.253129794147405
 50
175.3618115406622
 51
213.3262647147222
  0
ARC
  5
1AE
  8
DEFAULT
 62
     5
 10
380.4155961435853
 20
641.9303943817076
 30
0.0
 40
1.720619017097896
 50
309.8704139527574
 51
346.0068734975798
  0
ARC
  5
1AF
  8
DEFAULT
 62
     5
 10
380.644735711046
 20
641.8253716995953
 30
0.0
 40
1.49706356392891
 50
268.0737802158659
 51
305.7127643708803
  0
ARC
  5
1B0
  8
DEFAULT
 62
     5
 10
380.5511708995227
 20
642.1205718077482
 30
0.0
 40
1.791939625394809
 50
223.1718025183388
 51
271.3828474240096
  0
ARC
  5
1B1
  8
DEFAULT
 62
     5
 10
380.9602302573125
 20
642.4015468669887
 30
0.0
 40
2.283739128201121
 50
178.0990568725062
 51
221.2909003311132
  0
LINE
  5
1B2
  8
DEFAULT
 62
     5
 10
384.5295997910044
 20
642.4773022163985
 30
0.0
 11
378.6777479391526
 21
642.4773022163985
 31
0.0
  0
ARC
  5
1B3
  8
DEFAULT
 62
     5
 10
378.9389056232765
 20
643.0406610126074
 30
0.0
 40
5.619006532326926
 50
354.2458860579189
 51
36.54405305836566
  0
ARC
  5
1B4
  8
DEFAULT
 62
     5
 10
380.5704655233483
 20
643.7822137671047
 30
0.0
 40
3.884874480012342
 50
42.09421627119431
 51
92.78875801437378
  0
ARC
  5
1B5
  8
DEFAULT
 62
     5
 10
380.2836792080743
 20
643.9291682073019
 30
0.0
 40
3.734599263026114
 50
88.49981548250038
 51
137.8442905362487
  0
ARC
  5
1B6
  8
DEFAULT
 62
     5
 10
381.1841379731306
 20
643.3237013364128
 30
0.0
 40
4.811001816000643
 50
139.6964411077368
 51
183.3691958329094
  0
ARC
  5
1B7
  8
DEFAULT
 62
     5
 10
381.3745138872632
 20
642.8457264775798
 30
0.0
 40
4.996877707814285
 50
177.7608171736354
 51
214.1941373506133
  0
ARC
  5
1B8
  8
DEFAULT
 62
     5
 10
380.3062035364712
 20
642.426062975577
 30
0.0
 40
3.885650094665203
 50
217.9313661296706
 51
274.3050754920484
  0
ARC
  5
1B9
  8
DEFAULT
 62
     5
 10
380.7471199068207
 20
642.5511071342039
 30
0.0
 40
4.002513837964682
 50
267.8632558196323
 51
304.0055471031314
  0
ARC
  5
1BA
  8
DEFAULT
 62
     5
 10
380.665312816569
 20
642.3480012005311
 30
0.0
 40
3.884133546629072
 50
306.6825197833437
 51
343.0871710223389
  0
LINE
  5
1BB
  8
DEFAULT
 62
     5
 10
382.08515534656
 20
641.5143392534355
 30
0.0
 11
384.3814516428563
 21
641.2180429571392
 31
0.0
  0
LINE
  5
1BC
  8
DEFAULT
 62
     5
 10
378.7182578165435
 20
643.8847096238059
 30
0.0
 11
382.2333034947081
 21
643.8847096238059
 31
0.0
  0
ARC
  5
1BD
  8
DEFAULT
 62
     5
 10
380.7437208880899
 20
644.0143797666576
 30
0.0
 40
2.029609568401152
 50
138.9778315301124
 51
183.6630767309345
  0
ARC
  5
1BE
  8
DEFAULT
 62
     5
 10
380.4377698955556
 20
644.2228252571937
 30
0.0
 40
1.662540146677376
 50
88.39067061460452
 51
137.4768620086579
  0
ARC
  5
1BF
  8
DEFAULT
 62
     5
 10
380.5134496094822
 20
644.2356354242138
 30
0.0
 40
1.649328965160298
 50
43.68770022018175
 51
91.00707066118538
  0
ARC
  5
1C0
  8
DEFAULT
 62
     5
 10
380.1131791139512
 20
643.9729779740766
 30
0.0
 40
2.121961048544404
 50
357.6159488918225
 51
41.35019279843929
  0
LINE
  5
1C1
  8
DEFAULT
 62
     5
 10
393.0481183095229
 20
638.7735985126948
 30
0.0
 11
390.8999701613748
 21
638.7735985126948
 31
0.0
  0
LINE
  5
1C2
  8
DEFAULT
 62
     5
 10
393.0481183095229
 20
640.0374874722273
 30
0.0
 11
393.0481183095229
 21
638.7735985126948
 31
0.0
  0
ARC
  5
1C3
  8
DEFAULT
 62
     5
 10
395.9957672355367
 20
642.0743119155746
 30
0.0
 40
3.582916131316451
 50
214.6444603695373
 51
241.2225452594123
  0
ARC
  5
1C4
  8
DEFAULT
 62
     5
 10
395.7383270272161
 20
641.5561792107377
 30
0.0
 40
3.00493496993217
 50
240.7689636725697
 51
269.4628564847187
  0
ARC
  5
1C5
  8
DEFAULT
 62
     5
 10
395.7238943318488
 20
641.7616507255901
 30
0.0
 40
3.210303829759727
 50
269.7548121292359
 51
321.3809554812047
  0
ARC
  5
1C6
  8
DEFAULT
 62
     5
 10
394.1613866725297
 20
642.8631209604268
 30
0.0
 40
5.119865751503618
 50
322.6638660988797
 51
3.741412067184631
  0
ARC
  5
1C7
  8
DEFAULT
 62
     5
 10
394.4377921994356
 20
643.5216267451008
 30
0.0
 40
4.843425371117448
 50
356.1594097740765
 51
38.08402893660786
  0
ARC
  5
1C8
  8
DEFAULT
 62
     5
 10
395.7452967645605
 20
644.368339363887
 30
0.0
 40
3.29499020834695
 50
40.51983112126644
 51
91.29544765063035
  0
ARC
  5
1C9
  8
DEFAULT
 62
     5
 10
395.6855499250836
 20
644.4791573712728
 30
0.0
 40
3.183364183618622
 50
90.26540630819747
 51
141.4409609119342
  0
LINE
  5
1CA
  8
DEFAULT
 62
     5
 10
393.1962664576711
 20
650.6995244386208
 30
0.0
 11
393.1962664576711
 21
646.4634142458766
 31
0.0
  0
LINE
  5
1CB
  8
DEFAULT
 62
     5
 10
390.8999701613748
 20
650.6995244386208
 30
0.0
 11
393.1962664576711
 21
650.6995244386208
 31
0.0
  0
LINE
  5
1CC
  8
DEFAULT
 62
     5
 10
390.8999701613748
 20
638.7735985126948
 30
0.0
 11
390.8999701613748
 21
650.6995244386208
 31
0.0
  0
ARC
  5
1CD
  8
DEFAULT
 62
     5
 10
396.2192773853185
 20
643.498622557839
 30
0.0
 40
3.031809438894372
 50
145.0238802827965
 51
184.3661269770969
  0
ARC
  5
1CE
  8
DEFAULT
 62
     5
 10
395.0631240295738
 20
644.2003581173997
 30
0.0
 40
1.684495592443985
 50
89.25059474190039
 51
142.0377759795336
  0
ARC
  5
1CF
  8
DEFAULT
 62
     5
 10
395.113623450368
 20
644.2223467061684
 30
0.0
 40
1.662606649419341
 50
36.88916019208261
 51
90.9810796356442
  0
ARC
  5
1D0
  8
DEFAULT
 62
     5
 10
393.4949249658919
 20
643.3498884663692
 30
0.0
 40
3.491704919577872
 50
355.1338305972955
 51
32.39067744465108
  0
ARC
  5
1D1
  8
DEFAULT
 62
     5
 10
393.690796632119
 20
642.7884738927671
 30
0.0
 40
3.293942237348282
 50
326.8118940657972
 51
4.618279131288364
  0
ARC
  5
1D2
  8
DEFAULT
 62
     5
 10
395.163397005559
 20
641.9133787536397
 30
0.0
 40
1.58425451637571
 50
270.3516087234831
 51
324.1441333507906
  0
ARC
  5
1D3
  8
DEFAULT
 62
     5
 10
395.173989812148
 20
642.1071550276926
 30
0.0
 40
1.778001172648797
 50
208.6777372109135
 51
269.9719410191532
  0
ARC
  5
1D4
  8
DEFAULT
 62
     5
 10
396.9967973482278
 20
643.006026527175
 30
0.0
 40
3.809536298151984
 50
176.0596132566288
 51
207.3823088330499
  0
ARC
  5
1D5
  8
DEFAULT
 62
     5
 10
405.8715603170904
 20
643.0673678469326
 30
0.0
 40
5.344423927550038
 50
178.2603116267383
 51
206.5133228978469
  0
ARC
  5
1D6
  8
DEFAULT
 62
     5
 10
404.3532690160671
 20
642.4046684750263
 30
0.0
 40
3.690951123629173
 50
207.829357806609
 51
243.7960756150979
  0
ARC
  5
1D7
  8
DEFAULT
 62
     5
 10
404.9758158112403
 20
643.5050139260782
 30
0.0
 40
4.953641680506174
 50
242.9552851068529
 51
270.073219927237
  0
ARC
  5
1D8
  8
DEFAULT
 62
     5
 10
405.1012532428065
 20
642.7863706831207
 30
0.0
 40
4.23666897347485
 50
268.3890104354318
 51
316.1683840769723
  0
ARC
  5
1D9
  8
DEFAULT
 62
     5
 10
404.9002838422869
 20
642.9868830228008
 30
0.0
 40
4.520510304322337
 50
316.0991094726622
 51
1.829960797439677
  0
ARC
  5
1DA
  8
DEFAULT
 62
     5
 10
404.9528619945918
 20
643.27690429154
 30
0.0
 40
4.468001819897757
 50
358.1317098974961
 51
43.94879123903163
  0
ARC
  5
1DB
  8
DEFAULT
 62
     5
 10
405.1128342031432
 20
643.3919007295789
 30
0.0
 40
4.273112148541397
 50
44.32731784383756
 51
91.96996516043073
  0
ARC
  5
1DC
  8
DEFAULT
 62
     5
 10
404.9024820456522
 20
643.0033489773584
 30
0.0
 40
4.659570602357339
 50
89.21963203499368
 51
118.5597929667296
  0
ARC
  5
1DD
  8
DEFAULT
 62
     5
 10
404.5397106870209
 20
643.7082333363087
 30
0.0
 40
3.86706894221135
 50
118.8318095034147
 51
153.161035081222
  0
ARC
  5
1DE
  8
DEFAULT
 62
     5
 10
405.2902917850557
 20
643.2146699226303
 30
0.0
 40
4.760715459209741
 50
151.939130328323
 51
179.8201073407783
  0
ARC
  5
1DF
  8
DEFAULT
 62
     5
 10
405.8105182067759
 20
643.3083544027344
 30
0.0
 40
2.991411040753722
 50
142.8740851018563
 51
183.8608429831198
  0
ARC
  5
1E0
  8
DEFAULT
 62
     5
 10
404.8842003436598
 20
643.9354506036738
 30
0.0
 40
1.875283669225219
 50
89.41208358049298
 51
141.0679209762859
  0
ARC
  5
1E1
  8
DEFAULT
 62
     5
 10
404.9248225894122
 20
643.9460280201654
 30
0.0
 40
1.864730101181099
 50
38.77640312110588
 51
90.65694191497084
  0
ARC
  5
1E2
  8
DEFAULT
 62
     5
 10
404.0024459975915
 20
643.3186820130707
 30
0.0
 40
2.978025216286451
 50
356.2350865018914
 51
37.07168058539859
  0
ARC
  5
1E3
  8
DEFAULT
 62
     5
 10
403.9483752203657
 20
642.9144892093988
 30
0.0
 40
3.032854533797945
 50
323.2530680751436
 51
3.944815398816496
  0
ARC
  5
1E4
  8
DEFAULT
 62
     5
 10
404.9248224215406
 20
642.2678350800397
 30
0.0
 40
1.864729507444145
 50
269.3430630342173
 51
321.2236278239524
  0
ARC
  5
1E5
  8
DEFAULT
 62
     5
 10
404.8842005117529
 20
642.278412489119
 30
0.0
 40
1.875283068268395
 50
218.9320481217849
 51
270.5879114718769
  0
ARC
  5
1E6
  8
DEFAULT
 62
     5
 10
405.8105205224961
 20
642.9055106029687
 30
0.0
 40
2.991413338872984
 50
176.1391635071739
 51
217.1258995579709
  0
LINE
  5
1E7
  8
DEFAULT
 62
     5
 10
412.8386277630522
 20
638.7735985126948
 30
0.0
 11
410.1962670228201
 21
638.7735985126948
 31
0.0
  0
LINE
  5
1E8
  8
DEFAULT
 62
     5
 10
414.5839987692151
 20
641.4587839804544
 30
0.0
 11
412.8386277630522
 21
638.7735985126948
 31
0.0
  0
LINE
  5
1E9
  8
DEFAULT
 62
     5
 10
416.321266669602
 20
638.7735985126948
 30
0.0
 11
414.5839987692151
 21
641.4587839804544
 31
0.0
  0
LINE
  5
1EA
  8
DEFAULT
 62
     5
 10
419.085155911709
 20
638.7735985126948
 30
0.0
 11
416.321266669602
 21
638.7735985126948
 31
0.0
  0
LINE
  5
1EB
  8
DEFAULT
 62
     5
 10
415.9323786284365
 20
643.3349417587408
 30
0.0
 11
419.085155911709
 21
638.7735985126948
 31
0.0
  0
LINE
  5
1EC
  8
DEFAULT
 62
     5
 10
418.7888596154127
 20
647.4402651793614
 30
0.0
 11
415.9323786284365
 21
643.3349417587408
 31
0.0
  0
LINE
  5
1ED
  8
DEFAULT
 62
     5
 10
416.1464988751806
 20
647.4402651793614
 30
0.0
 11
418.7888596154127
 21
647.4402651793614
 31
0.0
  0
LINE
  5
1EE
  8
DEFAULT
 62
     5
 10
414.5839987692151
 20
645.0571642635375
 30
0.0
 11
416.1464988751806
 21
647.4402651793614
 31
0.0
  0
LINE
  5
1EF
  8
DEFAULT
 62
     5
 10
413.1083044130752
 20
647.4402651793614
 30
0.0
 11
414.5839987692151
 21
645.0571642635375
 31
0.0
  0
LINE
  5
1F0
  8
DEFAULT
 62
     5
 10
410.3444151709682
 20
647.4402651793614
 30
0.0
 11
413.1083044130752
 21
647.4402651793614
 31
0.0
  0
LINE
  5
1F1
  8
DEFAULT
 62
     5
 10
413.2691842369748
 20
643.2377191833006
 30
0.0
 11
410.3444151709682
 21
647.4402651793614
 31
0.0
  0
LINE
  5
1F2
  8
DEFAULT
 62
     5
 10
410.1962670228201
 20
638.7735985126948
 30
0.0
 11
413.2691842369748
 21
643.2377191833006
 31
0.0
  0
LINE
  5
1F3
  8
DEFAULT
 62
     5
 10
427.3444146058192
 20
638.7735985126948
 30
0.0
 11
425.0481183095229
 21
638.7735985126948
 31
0.0
  0
LINE
  5
1F4
  8
DEFAULT
 62
     5
 10
427.3444146058192
 20
650.6995244386208
 30
0.0
 11
427.3444146058192
 21
638.7735985126948
 31
0.0
  0
LINE
  5
1F5
  8
DEFAULT
 62
     5
 10
425.0481183095229
 20
650.6995244386208
 30
0.0
 11
427.3444146058192
 21
650.6995244386208
 31
0.0
  0
LINE
  5
1F6
  8
DEFAULT
 62
     5
 10
425.0481183095229
 20
638.7735985126948
 30
0.0
 11
425.0481183095229
 21
650.6995244386208
 31
0.0
  0
ARC
  5
1F7
  8
DEFAULT
 62
     5
 10
433.022558992799
 20
644.3495146126872
 30
0.0
 40
1.730900268010096
 50
131.8832255126422
 51
165.8177110061212
  0
ARC
  5
1F8
  8
DEFAULT
 62
     5
 10
432.6794517012518
 20
644.4377359867939
 30
0.0
 40
1.449542476957242
 50
86.58842567009931
 51
124.0903098983666
  0
ARC
  5
1F9
  8
DEFAULT
 62
     5
 10
432.9549989130128
 20
644.1611904940512
 30
0.0
 40
1.733882366675352
 50
55.94263924993919
 51
96.26746730820929
  0
ARC
  5
1FA
  8
DEFAULT
 62
     5
 10
432.9683695000379
 20
644.7617197984983
 30
0.0
 40
1.271179330345483
 50
354.3181458612023
 51
41.11861076838781
  0
LINE
  5
1FB
  8
DEFAULT
 62
     5
 10
434.2333034947081
 20
644.4032281423245
 30
0.0
 11
434.2333034947081
 21
644.6358671901614
 31
0.0
  0
ARC
  5
1FC
  8
DEFAULT
 62
     5
 10
430.1665834355626
 20
655.6205096663339
 30
0.0
 40
11.9317063670013
 50
279.1179904553921
 51
289.9276370485026
  0
ARC
  5
1FD
  8
DEFAULT
 62
     5
 10
433.2634717205437
 20
636.5836480854767
 30
0.0
 40
7.355479678499975
 50
99.43752684916491
 51
113.957558247509
  0
ARC
  5
1FE
  8
DEFAULT
 62
     5
 10
431.2592717947661
 20
641.271537271096
 30
0.0
 40
2.258792341024189
 50
115.7850175715145
 51
149.3202322545628
  0
ARC
  5
1FF
  8
DEFAULT
 62
     5
 10
431.4846122582975
 20
641.1572866192822
 30
0.0
 40
2.510943288035612
 50
149.7017198693859
 51
180.9905895128684
  0
ARC
  5
200
  8
DEFAULT
 62
     5
 10
431.3905126473946
 20
641.0468261414558
 30
0.0
 40
2.417398477374271
 50
178.4105964305107
 51
227.0418252861382
  0
ARC
  5
201
  8
DEFAULT
 62
     5
 10
431.6830598498259
 20
641.4868867433283
 30
0.0
 40
2.940069665210312
 50
228.7138226467324
 51
273.191242949379
  0
ARC
  5
202
  8
DEFAULT
 62
     5
 10
431.8684172499981
 20
642.0840652125326
 30
0.0
 40
3.532755488805538
 50
269.6482693741292
 51
293.4009598741271
  0
ARC
  5
203
  8
DEFAULT
 62
     5
 10
431.5869686361626
 20
642.6056648304052
 30
0.0
 40
4.123550644321551
 50
294.1115382807278
 51
315.4381483601216
  0
LINE
  5
204
  8
DEFAULT
 62
     5
 10
434.6059887152151
 20
639.4448948796347
 30
0.0
 11
434.5249712210291
 21
639.7122566795211
 31
0.0
  0
LINE
  5
205
  8
DEFAULT
 62
     5
 10
434.8258960873007
 20
638.7735985126948
 30
0.0
 11
434.6059887152151
 21
639.4448948796347
 31
0.0
  0
LINE
  5
206
  8
DEFAULT
 62
     5
 10
437.122192383597
 20
638.7735985126948
 30
0.0
 11
434.8258960873007
 21
638.7735985126948
 31
0.0
  0
ARC
  5
207
  8
DEFAULT
 62
     5
 10
441.0792092682225
 20
641.0371263208256
 30
0.0
 40
4.558677523514098
 50
193.9300067760599
 51
209.7708018394487
  0
ARC
  5
208
  8
DEFAULT
 62
     5
 10
444.7908520997163
 20
641.3911599988303
 30
0.0
 40
8.264706454326214
 50
178.3434316421974
 51
190.1149198716089
  0
LINE
  5
209
  8
DEFAULT
 62
     5
 10
436.5295997910044
 20
644.3152660977285
 30
0.0
 11
436.5295997910044
 21
641.6300806299688
 31
0.0
  0
ARC
  5
20A
  8
DEFAULT
 62
     5
 10
431.7056009302152
 20
644.6625356878535
 30
0.0
 40
4.836482314360468
 50
355.8824994975309
 51
20.72031271770469
  0
ARC
  5
20B
  8
DEFAULT
 62
     5
 10
434.2845991384638
 20
645.2373959950019
 30
0.0
 40
2.252309562874468
 50
30.29899769646819
 51
66.21983099005847
  0
ARC
  5
20C
  8
DEFAULT
 62
     5
 10
433.2462012313923
 20
642.394416744142
 30
0.0
 40
5.276276231894361
 50
68.35015950611213
 51
93.1958373145319
  0
ARC
  5
20D
  8
DEFAULT
 62
     5
 10
432.6653332052696
 20
643.564897903393
 30
0.0
 40
4.107608632257423
 50
85.99736018460871
 51
122.5557386378909
  0
ARC
  5
20E
  8
DEFAULT
 62
     5
 10
432.6320426520051
 20
644.37226768865
 30
0.0
 40
3.433325610016519
 50
129.3537682085862
 51
168.2762710025813
  0
LINE
  5
20F
  8
DEFAULT
 62
     5
 10
431.3444146058192
 20
644.7735985126948
 30
0.0
 11
429.2703405317451
 21
645.0698948089911
 31
0.0
  0
LINE
  5
210
  8
DEFAULT
 62
     5
 10
434.2333034947081
 20
642.4645716709449
 30
0.0
 11
434.2333034947081
 21
642.9217466608429
 31
0.0
  0
ARC
  5
211
  8
DEFAULT
 62
     5
 10
429.5036771758739
 20
642.2655210108669
 30
0.0
 40
4.733813080497311
 50
348.8200066324562
 51
2.409923246694552
  0
ARC
  5
212
  8
DEFAULT
 62
     5
 10
432.7675834150136
 20
641.7400218426836
 30
0.0
 40
1.434760761232272
 50
306.6162767139255
 51
344.1297914860569
  0
ARC
  5
213
  8
DEFAULT
 62
     5
 10
432.4640978002197
 20
642.0331598847049
 30
0.0
 40
1.852338566804196
 50
270.8089086703767
 51
308.74328434141
  0
ARC
  5
214
  8
DEFAULT
 62
     5
 10
432.4517668980283
 20
641.354686837204
 30
0.0
 40
1.174311596839535
 50
224.4931823485007
 51
271.8778886342624
  0
ARC
  5
215
  8
DEFAULT
 62
     5
 10
432.4187287972226
 20
641.3511607196393
 30
0.0
 40
1.148458672254112
 50
179.3655616979515
 51
225.5228831191686
  0
ARC
  5
216
  8
DEFAULT
 62
     5
 10
432.2371323397646
 20
641.3672914841184
 30
0.0
 40
0.9667978362218914
 50
123.6866761500041
 51
180.2023317014726
  0
ARC
  5
217
  8
DEFAULT
 62
     5
 10
433.5212514006103
 20
638.7108212639687
 30
0.0
 40
3.910460531919617
 50
99.19322986521473
 51
117.7431657009944
  0
LINE
  5
218
  8
DEFAULT
 62
     5
 10
434.2333034947081
 20
642.9217466608429
 30
0.0
 11
432.8964984513188
 21
642.5710525166338
 31
0.0
  0
ARC
  5
219
  8
DEFAULT
 62
     5
 10
441.2970094556615
 20
641.99741519323
 30
0.0
 40
3.305060952621217
 50
193.6394779952984
 51
235.6428496660059
  0
ARC
  5
21A
  8
DEFAULT
 62
     5
 10
441.9714523173632
 20
643.3585654359875
 30
0.0
 40
4.814004243698136
 50
238.1595782279047
 51
273.0491002450729
  0
ARC
  5
21B
  8
DEFAULT
 62
     5
 10
442.5446957771039
 20
642.9090975728009
 30
0.0
 40
4.369249001159892
 50
265.8370475315978
 51
306.8687304499996
  0
ARC
  5
21C
  8
DEFAULT
 62
     5
 10
443.5148104192251
 20
641.4790647309618
 30
0.0
 40
2.644420612867792
 50
308.6433587816686
 51
359.9367468738383
  0
ARC
  5
21D
  8
DEFAULT
 62
     5
 10
444.0203596975747
 20
641.5911242814041
 30
0.0
 40
2.141957946691753
 50
356.9229204449
 51
48.38809149796098
  0
ARC
  5
21E
  8
DEFAULT
 62
     5
 10
441.8434601494501
 20
637.9574792912927
 30
0.0
 40
6.353069783038454
 50
55.48997422037664
 51
80.49079123416213
  0
ARC
  5
21F
  8
DEFAULT
 62
     5
 10
444.280095671016
 20
652.5459107663867
 30
0.0
 40
8.437452921691182
 50
245.3242690751256
 51
260.5379478007184
  0
ARC
  5
220
  8
DEFAULT
 62
     5
 10
441.0487601382172
 20
645.3088043030473
 30
0.0
 40
0.519198213222882
 50
180.6919878173499
 51
235.8909058817847
  0
ARC
  5
221
  8
DEFAULT
 62
     5
 10
441.0853844635084
 20
645.3051047341295
 30
0.0
 40
0.5557906184890081
 50
122.1025650626015
 51
180.2650295622219
  0
ARC
  5
222
  8
DEFAULT
 62
     5
 10
441.897015403142
 20
643.5886099235612
 30
0.0
 40
2.451477958840798
 50
85.59847781031078
 51
116.8440511744711
  0
ARC
  5
223
  8
DEFAULT
 62
     5
 10
442.2005935485131
 20
644.2065577070259
 30
0.0
 40
1.829944782124999
 50
57.29557343185107
 51
93.61678476170614
  0
ARC
  5
224
  8
DEFAULT
 62
     5
 10
442.3187444183912
 20
644.611937150619
 30
0.0
 40
1.430003906163586
 50
12.51231288667614
 51
52.4976347664101
  0
LINE
  5
225
  8
DEFAULT
 62
     5
 10
445.8629331243378
 20
645.2921170312133
 30
0.0
 11
443.7147849761896
 21
644.9217466608429
 31
0.0
  0
ARC
  5
226
  8
DEFAULT
 62
     5
 10
442.8850035962139
 20
644.5760376632314
 30
0.0
 40
3.062814708029462
 50
13.52076832651051
 51
54.30739001654428
  0
ARC
  5
227
  8
DEFAULT
 62
     5
 10
442.3596875175107
 20
642.9913426554112
 30
0.0
 40
4.682874801116657
 50
60.41117304736881
 51
94.05622536397271
  0
ARC
  5
228
  8
DEFAULT
 62
     5
 10
441.6952660218615
 20
643.5467114148421
 30
0.0
 40
4.12923947447756
 50
85.37193491886813
 51
125.9526890296469
  0
ARC
  5
229
  8
DEFAULT
 62
     5
 10
440.8120001849961
 20
645.0095877697497
 30
0.0
 40
2.430719311612291
 50
129.3460050027531
 51
180.6791690482249
  0
ARC
  5
22A
  8
DEFAULT
 62
     5
 10
440.6344011453488
 20
644.90833109148
 30
0.0
 40
2.254113934526667
 50
178.1582720960484
 51
237.1110124234197
  0
ARC
  5
22B
  8
DEFAULT
 62
     5
 10
444.9260457364724
 20
654.1174356421433
 30
0.0
 40
12.39659326457749
 50
243.5809247213919
 51
260.7398621175004
  0
ARC
  5
22C
  8
DEFAULT
 62
     5
 10
442.6589845347261
 20
640.0840843388397
 30
0.0
 40
1.818800973530758
 50
55.09479244160667
 51
81.39168200520487
  0
ARC
  5
22D
  8
DEFAULT
 62
     5
 10
443.2440118247236
 20
641.1564007983134
 30
0.0
 40
0.619261793885989
 50
358.0999050951074
 51
42.61490358100108
  0
ARC
  5
22E
  8
DEFAULT
 62
     5
 10
443.1163622097499
 20
641.1126061545926
 30
0.0
 40
0.746933227084544
 50
306.6292317715192
 51
1.784661908062487
  0
ARC
  5
22F
  8
DEFAULT
 62
     5
 10
442.3828156665852
 20
642.4037985842951
 30
0.0
 40
2.228211109531379
 50
266.0034536137441
 51
301.9521232462411
  0
ARC
  5
230
  8
DEFAULT
 62
     5
 10
442.1055107765027
 20
642.2103829708477
 30
0.0
 40
2.033041282067168
 50
236.2421151013718
 51
273.4404973158058
  0
ARC
  5
231
  8
DEFAULT
 62
     5
 10
442.0012814058454
 20
641.8079071736804
 30
0.0
 40
1.646217052779587
 50
190.2724325504433
 51
231.4685841511387
  0
LINE
  5
232
  8
DEFAULT
 62
     5
 10
438.08515534656
 20
641.2180429571392
 30
0.0
 11
440.3814516428563
 21
641.5143392534355
 31
0.0
  0
ARC
  5
233
  8
DEFAULT
 62
     5
 10
451.5267072546964
 20
641.9303943817075
 30
0.0
 40
1.720619017097845
 50
309.8704139527612
 51
346.0068734975861
  0
ARC
  5
234
  8
DEFAULT
 62
     5
 10
451.755846822157
 20
641.8253716995956
 30
0.0
 40
1.497063563929246
 50
268.0737802158707
 51
305.7127643708755
  0
ARC
  5
235
  8
DEFAULT
 62
     5
 10
451.6622820106338
 20
642.1205718077481
 30
0.0
 40
1.79193962539469
 50
223.1718025183374
 51
271.3828474240096
  0
ARC
  5
236
  8
DEFAULT
 62
     5
 10
452.0713413684236
 20
642.4015468669888
 30
0.0
 40
2.283739128201174
 50
178.0990568725091
 51
221.2909003311142
  0
LINE
  5
237
  8
DEFAULT
 62
     5
 10
455.6407109021155
 20
642.4773022163985
 30
0.0
 11
449.7888590502637
 21
642.4773022163985
 31
0.0
  0
ARC
  5
238
  8
DEFAULT
 62
     5
 10
450.050016734388
 20
643.0406610126075
 30
0.0
 40
5.619006532326584
 50
354.2458860579173
 51
36.5440530583668
  0
ARC
  5
239
  8
DEFAULT
 62
     5
 10
451.6815766344594
 20
643.7822137671047
 30
0.0
 40
3.884874480012342
 50
42.09421627119431
 51
92.78875801437378
  0
ARC
  5
23A
  8
DEFAULT
 62
     5
 10
451.3947903191855
 20
643.929168207302
 30
0.0
 40
3.734599263026122
 50
88.49981548250213
 51
137.8442905362512
  0
ARC
  5
23B
  8
DEFAULT
 62
     5
 10
452.2952490842417
 20
643.3237013364128
 30
0.0
 40
4.811001816000587
 50
139.6964411077364
 51
183.3691958329095
  0
ARC
  5
23C
  8
DEFAULT
 62
     5
 10
452.4856249983743
 20
642.8457264775797
 30
0.0
 40
4.996877707814221
 50
177.7608171736353
 51
214.1941373506122
  0
ARC
  5
23D
  8
DEFAULT
 62
     5
 10
451.4173146475824
 20
642.4260629755772
 30
0.0
 40
3.885650094665425
 50
217.9313661296704
 51
274.3050754920474
  0
ARC
  5
23E
  8
DEFAULT
 62
     5
 10
451.8582310179319
 20
642.5511071342037
 30
0.0
 40
4.002513837964431
 50
267.8632558196312
 51
304.0055471031319
  0
ARC
  5
23F
  8
DEFAULT
 62
     5
 10
451.7764239276801
 20
642.348001200531
 30
0.0
 40
3.884133546628984
 50
306.6825197833421
 51
343.0871710223403
  0
LINE
  5
240
  8
DEFAULT
 62
     5
 10
453.1962664576711
 20
641.5143392534355
 30
0.0
 11
455.4925627539674
 21
641.2180429571392
 31
0.0
  0
LINE
  5
241
  8
DEFAULT
 62
     5
 10
449.8293689276546
 20
643.8847096238059
 30
0.0
 11
453.3444146058192
 21
643.8847096238059
 31
0.0
  0
ARC
  5
242
  8
DEFAULT
 62
     5
 10
451.8548319992009
 20
644.0143797666577
 30
0.0
 40
2.029609568401034
 50
138.9778315301137
 51
183.6630767309379
  0
ARC
  5
243
  8
DEFAULT
 62
     5
 10
451.5488810066665
 20
644.2228252571938
 30
0.0
 40
1.662540146677267
 50
88.39067061459855
 51
137.4768620086582
  0
ARC
  5
244
  8
DEFAULT
 62
     5
 10
451.6245607205933
 20
644.235635424214
 30
0.0
 40
1.6493289651601
 50
43.6877002201774
 51
91.00707066118743
  0
ARC
  5
245
  8
DEFAULT
 62
     5
 10
451.2242902250622
 20
643.9729779740765
 30
0.0
 40
2.121961048544399
 50
357.6159488918256
 51
41.3501927984416
  0
LINE
  5
246
  8
DEFAULT
 62
     5
 10
459.7147849761896
 20
641.4541542801812
 30
0.0
 11
459.7147849761896
 21
638.7735985126948
 31
0.0
  0
ARC
  5
247
  8
DEFAULT
 62
     5
 10
474.051470002188
 20
642.0156081219417
 30
0.0
 40
14.34767465309668
 50
170.5847659886395
 51
182.2426736111658
  0
ARC
  5
248
  8
DEFAULT
 62
     5
 10
461.7097209042188
 20
644.0289355934393
 30
0.0
 40
1.843119354742438
 50
135.4130385873392
 51
169.5663233838064
  0
ARC
  5
249
  8
DEFAULT
 62
     5
 10
461.1397603072265
 20
644.4194297797309
 30
0.0
 40
1.169459423468254
 50
88.36541865200192
 51
129.4248126679576
  0
ARC
  5
24A
  8
DEFAULT
 62
     5
 10
461.0761581199521
 20
643.7314304394706
 30
0.0
 40
1.859512537070742
 50
52.96039300966459
 51
87.0110582160642
  0
LINE
  5
24B
  8
DEFAULT
 62
     5
 10
462.8999701613748
 20
647.2261449326174
 30
0.0
 11
462.1962670228201
 21
645.2157292373005
 31
0.0
  0
ARC
  5
24C
  8
DEFAULT
 62
     5
 10
461.4349341767893
 20
644.9853458009867
 30
0.0
 40
2.677220794863084
 50
56.82331375475326
 51
89.55929956903732
  0
ARC
  5
24D
  8
DEFAULT
 62
     5
 10
461.433464584394
 20
646.0373965344043
 30
0.0
 40
1.62524061144648
 50
89.22221917152734
 51
124.7274094550619
  0
ARC
  5
24E
  8
DEFAULT
 62
     5
 10
462.9658729161737
 20
644.4115522896834
 30
0.0
 40
3.848900640377031
 50
129.6943849709463
 51
152.0272350136589
  0
LINE
  5
24F
  8
DEFAULT
 62
     5
 10
459.5666368280415
 20
647.4402651793614
 30
0.0
 11
459.5666368280415
 21
646.2168860972199
 31
0.0
  0
LINE
  5
250
  8
DEFAULT
 62
     5
 10
457.4184886798933
 20
647.4402651793614
 30
0.0
 11
459.5666368280415
 21
647.4402651793614
 31
0.0
  0
LINE
  5
251
  8
DEFAULT
 62
     5
 10
457.4184886798933
 20
638.7735985126948
 30
0.0
 11
457.4184886798933
 21
647.4402651793614
 31
0.0
  0
LINE
  5
252
  8
DEFAULT
 62
     5
 10
459.7147849761896
 20
638.7735985126948
 30
0.0
 11
457.4184886798933
 21
638.7735985126948
 31
0.0
  0
ARC
  5
253
  8
DEFAULT
 62
     5
 10
472.2916200872974
 20
644.0303161847374
 30
0.0
 40
3.752798353710043
 50
13.74124921965146
 51
51.94653735769611
  0
ARC
  5
254
  8
DEFAULT
 62
     5
 10
472.3247390098261
 20
643.5197761357491
 30
0.0
 40
4.148421768091599
 50
56.65843649088508
 51
93.00665199287698
  0
ARC
  5
255
  8
DEFAULT
 62
     5
 10
471.9132485258772
 20
643.6980666454127
 30
0.0
 40
3.969159649902279
 50
87.19992250858964
 51
135.9063161205871
  0
ARC
  5
256
  8
DEFAULT
 62
     5
 10
472.6564307906252
 20
643.3873998138077
 30
0.0
 40
4.728237655693974
 50
139.4713589968572
 51
183.4989968931606
  0
ARC
  5
257
  8
DEFAULT
 62
     5
 10
472.6343863524626
 20
642.8220189428181
 30
0.0
 40
4.705528187090223
 50
176.6275216080904
 51
220.6290117161424
  0
ARC
  5
258
  8
DEFAULT
 62
     5
 10
471.9022641531506
 20
642.4811600928666
 30
0.0
 40
3.933983770548837
 50
223.8061799116885
 51
272.6477866780671
  0
ARC
  5
259
  8
DEFAULT
 62
     5
 10
472.297855561104
 20
642.6436127786764
 30
0.0
 40
4.097820650292262
 50
267.0084966366609
 51
306.6460348930919
  0
ARC
  5
25A
  8
DEFAULT
 62
     5
 10
472.0656838559565
 20
642.4329962634899
 30
0.0
 40
4.079359321937312
 50
311.0323195198862
 51
350.1702224221748
  0
LINE
  5
25B
  8
DEFAULT
 62
     5
 10
473.7888590502637
 20
642.032857771954
 30
0.0
 11
476.08515534656
 21
641.7365614756577
 31
0.0
  0
ARC
  5
25C
  8
DEFAULT
 62
     5
 10
471.6014377251539
 20
642.2809298893798
 30
0.0
 40
2.201443124177693
 50
316.6637628800351
 51
353.5298172146336
  0
ARC
  5
25D
  8
DEFAULT
 62
     5
 10
472.2002108584144
 20
641.9506569356731
 30
0.0
 40
1.548709548514422
 50
267.6696796144505
 51
310.3355415046229
  0
ARC
  5
25E
  8
DEFAULT
 62
     5
 10
472.0777172262668
 20
642.085214717105
 30
0.0
 40
1.683039433819901
 50
217.9237598606526
 51
272.0267409488679
  0
ARC
  5
25F
  8
DEFAULT
 62
     5
 10
473.8446589605447
 20
642.9410471537768
 30
0.0
 40
3.626213103336623
 50
174.8115905084335
 51
211.4177233920079
  0
ARC
  5
260
  8
DEFAULT
 62
     5
 10
473.370293371508
 20
643.5530867147831
 30
0.0
 40
3.14982983475001
 50
146.6903575930624
 51
185.17515694436
  0
ARC
  5
261
  8
DEFAULT
 62
     5
 10
472.0252384890164
 20
644.2106566708476
 30
0.0
 40
1.675341846512316
 50
87.75238312097679
 51
140.208948575847
  0
ARC
  5
262
  8
DEFAULT
 62
     5
 10
472.1604332197221
 20
644.327434232145
 30
0.0
 40
1.558825073414302
 50
51.63347369269943
 51
92.55503106094575
  0
ARC
  5
263
  8
DEFAULT
 62
     5
 10
472.0506735846566
 20
644.3655049315435
 30
0.0
 40
1.600864401809917
 50
6.667471865549353
 51
47.70461066400279
  0
LINE
  5
264
  8
DEFAULT
 62
     5
 10
475.9370071984118
 20
644.9217466608429
 30
0.0
 11
473.6407109021155
 21
644.5513762904726
 31
0.0
  0
LINE
  5
265
  8
DEFAULT
 62
     5
 10
485.5666368280415
 20
638.7735985126948
 30
0.0
 11
483.4184886798933
 21
638.7735985126948
 31
0.0
  0
LINE
  5
266
  8
DEFAULT
 62
     5
 10
485.5666368280415
 20
647.4402651793614
 30
0.0
 11
485.5666368280415
 21
638.7735985126948
 31
0.0
  0
LINE
  5
267
  8
DEFAULT
 62
     5
 10
483.2703405317451
 20
647.4402651793614
 30
0.0
 11
485.5666368280415
 21
647.4402651793614
 31
0.0
  0
LINE
  5
268
  8
DEFAULT
 62
     5
 10
483.2703405317451
 20
643.7863307535952
 30
0.0
 11
483.2703405317451
 21
647.4402651793614
 31
0.0
  0
ARC
  5
269
  8
DEFAULT
 62
     5
 10
473.9234950451092
 20
643.2909004523536
 30
0.0
 40
9.359966438745166
 50
348.6614910100716
 51
3.034128054492778
  0
ARC
  5
26A
  8
DEFAULT
 62
     5
 10
481.562313970219
 20
642.0144643814856
 30
0.0
 40
1.638514405051698
 50
303.7124047881539
 51
339.8742882318621
  0
ARC
  5
26B
  8
DEFAULT
 62
     5
 10
481.4536878362968
 20
642.0971819265294
 30
0.0
 40
1.768170606965791
 50
269.2719444290269
 51
305.1528697940745
  0
ARC
  5
26C
  8
DEFAULT
 62
     5
 10
481.3756377177345
 20
641.7181941977907
 30
0.0
 40
1.390151758302181
 50
235.692475468396
 51
272.2914762240915
  0
ARC
  5
26D
  8
DEFAULT
 62
     5
 10
481.3097734517028
 20
641.5572173380193
 30
0.0
 40
1.220598272943713
 50
195.9355685510355
 51
233.9870247425433
  0
ARC
  5
26E
  8
DEFAULT
 62
     5
 10
491.1575087211145
 20
642.9603955060842
 30
0.0
 40
11.15766770820476
 50
177.4279728137324
 51
188.9628657653644
  0
LINE
  5
26F
  8
DEFAULT
 62
     5
 10
480.0110812724859
 20
647.4402651793614
 30
0.0
 11
480.0110812724859
 21
643.461098830591
 31
0.0
  0
LINE
  5
270
  8
DEFAULT
 62
     5
 10
477.7147849761896
 20
647.4402651793614
 30
0.0
 11
480.0110812724859
 21
647.4402651793614
 31
0.0
  0
LINE
  5
271
  8
DEFAULT
 62
     5
 10
477.7147849761896
 20
641.9402660270849
 30
0.0
 11
477.7147849761896
 21
647.4402651793614
 31
0.0
  0
ARC
  5
272
  8
DEFAULT
 62
     5
 10
482.5840010474963
 20
641.7317599747523
 30
0.0
 40
4.873678274458682
 50
177.5480194978701
 51
200.6043027294202
  0
ARC
  5
273
  8
DEFAULT
 62
     5
 10
480.092071544448
 20
640.9249470701183
 30
0.0
 40
2.260502996629395
 50
203.6913784874908
 51
241.6151575793938
  0
ARC
  5
274
  8
DEFAULT
 62
     5
 10
480.5207320947472
 20
641.6767500575887
 30
0.0
 40
3.125763799290816
 50
241.2536140614532
 51
270.9051369306155
  0
ARC
  5
275
  8
DEFAULT
 62
     5
 10
480.5735185272423
 20
641.9157345900838
 30
0.0
 40
3.364360026584826
 50
269.9419463860102
 51
298.6132391355312
  0
ARC
  5
276
  8
DEFAULT
 62
     5
 10
480.5893985350099
 20
641.9943355276354
 30
0.0
 40
3.42614508276197
 50
297.7505921750337
 51
325.6631462009473
  0
LINE
  5
277
  8
DEFAULT
 62
     5
 10
483.4184886798933
 20
638.7735985126948
 30
0.0
 11
483.4184886798933
 21
640.0617933986618
 31
0.0
  0
LINE
  5
278
  8
DEFAULT
 62
     5
 10
490.3073775687822
 20
647.4402651793614
 30
0.0
 11
491.8629331243378
 21
647.4402651793614
 31
0.0
  0
LINE
  5
279
  8
DEFAULT
 62
     5
 10
490.3073775687822
 20
650.4032281423245
 30
0.0
 11
490.3073775687822
 21
647.4402651793614
 31
0.0
  0
LINE
  5
27A
  8
DEFAULT
 62
     5
 10
488.0110812724859
 20
649.0698948089911
 30
0.0
 11
490.3073775687822
 21
650.4032281423245
 31
0.0
  0
LINE
  5
27B
  8
DEFAULT
 62
     5
 10
488.0110812724859
 20
647.4402651793614
 30
0.0
 11
488.0110812724859
 21
649.0698948089911
 31
0.0
  0
LINE
  5
27C
  8
DEFAULT
 62
     5
 10
486.8999701613748
 20
647.4402651793614
 30
0.0
 11
488.0110812724859
 21
647.4402651793614
 31
0.0
  0
LINE
  5
27D
  8
DEFAULT
 62
     5
 10
486.8999701613748
 20
645.6624874015837
 30
0.0
 11
486.8999701613748
 21
647.4402651793614
 31
0.0
  0
LINE
  5
27E
  8
DEFAULT
 62
     5
 10
488.0110812724859
 20
645.6624874015837
 30
0.0
 11
486.8999701613748
 21
645.6624874015837
 31
0.0
  0
LINE
  5
27F
  8
DEFAULT
 62
     5
 10
488.0110812724859
 20
641.8430434516446
 30
0.0
 11
488.0110812724859
 21
645.6624874015837
 31
0.0
  0
ARC
  5
280
  8
DEFAULT
 62
     5
 10
499.4390412442527
 20
641.5351214827489
 30
0.0
 40
11.432107638368
 50
178.4565607902517
 51
186.6565407911659
  0
ARC
  5
281
  8
DEFAULT
 62
     5
 10
490.247500197471
 20
640.4621090491677
 30
0.0
 40
2.17814729910766
 50
186.6481292156014
 51
212.0397559740688
  0
ARC
  5
282
  8
DEFAULT
 62
     5
 10
489.6957508762227
 20
640.2705457613652
 30
0.0
 40
1.614084350440299
 50
216.6709158171626
 51
249.1633884818653
  0
ARC
  5
283
  8
DEFAULT
 62
     5
 10
490.182166564191
 20
641.3223194039631
 30
0.0
 40
2.771259562073941
 50
247.4991673670501
 51
270.8658740788698
  0
ARC
  5
284
  8
DEFAULT
 62
     5
 10
490.3001821514389
 20
643.1001042662871
 30
0.0
 40
4.549365123795534
 50
269.0410687811229
 51
292.0907242138878
  0
LINE
  5
285
  8
DEFAULT
 62
     5
 10
491.8258966524497
 20
640.6219792196396
 30
0.0
 11
492.0110812724859
 21
638.8847101889548
 31
0.0
  0
ARC
  5
286
  8
DEFAULT
 62
     5
 10
490.7132924877586
 20
643.2369255894387
 30
0.0
 40
2.841800933248724
 50
274.3279277792379
 51
293.0487227247415
  0
ARC
  5
287
  8
DEFAULT
 62
     5
 10
490.9087665346409
 20
641.0111182864199
 30
0.0
 40
0.6081864328450759
 50
233.8334457002178
 51
271.7885227949168
  0
ARC
  5
288
  8
DEFAULT
 62
     5
 10
490.8549288551961
 20
640.9389002451223
 30
0.0
 40
0.5181136682052747
 50
193.6077954275996
 51
233.9268976046466
  0
LINE
  5
289
  8
DEFAULT
 62
     5
 10
490.3073775687822
 20
642.0837844749598
 30
0.0
 11
490.3513591562291
 21
640.8170013876075
 31
0.0
  0
LINE
  5
28A
  8
DEFAULT
 62
     5
 10
490.3073775687822
 20
645.6624874015837
 30
0.0
 11
490.3073775687822
 21
642.0837844749598
 31
0.0
  0
LINE
  5
28B
  8
DEFAULT
 62
     5
 10
491.8629331243378
 20
645.6624874015837
 30
0.0
 11
490.3073775687822
 21
645.6624874015837
 31
0.0
  0
LINE
  5
28C
  8
DEFAULT
 62
     5
 10
491.8629331243378
 20
647.4402651793614
 30
0.0
 11
491.8629331243378
 21
645.6624874015837
 31
0.0
  0
LINE
  5
28D
  8
DEFAULT
 62
     5
 10
495.8629331243378
 20
647.4402651793614
 30
0.0
 11
497.4184886798933
 21
647.4402651793614
 31
0.0
  0
LINE
  5
28E
  8
DEFAULT
 62
     5
 10
495.8629331243378
 20
650.4032281423245
 30
0.0
 11
495.8629331243378
 21
647.4402651793614
 31
0.0
  0
LINE
  5
28F
  8
DEFAULT
 62
     5
 10
493.5666368280415
 20
649.0698948089911
 30
0.0
 11
495.8629331243378
 21
650.4032281423245
 31
0.0
  0
LINE
  5
290
  8
DEFAULT
 62
     5
 10
493.5666368280415
 20
647.4402651793614
 30
0.0
 11
493.5666368280415
 21
649.0698948089911
 31
0.0
  0
LINE
  5
291
  8
DEFAULT
 62
     5
 10
492.4555257169303
 20
647.4402651793614
 30
0.0
 11
493.5666368280415
 21
647.4402651793614
 31
0.0
  0
LINE
  5
292
  8
DEFAULT
 62
     5
 10
492.4555257169303
 20
645.6624874015837
 30
0.0
 11
492.4555257169303
 21
647.4402651793614
 31
0.0
  0
LINE
  5
293
  8
DEFAULT
 62
     5
 10
493.5666368280415
 20
645.6624874015837
 30
0.0
 11
492.4555257169303
 21
645.6624874015837
 31
0.0
  0
LINE
  5
294
  8
DEFAULT
 62
     5
 10
493.5666368280415
 20
641.8430434516446
 30
0.0
 11
493.5666368280415
 21
645.6624874015837
 31
0.0
  0
ARC
  5
295
  8
DEFAULT
 62
     5
 10
504.9945967998088
 20
641.535121482749
 30
0.0
 40
11.43210763836863
 50
178.4565607902524
 51
186.6565407911661
  0
ARC
  5
296
  8
DEFAULT
 62
     5
 10
495.8030557530266
 20
640.4621090491678
 30
0.0
 40
2.178147299107769
 50
186.648129215604
 51
212.0397559740705
  0
ARC
  5
297
  8
DEFAULT
 62
     5
 10
495.2513064317783
 20
640.2705457613652
 30
0.0
 40
1.614084350440299
 50
216.6709158171626
 51
249.1633884818653
  0
ARC
  5
298
  8
DEFAULT
 62
     5
 10
495.7377221197465
 20
641.3223194039633
 30
0.0
 40
2.771259562074168
 50
247.4991673670519
 51
270.8658740788697
  0
ARC
  5
299
  8
DEFAULT
 62
     5
 10
495.8557377069944
 20
643.1001042662871
 30
0.0
 40
4.549365123795534
 50
269.0410687811229
 51
292.0907242138878
  0
LINE
  5
29A
  8
DEFAULT
 62
     5
 10
497.3814522080052
 20
640.6219792196396
 30
0.0
 11
497.5666368280415
 21
638.8847101889548
 31
0.0
  0
ARC
  5
29B
  8
DEFAULT
 62
     5
 10
496.2688480433142
 20
643.2369255894387
 30
0.0
 40
2.841800933248724
 50
274.3279277792379
 51
293.0487227247415
  0
ARC
  5
29C
  8
DEFAULT
 62
     5
 10
496.4643220901963
 20
641.0111182864194
 30
0.0
 40
0.6081864328446082
 50
233.8334457002055
 51
271.7885227949287
  0
ARC
  5
29D
  8
DEFAULT
 62
     5
 10
496.4104844107516
 20
640.9389002451223
 30
0.0
 40
0.5181136682052195
 50
193.6077954276011
 51
233.9268976046443
  0
LINE
  5
29E
  8
DEFAULT
 62
     5
 10
495.8629331243378
 20
642.0837844749598
 30
0.0
 11
495.9069147117847
 21
640.8170013876075
 31
0.0
  0
LINE
  5
29F
  8
DEFAULT
 62
     5
 10
495.8629331243378
 20
645.6624874015837
 30
0.0
 11
495.8629331243378
 21
642.0837844749598
 31
0.0
  0
LINE
  5
2A0
  8
DEFAULT
 62
     5
 10
497.4184886798933
 20
645.6624874015837
 30
0.0
 11
495.8629331243378
 21
645.6624874015837
 31
0.0
  0
LINE
  5
2A1
  8
DEFAULT
 62
     5
 10
497.4184886798933
 20
647.4402651793614
 30
0.0
 11
497.4184886798933
 21
645.6624874015837
 31
0.0
  0
LINE
  5
2A2
  8
DEFAULT
 62
     5
 10
501.2703405317451
 20
648.6995244386208
 30
0.0
 11
498.9740442354488
 21
648.6995244386208
 31
0.0
  0
LINE
  5
2A3
  8
DEFAULT
 62
     5
 10
501.2703405317451
 20
650.6995244386208
 30
0.0
 11
501.2703405317451
 21
648.6995244386208
 31
0.0
  0
LINE
  5
2A4
  8
DEFAULT
 62
     5
 10
498.9740442354488
 20
650.6995244386208
 30
0.0
 11
501.2703405317451
 21
650.6995244386208
 31
0.0
  0
LINE
  5
2A5
  8
DEFAULT
 62
     5
 10
498.9740442354488
 20
648.6995244386208
 30
0.0
 11
498.9740442354488
 21
650.6995244386208
 31
0.0
  0
LINE
  5
2A6
  8
DEFAULT
 62
     5
 10
501.2703405317451
 20
638.7735985126948
 30
0.0
 11
498.9740442354488
 21
638.7735985126948
 31
0.0
  0
LINE
  5
2A7
  8
DEFAULT
 62
     5
 10
501.2703405317451
 20
647.4402651793614
 30
0.0
 11
501.2703405317451
 21
638.7735985126948
 31
0.0
  0
LINE
  5
2A8
  8
DEFAULT
 62
     5
 10
498.9740442354488
 20
647.4402651793614
 30
0.0
 11
501.2703405317451
 21
647.4402651793614
 31
0.0
  0
LINE
  5
2A9
  8
DEFAULT
 62
     5
 10
498.9740442354488
 20
638.7735985126948
 30
0.0
 11
498.9740442354488
 21
647.4402651793614
 31
0.0
  0
LINE
  5
2AA
  8
DEFAULT
 62
     5
 10
511.4184886798933
 20
644.1752199250585
 30
0.0
 11
511.4184886798933
 21
638.7735985126948
 31
0.0
  0
ARC
  5
2AB
  8
DEFAULT
 62
     5
 10
504.1271347634913
 20
644.3650164523893
 30
0.0
 40
7.293823733544595
 50
358.508907264175
 51
10.7274773151096
  0
ARC
  5
2AC
  8
DEFAULT
 62
     5
 10
508.8081227412765
 20
645.1654254546005
 30
0.0
 40
2.547070938265824
 50
12.63737062503884
 51
36.72554568254273
  0
ARC
  5
2AD
  8
DEFAULT
 62
     5
 10
509.0487016092842
 20
645.2504586322333
 30
0.0
 40
2.304640245733922
 50
38.60804250594678
 51
68.05969486275974
  0
ARC
  5
2AE
  8
DEFAULT
 62
     5
 10
508.5804104042509
 20
644.3070726782388
 30
0.0
 40
3.355671984702397
 50
66.66138377910383
 51
90.70947636503426
  0
ARC
  5
2AF
  8
DEFAULT
 62
     5
 10
508.5287504820944
 20
644.2553296485193
 30
0.0
 40
3.407172748815936
 50
89.83000942993196
 51
145.6792930639841
  0
LINE
  5
2B0
  8
DEFAULT
 62
     5
 10
505.7147849761896
 20
647.4402651793614
 30
0.0
 11
505.7147849761896
 21
646.1763773501268
 31
0.0
  0
LINE
  5
2B1
  8
DEFAULT
 62
     5
 10
503.5666368280415
 20
647.4402651793614
 30
0.0
 11
505.7147849761896
 21
647.4402651793614
 31
0.0
  0
LINE
  5
2B2
  8
DEFAULT
 62
     5
 10
503.5666368280415
 20
638.7735985126948
 30
0.0
 11
503.5666368280415
 21
647.4402651793614
 31
0.0
  0
LINE
  5
2B3
  8
DEFAULT
 62
     5
 10
505.8629331243378
 20
638.7735985126948
 30
0.0
 11
503.5666368280415
 21
638.7735985126948
 31
0.0
  0
LINE
  5
2B4
  8
DEFAULT
 62
     5
 10
505.8629331243378
 20
642.700681863689
 30
0.0
 11
505.8629331243378
 21
638.7735985126948
 31
0.0
  0
ARC
  5
2B5
  8
DEFAULT
 62
     5
 10
513.465730516887
 20
643.0463418691943
 30
0.0
 40
7.610651025474718
 50
167.5033086268558
 51
182.6031511096262
  0
ARC
  5
2B6
  8
DEFAULT
 62
     5
 10
507.6022123923916
 20
644.2052176557697
 30
0.0
 40
1.641044820898582
 50
124.458359302904
 51
162.7023398906148
  0
ARC
  5
2B7
  8
DEFAULT
 62
     5
 10
507.7040065287437
 20
644.0960190809787
 30
0.0
 40
1.788816116206266
 50
89.32109952587373
 51
125.1677702151577
  0
ARC
  5
2B8
  8
DEFAULT
 62
     5
 10
507.7626040952892
 20
644.5594270739998
 30
0.0
 40
1.325810230907271
 50
55.81100897715504
 51
91.61657970692818
  0
ARC
  5
2B9
  8
DEFAULT
 62
     5
 10
507.7672957888195
 20
644.6204375745992
 30
0.0
 40
1.273069739227801
 50
18.07856121184367
 51
54.44258944916867
  0
ARC
  5
2BA
  8
DEFAULT
 62
     5
 10
502.1867359973945
 20
643.5605062763203
 30
0.0
 40
6.944904572171485
 50
357.010985967229
 51
12.09333727638542
  0
LINE
  5
2BB
  8
DEFAULT
 62
     5
 10
509.122192383597
 20
638.7735985126948
 30
0.0
 11
509.122192383597
 21
643.1983678612759
 31
0.0
  0
LINE
  5
2BC
  8
DEFAULT
 62
     5
 10
511.4184886798933
 20
638.7735985126948
 30
0.0
 11
509.122192383597
 21
638.7735985126948
 31
0.0
  0
LINE
  5
2BD
  8
DEFAULT
 62
     5
 10
513.4844619087871
 20
637.9020709998306
 30
0.0
 11
513.4925627539674
 21
638.1810059201022
 31
0.0
  0
ARC
  5
2BE
  8
DEFAULT
 62
     5
 10
515.8801016873153
 20
637.8596532810529
 30
0.0
 40
2.396015277775458
 50
178.9856144685705
 51
231.7777965780988
  0
ARC
  5
2BF
  8
DEFAULT
 62
     5
 10
517.046870412728
 20
640.0880090840822
 30
0.0
 40
4.890423784419986
 50
237.1995604189009
 51
275.242565265815
  0
ARC
  5
2C0
  8
DEFAULT
 62
     5
 10
517.657718462161
 20
641.5042594240674
 30
0.0
 40
6.288355341895607
 50
268.5055750754551
 51
286.128723372299
  0
ARC
  5
2C1
  8
DEFAULT
 62
     5
 10
518.5295522527274
 20
638.4339462005796
 30
0.0
 40
3.096735743312227
 50
286.4137135182856
 51
312.2809690040976
  0
ARC
  5
2C2
  8
DEFAULT
 62
     5
 10
518.5736573106287
 20
638.1466480211834
 30
0.0
 40
2.859021708147265
 50
315.502214131175
 51
343.5788237630973
  0
ARC
  5
2C3
  8
DEFAULT
 62
     5
 10
513.7067419059557
 20
639.3310467829812
 30
0.0
 40
7.865893502944973
 50
345.3256040847964
 51
2.23777007241236
  0
LINE
  5
2C4
  8
DEFAULT
 62
     5
 10
521.5666368280415
 20
647.4402651793614
 30
0.0
 11
521.5666368280415
 21
639.638182605447
 31
0.0
  0
LINE
  5
2C5
  8
DEFAULT
 62
     5
 10
519.4184886798932
 20
647.4402651793614
 30
0.0
 11
521.5666368280415
 21
647.4402651793614
 31
0.0
  0
LINE
  5
2C6
  8
DEFAULT
 62
     5
 10
519.4184886798932
 20
646.2319326231079
 30
0.0
 11
519.4184886798932
 21
647.4402651793614
 31
0.0
  0
ARC
  5
2C7
  8
DEFAULT
 62
     5
 10
516.794638444618
 20
644.5409484534168
 30
0.0
 40
3.121540888615671
 50
32.80043327048529
 51
89.9361142151972
  0
ARC
  5
2C8
  8
DEFAULT
 62
     5
 10
516.7401041626167
 20
644.3552930120766
 30
0.0
 40
3.307703199078726
 50
88.99501965710236
 51
139.3842173020034
  0
ARC
  5
2C9
  8
DEFAULT
 62
     5
 10
518.0337793121669
 20
643.5022466326793
 30
0.0
 40
4.848947931356065
 50
141.6844928773959
 51
183.935671112616
  0
ARC
  5
2CA
  8
DEFAULT
 62
     5
 10
518.294880731245
 20
642.984606543891
 30
0.0
 40
5.101963156141588
 50
177.9239266715097
 51
212.3435958669733
  0
ARC
  5
2CB
  8
DEFAULT
 62
     5
 10
516.6464052376075
 20
641.9045229893749
 30
0.0
 40
3.131550092950042
 50
211.7839529703369
 51
271.1452998304858
  0
ARC
  5
2CC
  8
DEFAULT
 62
     5
 10
516.7193513861085
 20
641.8668457474881
 30
0.0
 40
3.09326456022547
 50
269.8082341200562
 51
325.5572317139015
  0
LINE
  5
2CD
  8
DEFAULT
 62
     5
 10
519.2703405317452
 20
638.8708210881351
 30
0.0
 11
519.2703405317452
 21
640.117348671643
 31
0.0
  0
ARC
  5
2CE
  8
DEFAULT
 62
     5
 10
515.7550159907074
 20
638.6915956402413
 30
0.0
 40
3.519890394599704
 50
345.8753124425678
 51
2.918643199275566
  0
ARC
  5
2CF
  8
DEFAULT
 62
     5
 10
518.1305688908399
 20
638.1747763372553
 30
0.0
 40
1.092861098149834
 50
303.2534377384791
 51
341.7552349421331
  0
ARC
  5
2D0
  8
DEFAULT
 62
     5
 10
517.5962626752884
 20
639.5045597267333
 30
0.0
 40
2.513788683635113
 50
266.3677275939132
 51
296.8040482730717
  0
ARC
  5
2D1
  8
DEFAULT
 62
     5
 10
517.3095472396083
 20
638.5730113656614
 30
0.0
 40
1.582332581614975
 50
237.0859876726695
 51
274.6203022113579
  0
ARC
  5
2D2
  8
DEFAULT
 62
     5
 10
517.0882096337515
 20
637.9204114908798
 30
0.0
 40
0.929665993610695
 50
182.2008650916908
 51
226.6247617960573
  0
LINE
  5
2D3
  8
DEFAULT
 62
     5
 10
513.4925627539674
 20
638.1810059201022
 30
0.0
 11
516.1592294206341
 21
637.8847096238059
 31
0.0
  0
ARC
  5
2D4
  8
DEFAULT
 62
     5
 10
518.6076266680917
 20
643.4889892842662
 30
0.0
 40
3.124095537641262
 50
146.0251206251023
 51
184.3577576357433
  0
ARC
  5
2D5
  8
DEFAULT
 62
     5
 10
517.3239479911833
 20
644.2458198792367
 30
0.0
 40
1.639081883212664
 50
89.12269842730853
 51
142.8869182853876
  0
ARC
  5
2D6
  8
DEFAULT
 62
     5
 10
517.3760940344771
 20
644.1781819850316
 30
0.0
 40
1.70674200443603
 50
37.70819223227399
 51
90.90810453995702
  0
ARC
  5
2D7
  8
DEFAULT
 62
     5
 10
516.1230772861579
 20
643.4368015623171
 30
0.0
 40
3.156635194963648
 50
355.5838083816697
 51
34.4417551780792
  0
ARC
  5
2D8
  8
DEFAULT
 62
     5
 10
516.3021785955973
 20
642.977918542366
 30
0.0
 40
2.975997880877239
 50
323.7466737644248
 51
4.15874548772212
  0
ARC
  5
2D9
  8
DEFAULT
 62
     5
 10
517.3215766412098
 20
642.313891733094
 30
0.0
 40
1.762555504597231
 50
269.6136924162689
 51
321.5567929501092
  0
ARC
  5
2DA
  8
DEFAULT
 62
     5
 10
517.3051802370385
 20
642.1532584429281
 30
0.0
 40
1.601888508992225
 50
216.462535209411
 51
270.1614105472045
  0
ARC
  5
2DB
  8
DEFAULT
 62
     5
 10
518.7350392094697
 20
642.9885495585645
 30
0.0
 40
3.253129794148728
 50
175.3618115406722
 51
213.3262647147162
  0
LINE
  5
2DC
  8
DEFAULT
 62
     5
 10
235.5131190447463
 20
618.98860748452
 30
0.0
 11
233.2399712498162
 21
618.98860748452
 31
0.0
  0
LINE
  5
2DD
  8
DEFAULT
 62
     5
 10
237.0270084281405
 20
624.5626818411686
 30
0.0
 11
235.5131190447463
 21
618.98860748452
 31
0.0
  0
LINE
  5
2DE
  8
DEFAULT
 62
     5
 10
238.4946008088022
 20
618.98860748452
 30
0.0
 11
237.0270084281405
 21
624.5626818411686
 31
0.0
  0
LINE
  5
2DF
  8
DEFAULT
 62
     5
 10
240.6716845836582
 20
618.98860748452
 30
0.0
 11
238.4946008088022
 21
618.98860748452
 31
0.0
  0
LINE
  5
2E0
  8
DEFAULT
 62
     5
 10
243.4344152703989
 20
627.6552741511866
 30
0.0
 11
240.6716845836582
 21
618.98860748452
 31
0.0
  0
LINE
  5
2E1
  8
DEFAULT
 62
     5
 10
241.1902031021767
 20
627.6552741511866
 30
0.0
 11
243.4344152703989
 21
627.6552741511866
 31
0.0
  0
LINE
  5
2E2
  8
DEFAULT
 62
     5
 10
239.545526946659
 20
621.9758763739176
 30
0.0
 11
241.1902031021767
 21
627.6552741511866
 31
0.0
  0
LINE
  5
2E3
  8
DEFAULT
 62
     5
 10
238.1253878635002
 20
627.6552741511866
 30
0.0
 11
239.545526946659
 21
621.9758763739176
 31
0.0
  0
LINE
  5
2E4
  8
DEFAULT
 62
     5
 10
235.899693366073
 20
627.6552741511866
 30
0.0
 11
238.1253878635002
 21
627.6552741511866
 31
0.0
  0
LINE
  5
2E5
  8
DEFAULT
 62
     5
 10
234.3603417614738
 20
621.9758763739176
 30
0.0
 11
235.899693366073
 21
627.6552741511866
 31
0.0
  0
LINE
  5
2E6
  8
DEFAULT
 62
     5
 10
232.7202953062294
 20
627.6552741511866
 30
0.0
 11
234.3603417614738
 21
621.9758763739176
 31
0.0
  0
LINE
  5
2E7
  8
DEFAULT
 62
     5
 10
230.471452307436
 20
627.6552741511866
 30
0.0
 11
232.7202953062294
 21
627.6552741511866
 31
0.0
  0
LINE
  5
2E8
  8
DEFAULT
 62
     5
 10
233.2399712498162
 20
618.98860748452
 30
0.0
 11
230.471452307436
 21
627.6552741511866
 31
0.0
  0
LINE
  5
2E9
  8
DEFAULT
 62
     5
 10
248.4020079336352
 20
618.98860748452
 30
0.0
 11
246.1288601387051
 21
618.98860748452
 31
0.0
  0
LINE
  5
2EA
  8
DEFAULT
 62
     5
 10
249.9158973170294
 20
624.5626818411686
 30
0.0
 11
248.4020079336352
 21
618.98860748452
 31
0.0
  0
LINE
  5
2EB
  8
DEFAULT
 62
     5
 10
251.3834896976911
 20
618.98860748452
 30
0.0
 11
249.9158973170294
 21
624.5626818411686
 31
0.0
  0
LINE
  5
2EC
  8
DEFAULT
 62
     5
 10
253.5605734725471
 20
618.98860748452
 30
0.0
 11
251.3834896976911
 21
618.98860748452
 31
0.0
  0
LINE
  5
2ED
  8
DEFAULT
 62
     5
 10
256.3233041592878
 20
627.6552741511866
 30
0.0
 11
253.5605734725471
 21
618.98860748452
 31
0.0
  0
LINE
  5
2EE
  8
DEFAULT
 62
     5
 10
254.0790919910656
 20
627.6552741511866
 30
0.0
 11
256.3233041592878
 21
627.6552741511866
 31
0.0
  0
LINE
  5
2EF
  8
DEFAULT
 62
     5
 10
252.4344158355479
 20
621.9758763739176
 30
0.0
 11
254.0790919910656
 21
627.6552741511866
 31
0.0
  0
LINE
  5
2F0
  8
DEFAULT
 62
     5
 10
251.0142767523891
 20
627.6552741511866
 30
0.0
 11
252.4344158355479
 21
621.9758763739176
 31
0.0
  0
LINE
  5
2F1
  8
DEFAULT
 62
     5
 10
248.7885822549619
 20
627.6552741511866
 30
0.0
 11
251.0142767523891
 21
627.6552741511866
 31
0.0
  0
LINE
  5
2F2
  8
DEFAULT
 62
     5
 10
247.2492306503627
 20
621.9758763739176
 30
0.0
 11
248.7885822549619
 21
627.6552741511866
 31
0.0
  0
LINE
  5
2F3
  8
DEFAULT
 62
     5
 10
245.6091841951183
 20
627.6552741511866
 30
0.0
 11
247.2492306503627
 21
621.9758763739176
 31
0.0
  0
LINE
  5
2F4
  8
DEFAULT
 62
     5
 10
243.3603411963249
 20
627.6552741511866
 30
0.0
 11
245.6091841951183
 21
627.6552741511866
 31
0.0
  0
LINE
  5
2F5
  8
DEFAULT
 62
     5
 10
246.1288601387051
 20
618.98860748452
 30
0.0
 11
243.3603411963249
 21
627.6552741511866
 31
0.0
  0
LINE
  5
2F6
  8
DEFAULT
 62
     5
 10
261.290896822524
 20
618.98860748452
 30
0.0
 11
259.017749027594
 21
618.98860748452
 31
0.0
  0
LINE
  5
2F7
  8
DEFAULT
 62
     5
 10
262.8047862059183
 20
624.5626818411686
 30
0.0
 11
261.290896822524
 21
618.98860748452
 31
0.0
  0
LINE
  5
2F8
  8
DEFAULT
 62
     5
 10
264.27237858658
 20
618.98860748452
 30
0.0
 11
262.8047862059183
 21
624.5626818411686
 31
0.0
  0
LINE
  5
2F9
  8
DEFAULT
 62
     5
 10
266.449462361436
 20
618.98860748452
 30
0.0
 11
264.27237858658
 21
618.98860748452
 31
0.0
  0
LINE
  5
2FA
  8
DEFAULT
 62
     5
 10
269.2121930481767
 20
627.6552741511866
 30
0.0
 11
266.449462361436
 21
618.98860748452
 31
0.0
  0
LINE
  5
2FB
  8
DEFAULT
 62
     5
 10
266.9679808799545
 20
627.6552741511866
 30
0.0
 11
269.2121930481767
 21
627.6552741511866
 31
0.0
  0
LINE
  5
2FC
  8
DEFAULT
 62
     5
 10
265.3233047244368
 20
621.9758763739176
 30
0.0
 11
266.9679808799545
 21
627.6552741511866
 31
0.0
  0
LINE
  5
2FD
  8
DEFAULT
 62
     5
 10
263.903165641278
 20
627.6552741511866
 30
0.0
 11
265.3233047244368
 21
621.9758763739176
 31
0.0
  0
LINE
  5
2FE
  8
DEFAULT
 62
     5
 10
261.6774711438508
 20
627.6552741511866
 30
0.0
 11
263.903165641278
 21
627.6552741511866
 31
0.0
  0
LINE
  5
2FF
  8
DEFAULT
 62
     5
 10
260.1381195392516
 20
621.9758763739176
 30
0.0
 11
261.6774711438508
 21
627.6552741511866
 31
0.0
  0
LINE
  5
300
  8
DEFAULT
 62
     5
 10
258.4980730840072
 20
627.6552741511866
 30
0.0
 11
260.1381195392516
 21
621.9758763739176
 31
0.0
  0
LINE
  5
301
  8
DEFAULT
 62
     5
 10
256.2492300852138
 20
627.6552741511866
 30
0.0
 11
258.4980730840072
 21
627.6552741511866
 31
0.0
  0
LINE
  5
302
  8
DEFAULT
 62
     5
 10
259.017749027594
 20
618.98860748452
 30
0.0
 11
256.2492300852138
 21
627.6552741511866
 31
0.0
  0
LINE
  5
303
  8
DEFAULT
 62
     5
 10
272.471452307436
 20
618.98860748452
 30
0.0
 11
270.1751560111397
 21
618.98860748452
 31
0.0
  0
LINE
  5
304
  8
DEFAULT
 62
     5
 10
272.471452307436
 20
621.2849037808163
 30
0.0
 11
272.471452307436
 21
618.98860748452
 31
0.0
  0
LINE
  5
305
  8
DEFAULT
 62
     5
 10
270.1751560111397
 20
621.2849037808163
 30
0.0
 11
272.471452307436
 21
621.2849037808163
 31
0.0
  0
LINE
  5
306
  8
DEFAULT
 62
     5
 10
270.1751560111397
 20
618.98860748452
 30
0.0
 11
270.1751560111397
 21
621.2849037808163
 31
0.0
  0
ARC
  5
307
  8
DEFAULT
 62
     5
 10
278.677917048174
 20
624.2453251565631
 30
0.0
 40
3.75279835370937
 50
13.74124921964698
 51
51.94653735769799
  0
ARC
  5
308
  8
DEFAULT
 62
     5
 10
278.7110359707021
 20
623.7347851075742
 30
0.0
 40
4.148421768091714
 50
56.65843649088529
 51
93.0066519928769
  0
ARC
  5
309
  8
DEFAULT
 62
     5
 10
278.2995454867533
 20
623.9130756172375
 30
0.0
 40
3.969159649902717
 50
87.19992250859234
 51
135.9063161205841
  0
ARC
  5
30A
  8
DEFAULT
 62
     5
 10
279.0427277515008
 20
623.602408785633
 30
0.0
 40
4.728237655693576
 50
139.4713589968531
 51
183.4989968931609
  0
ARC
  5
30B
  8
DEFAULT
 62
     5
 10
279.0206833133388
 20
623.0370279146434
 30
0.0
 40
4.705528187090513
 50
176.6275216080921
 51
220.6290117161411
  0
ARC
  5
30C
  8
DEFAULT
 62
     5
 10
278.2885611140265
 20
622.6961690646918
 30
0.0
 40
3.933983770548843
 50
223.8061799116891
 51
272.6477866780688
  0
ARC
  5
30D
  8
DEFAULT
 62
     5
 10
278.68415252198
 20
622.8586217505014
 30
0.0
 40
4.097820650292114
 50
267.0084966366617
 51
306.6460348930944
  0
ARC
  5
30E
  8
DEFAULT
 62
     5
 10
278.4519808168332
 20
622.6480052353147
 30
0.0
 40
4.079359321936563
 50
311.0323195198843
 51
350.1702224221795
  0
LINE
  5
30F
  8
DEFAULT
 62
     5
 10
280.1751560111397
 20
622.2478667437792
 30
0.0
 11
282.471452307436
 21
621.9515704474829
 31
0.0
  0
ARC
  5
310
  8
DEFAULT
 62
     5
 10
277.9877346860306
 20
622.4959388612046
 30
0.0
 40
2.20144312417688
 50
316.6637628800274
 51
353.5298172146401
  0
ARC
  5
311
  8
DEFAULT
 62
     5
 10
278.5865078192904
 20
622.1656659074987
 30
0.0
 40
1.54870954851476
 50
267.6696796144531
 51
310.3355415046163
  0
ARC
  5
312
  8
DEFAULT
 62
     5
 10
278.4640141871428
 20
622.30022368893
 30
0.0
 40
1.683039433819671
 50
217.9237598606489
 51
272.0267409488702
  0
ARC
  5
313
  8
DEFAULT
 62
     5
 10
280.2309559214199
 20
623.1560561256019
 30
0.0
 40
3.626213103335841
 50
174.8115905084305
 51
211.4177233920118
  0
ARC
  5
314
  8
DEFAULT
 62
     5
 10
279.7565903323843
 20
623.7680956866085
 30
0.0
 40
3.149829834750232
 50
146.6903575930675
 51
185.1751569443616
  0
ARC
  5
315
  8
DEFAULT
 62
     5
 10
278.4115354498924
 20
624.4256656426727
 30
0.0
 40
1.675341846512431
 50
87.752383120975
 51
140.2089485758423
  0
ARC
  5
316
  8
DEFAULT
 62
     5
 10
278.546730180598
 20
624.5424432039702
 30
0.0
 40
1.558825073414391
 50
51.63347369270202
 51
92.55503106094557
  0
ARC
  5
317
  8
DEFAULT
 62
     5
 10
278.4369705455332
 20
624.5805139033691
 30
0.0
 40
1.600864401809243
 50
6.667471865535785
 51
47.70461066400688
  0
LINE
  5
318
  8
DEFAULT
 62
     5
 10
282.3233041592878
 20
625.1367556326682
 30
0.0
 11
280.0270078629915
 21
624.7663852622978
 31
0.0
  0
LINE
  5
319
  8
DEFAULT
 62
     5
 10
286.3973782333619
 20
621.6691632520065
 30
0.0
 11
286.3973782333619
 21
618.98860748452
 31
0.0
  0
ARC
  5
31A
  8
DEFAULT
 62
     5
 10
300.7340632593494
 20
622.2306170937676
 30
0.0
 40
14.34767465308586
 50
170.5847659886351
 51
182.2426736111702
  0
ARC
  5
31B
  8
DEFAULT
 62
     5
 10
288.3923141613924
 20
624.2439445652639
 30
0.0
 40
1.843119354743848
 50
135.4130385873526
 51
169.5663233837929
  0
ARC
  5
31C
  8
DEFAULT
 62
     5
 10
287.8223535643989
 20
624.6344387515561
 30
0.0
 40
1.169459423468252
 50
88.36541865200472
 51
129.4248126679597
  0
ARC
  5
31D
  8
DEFAULT
 62
     5
 10
287.7587513771244
 20
623.946439411296
 30
0.0
 40
1.859512537070652
 50
52.96039300966248
 51
87.01105821606401
  0
LINE
  5
31E
  8
DEFAULT
 62
     5
 10
289.5825634185471
 20
627.4411539044427
 30
0.0
 11
288.8788602799924
 21
625.4307382091257
 31
0.0
  0
ARC
  5
31F
  8
DEFAULT
 62
     5
 10
288.1175274339618
 20
625.2003547728121
 30
0.0
 40
2.677220794862856
 50
56.82331375475398
 51
89.55929956904095
  0
ARC
  5
320
  8
DEFAULT
 62
     5
 10
288.1160578415662
 20
626.2524055062296
 30
0.0
 40
1.625240611446322
 50
89.22221917152329
 51
124.7274094550609
  0
ARC
  5
321
  8
DEFAULT
 62
     5
 10
289.6484661733469
 20
624.626561261508
 30
0.0
 40
3.848900640378154
 50
129.6943849709503
 51
152.0272350136563
  0
LINE
  5
322
  8
DEFAULT
 62
     5
 10
286.2492300852138
 20
627.6552741511866
 30
0.0
 11
286.2492300852138
 21
626.4318950690451
 31
0.0
  0
LINE
  5
323
  8
DEFAULT
 62
     5
 10
284.1010819370656
 20
627.6552741511866
 30
0.0
 11
286.2492300852138
 21
627.6552741511866
 31
0.0
  0
LINE
  5
324
  8
DEFAULT
 62
     5
 10
284.1010819370656
 20
618.98860748452
 30
0.0
 11
284.1010819370656
 21
627.6552741511866
 31
0.0
  0
LINE
  5
325
  8
DEFAULT
 62
     5
 10
286.3973782333619
 20
618.98860748452
 30
0.0
 11
284.1010819370656
 21
618.98860748452
 31
0.0
  0
ARC
  5
326
  8
DEFAULT
 62
     5
 10
293.9273744721937
 20
624.5645235845125
 30
0.0
 40
1.73090026801021
 50
131.8832255126464
 51
165.8177110061258
  0
ARC
  5
327
  8
DEFAULT
 62
     5
 10
293.5842671806463
 20
624.6527449586189
 30
0.0
 40
1.449542476957469
 50
86.58842567009985
 51
124.0903098983616
  0
ARC
  5
328
  8
DEFAULT
 62
     5
 10
293.8598143924073
 20
624.3761994658763
 30
0.0
 40
1.733882366675446
 50
55.9426392499413
 51
96.26746730820888
  0
ARC
  5
329
  8
DEFAULT
 62
     5
 10
293.8731849794322
 20
624.9767287703235
 30
0.0
 40
1.271179330345754
 50
354.3181458612087
 51
41.11861076838493
  0
LINE
  5
32A
  8
DEFAULT
 62
     5
 10
295.1381189741027
 20
624.6182371141497
 30
0.0
 11
295.1381189741027
 21
624.8508761619867
 31
0.0
  0
ARC
  5
32B
  8
DEFAULT
 62
     5
 10
291.0713989149581
 20
635.8355186381557
 30
0.0
 40
11.93170636699779
 50
279.1179904553904
 51
289.927637048504
  0
ARC
  5
32C
  8
DEFAULT
 62
     5
 10
294.168287199938
 20
616.7986570573024
 30
0.0
 40
7.355479678499467
 50
99.43752684916373
 51
113.9575582475088
  0
ARC
  5
32D
  8
DEFAULT
 62
     5
 10
292.16408727416
 20
621.4865462429219
 30
0.0
 40
2.258792341023304
 50
115.785017571509
 51
149.3202322545695
  0
ARC
  5
32E
  8
DEFAULT
 62
     5
 10
292.3894277376904
 20
621.3722955911078
 30
0.0
 40
2.510943288034083
 50
149.7017198693772
 51
180.9905895128768
  0
ARC
  5
32F
  8
DEFAULT
 62
     5
 10
292.2953281267902
 20
621.2618351132817
 30
0.0
 40
2.417398477375507
 50
178.4105964305277
 51
227.0418252861305
  0
ARC
  5
330
  8
DEFAULT
 62
     5
 10
292.5878753292205
 20
621.701895715154
 30
0.0
 40
2.94006966521076
 50
228.7138226467358
 51
273.1912429493763
  0
ARC
  5
331
  8
DEFAULT
 62
     5
 10
292.7732327293928
 20
622.2990741843569
 30
0.0
 40
3.532755488804636
 50
269.6482693741273
 51
293.4009598741304
  0
ARC
  5
332
  8
DEFAULT
 62
     5
 10
292.4917841155577
 20
622.8206738022296
 30
0.0
 40
4.123550644320546
 50
294.1115382807236
 51
315.4381483601234
  0
LINE
  5
333
  8
DEFAULT
 62
     5
 10
295.5108041946096
 20
619.65990385146
 30
0.0
 11
295.4297867004236
 21
619.9272656513464
 31
0.0
  0
LINE
  5
334
  8
DEFAULT
 62
     5
 10
295.7307115666952
 20
618.98860748452
 30
0.0
 11
295.5108041946096
 21
619.65990385146
 31
0.0
  0
LINE
  5
335
  8
DEFAULT
 62
     5
 10
298.0270078629915
 20
618.98860748452
 30
0.0
 11
295.7307115666952
 21
618.98860748452
 31
0.0
  0
ARC
  5
336
  8
DEFAULT
 62
     5
 10
301.9840247476169
 20
621.2521352926507
 30
0.0
 40
4.55867752351396
 50
193.9300067760588
 51
209.7708018394485
  0
ARC
  5
337
  8
DEFAULT
 62
     5
 10
305.6956675791109
 20
621.6061689706555
 30
0.0
 40
8.264706454326271
 50
178.3434316421975
 51
190.1149198716089
  0
LINE
  5
338
  8
DEFAULT
 62
     5
 10
297.434415270399
 20
624.5302750695537
 30
0.0
 11
297.434415270399
 21
621.845089601794
 31
0.0
  0
ARC
  5
339
  8
DEFAULT
 62
     5
 10
292.6104164096097
 20
624.8775446596787
 30
0.0
 40
4.836482314360522
 50
355.882499497531
 51
20.72031271770446
  0
ARC
  5
33A
  8
DEFAULT
 62
     5
 10
295.1894146178585
 20
625.4524049668272
 30
0.0
 40
2.252309562874318
 50
30.29899769646715
 51
66.21983099005995
  0
ARC
  5
33B
  8
DEFAULT
 62
     5
 10
294.1510167107868
 20
622.6094257159668
 30
0.0
 40
5.276276231894698
 50
68.35015950611293
 51
93.19583731453108
  0
ARC
  5
33C
  8
DEFAULT
 62
     5
 10
293.5701486846641
 20
623.7799068752182
 30
0.0
 40
4.107608632257394
 50
85.9973601846079
 51
122.5557386378902
  0
ARC
  5
33D
  8
DEFAULT
 62
     5
 10
293.5368581313991
 20
624.5872766604756
 30
0.0
 40
3.433325610016004
 50
129.3537682085846
 51
168.2762710025853
  0
LINE
  5
33E
  8
DEFAULT
 62
     5
 10
292.2492300852138
 20
624.98860748452
 30
0.0
 11
290.1751560111397
 21
625.2849037808163
 31
0.0
  0
LINE
  5
33F
  8
DEFAULT
 62
     5
 10
295.1381189741027
 20
622.6795806427701
 30
0.0
 11
295.1381189741027
 21
623.1367556326682
 31
0.0
  0
ARC
  5
340
  8
DEFAULT
 62
     5
 10
290.4084926552683
 20
622.4805299826921
 30
0.0
 40
4.733813080497421
 50
348.8200066324566
 51
2.409923246694495
  0
ARC
  5
341
  8
DEFAULT
 62
     5
 10
293.6723988944082
 20
621.9550308145087
 30
0.0
 40
1.434760761232181
 50
306.6162767139283
 51
344.1297914860606
  0
ARC
  5
342
  8
DEFAULT
 62
     5
 10
293.3689132796142
 20
622.2481688565301
 30
0.0
 40
1.852338566804197
 50
270.8089086703785
 51
308.7432843414114
  0
ARC
  5
343
  8
DEFAULT
 62
     5
 10
293.3565823774229
 20
621.5696958090292
 30
0.0
 40
1.174311596839535
 50
224.4931823485007
 51
271.8778886342624
  0
ARC
  5
344
  8
DEFAULT
 62
     5
 10
293.3235442766171
 20
621.5661696914646
 30
0.0
 40
1.148458672254055
 50
179.3655616979515
 51
225.5228831191706
  0
ARC
  5
345
  8
DEFAULT
 62
     5
 10
293.141947819159
 20
621.5823004559438
 30
0.0
 40
0.9667978362216707
 50
123.6866761500088
 51
180.2023317014861
  0
ARC
  5
346
  8
DEFAULT
 62
     5
 10
294.4260668800042
 20
618.9258302357954
 30
0.0
 40
3.910460531918059
 50
99.19322986520916
 51
117.7431657009971
  0
LINE
  5
347
  8
DEFAULT
 62
     5
 10
295.1381189741027
 20
623.1367556326682
 30
0.0
 11
293.8013139307133
 21
622.786061488459
 31
0.0
  0
LINE
  5
348
  8
DEFAULT
 62
     5
 10
298.9158967518804
 20
625.8774963734089
 30
0.0
 11
298.9158967518804
 21
627.6552741511866
 31
0.0
  0
LINE
  5
349
  8
DEFAULT
 62
     5
 10
300.1010819370656
 20
625.8774963734089
 30
0.0
 11
298.9158967518804
 21
625.8774963734089
 31
0.0
  0
LINE
  5
34A
  8
DEFAULT
 62
     5
 10
300.1010819370656
 20
618.98860748452
 30
0.0
 11
300.1010819370656
 21
625.8774963734089
 31
0.0
  0
LINE
  5
34B
  8
DEFAULT
 62
     5
 10
302.3973782333619
 20
618.98860748452
 30
0.0
 11
300.1010819370656
 21
618.98860748452
 31
0.0
  0
LINE
  5
34C
  8
DEFAULT
 62
     5
 10
302.3973782333619
 20
625.8774963734089
 30
0.0
 11
302.3973782333619
 21
618.98860748452
 31
0.0
  0
LINE
  5
34D
  8
DEFAULT
 62
     5
 10
304.0270078629915
 20
625.8774963734089
 30
0.0
 11
302.3973782333619
 21
625.8774963734089
 31
0.0
  0
LINE
  5
34E
  8
DEFAULT
 62
     5
 10
304.0270078629915
 20
627.6552741511866
 30
0.0
 11
304.0270078629915
 21
625.8774963734089
 31
0.0
  0
LINE
  5
34F
  8
DEFAULT
 62
     5
 10
302.3973782333619
 20
627.6552741511866
 30
0.0
 11
304.0270078629915
 21
627.6552741511866
 31
0.0
  0
LINE
  5
350
  8
DEFAULT
 62
     5
 10
302.3973782333619
 20
628.2548112941892
 30
0.0
 11
302.3973782333619
 21
627.6552741511866
 31
0.0
  0
ARC
  5
351
  8
DEFAULT
 62
     5
 10
303.7006434424078
 20
628.4005543164627
 30
0.0
 40
1.311389047403853
 50
146.1529420199347
 51
186.380826626223
  0
ARC
  5
352
  8
DEFAULT
 62
     5
 10
303.2285655508746
 20
628.4277870570136
 30
0.0
 40
0.9355404957706314
 50
84.47281128850784
 51
131.2680695069945
  0
ARC
  5
353
  8
DEFAULT
 62
     5
 10
303.2908888946131
 20
624.8856037331882
 30
0.0
 40
4.473460416915501
 50
76.16857087107007
 51
89.64411483707322
  0
LINE
  5
354
  8
DEFAULT
 62
     5
 10
304.6196004555841
 20
630.8404593363719
 30
0.0
 11
304.3603417614738
 21
629.2293485078352
 31
0.0
  0
ARC
  5
355
  8
DEFAULT
 62
     5
 10
302.7330136909355
 20
624.982450188828
 30
0.0
 40
6.154305874203417
 50
72.14871362335417
 51
90.02142721340141
  0
ARC
  5
356
  8
DEFAULT
 62
     5
 10
302.6115632303687
 20
627.9239650838467
 30
0.0
 40
3.214999155726051
 50
87.87611363516098
 51
116.5489934998761
  0
ARC
  5
357
  8
DEFAULT
 62
     5
 10
301.9858300896988
 20
629.1702682096678
 30
0.0
 40
1.820438088074998
 50
116.4640186949293
 51
155.4282419140398
  0
ARC
  5
358
  8
DEFAULT
 62
     5
 10
304.4450628353635
 20
628.518618440355
 30
0.0
 40
4.349250769248973
 50
161.1021007576513
 51
182.8208127475593
  0
LINE
  5
359
  8
DEFAULT
 62
     5
 10
300.1010819370656
 20
627.6552741511866
 30
0.0
 11
300.1010819370656
 21
628.3045805721266
 31
0.0
  0
LINE
  5
35A
  8
DEFAULT
 62
     5
 10
298.9158967518804
 20
627.6552741511866
 30
0.0
 11
300.1010819370656
 21
627.6552741511866
 31
0.0
  0
LINE
  5
35B
  8
DEFAULT
 62
     5
 10
307.8047856407693
 20
627.6552741511866
 30
0.0
 11
309.3603411963248
 21
627.6552741511866
 31
0.0
  0
LINE
  5
35C
  8
DEFAULT
 62
     5
 10
307.8047856407693
 20
630.6182371141497
 30
0.0
 11
307.8047856407693
 21
627.6552741511866
 31
0.0
  0
LINE
  5
35D
  8
DEFAULT
 62
     5
 10
305.508489344473
 20
629.2849037808163
 30
0.0
 11
307.8047856407693
 21
630.6182371141497
 31
0.0
  0
LINE
  5
35E
  8
DEFAULT
 62
     5
 10
305.508489344473
 20
627.6552741511866
 30
0.0
 11
305.508489344473
 21
629.2849037808163
 31
0.0
  0
LINE
  5
35F
  8
DEFAULT
 62
     5
 10
304.3973782333619
 20
627.6552741511866
 30
0.0
 11
305.508489344473
 21
627.6552741511866
 31
0.0
  0
LINE
  5
360
  8
DEFAULT
 62
     5
 10
304.3973782333619
 20
625.8774963734089
 30
0.0
 11
304.3973782333619
 21
627.6552741511866
 31
0.0
  0
LINE
  5
361
  8
DEFAULT
 62
     5
 10
305.508489344473
 20
625.8774963734089
 30
0.0
 11
304.3973782333619
 21
625.8774963734089
 31
0.0
  0
LINE
  5
362
  8
DEFAULT
 62
     5
 10
305.508489344473
 20
622.0580524234698
 30
0.0
 11
305.508489344473
 21
625.8774963734089
 31
0.0
  0
ARC
  5
363
  8
DEFAULT
 62
     5
 10
316.9364493162419
 20
621.7501304545743
 30
0.0
 40
11.43210763837011
 50
178.4565607902532
 51
186.6565407911658
  0
ARC
  5
364
  8
DEFAULT
 62
     5
 10
307.7449082694594
 20
620.6771180209936
 30
0.0
 40
2.178147299109034
 50
186.6481292156152
 51
212.0397559740674
  0
ARC
  5
365
  8
DEFAULT
 62
     5
 10
307.1931589482095
 20
620.4855547331898
 30
0.0
 40
1.614084350439667
 50
216.6709158171504
 51
249.1633884818676
  0
ARC
  5
366
  8
DEFAULT
 62
     5
 10
307.6795746361782
 20
621.5373283757889
 30
0.0
 40
2.771259562074508
 50
247.4991673670504
 51
270.8658740788673
  0
ARC
  5
367
  8
DEFAULT
 62
     5
 10
307.7975902234262
 20
623.3151132381113
 30
0.0
 40
4.5493651237945
 50
269.0410687811206
 51
292.09072421389
  0
LINE
  5
368
  8
DEFAULT
 62
     5
 10
309.3233047244368
 20
620.8369881914648
 30
0.0
 11
309.508489344473
 21
619.0997191607801
 31
0.0
  0
ARC
  5
369
  8
DEFAULT
 62
     5
 10
308.210700559746
 20
623.4519345612626
 30
0.0
 40
2.841800933247451
 50
274.3279277792329
 51
293.0487227247451
  0
ARC
  5
36A
  8
DEFAULT
 62
     5
 10
308.4061746066279
 20
621.2261272582451
 30
0.0
 40
0.6081864328450088
 50
233.8334457002265
 51
271.7885227949221
  0
ARC
  5
36B
  8
DEFAULT
 62
     5
 10
308.3523369271829
 20
621.1539092169475
 30
0.0
 40
0.5181136682049717
 50
193.6077954275948
 51
233.9268976046572
  0
LINE
  5
36C
  8
DEFAULT
 62
     5
 10
307.8047856407693
 20
622.298793446785
 30
0.0
 11
307.8487672282162
 21
621.0320103594328
 31
0.0
  0
LINE
  5
36D
  8
DEFAULT
 62
     5
 10
307.8047856407693
 20
625.8774963734089
 30
0.0
 11
307.8047856407693
 21
622.298793446785
 31
0.0
  0
LINE
  5
36E
  8
DEFAULT
 62
     5
 10
309.3603411963248
 20
625.8774963734089
 30
0.0
 11
307.8047856407693
 21
625.8774963734089
 31
0.0
  0
LINE
  5
36F
  8
DEFAULT
 62
     5
 10
309.3603411963248
 20
627.6552741511866
 30
0.0
 11
309.3603411963248
 21
625.8774963734089
 31
0.0
  0
ARC
  5
370
  8
DEFAULT
 62
     5
 10
313.3129360461666
 20
622.2124241650549
 30
0.0
 40
3.305060952620646
 50
193.6394779952947
 51
235.6428496660099
  0
ARC
  5
371
  8
DEFAULT
 62
     5
 10
313.9873789078687
 20
623.5735744078123
 30
0.0
 40
4.814004243697685
 50
238.1595782279029
 51
273.0491002450738
  0
ARC
  5
372
  8
DEFAULT
 62
     5
 10
314.5606223676096
 20
623.1241065446261
 30
0.0
 40
4.369249001159857
 50
265.837047531597
 51
306.8687304499991
  0
ARC
  5
373
  8
DEFAULT
 62
     5
 10
315.5307370097304
 20
621.6940737027874
 30
0.0
 40
2.644420612868134
 50
308.6433587816683
 51
359.9367468738309
  0
ARC
  5
374
  8
DEFAULT
 62
     5
 10
316.03628628808
 20
621.806133253229
 30
0.0
 40
2.141957946692272
 50
356.9229204449099
 51
48.38809149795908
  0
ARC
  5
375
  8
DEFAULT
 62
     5
 10
313.8593867399555
 20
618.1724882631175
 30
0.0
 40
6.353069783038828
 50
55.48997422037711
 51
80.49079123416062
  0
ARC
  5
376
  8
DEFAULT
 62
     5
 10
316.2960222615214
 20
632.7609197382116
 30
0.0
 40
8.437452921690802
 50
245.3242690751256
 51
260.5379478007195
  0
ARC
  5
377
  8
DEFAULT
 62
     5
 10
313.0646867287229
 20
625.5238132748725
 30
0.0
 40
0.5191982132229956
 50
180.6919878173497
 51
235.8909058817692
  0
ARC
  5
378
  8
DEFAULT
 62
     5
 10
313.1013110540139
 20
625.5201137059546
 30
0.0
 40
0.555790618489044
 50
122.1025650625854
 51
180.2650295622101
  0
ARC
  5
379
  8
DEFAULT
 62
     5
 10
313.9129419936477
 20
623.8036188953861
 30
0.0
 40
2.451477958841135
 50
85.59847781031272
 51
116.8440511744687
  0
ARC
  5
37A
  8
DEFAULT
 62
     5
 10
314.2165201390188
 20
624.4215666788509
 30
0.0
 40
1.829944782125191
 50
57.29557343185491
 51
93.61678476170749
  0
ARC
  5
37B
  8
DEFAULT
 62
     5
 10
314.334671008897
 20
624.8269461224445
 30
0.0
 40
1.430003906163426
 50
12.51231288666823
 51
52.49763476640454
  0
LINE
  5
37C
  8
DEFAULT
 62
     5
 10
317.8788597148434
 20
625.5071260030385
 30
0.0
 11
315.7307115666952
 21
625.1367556326682
 31
0.0
  0
ARC
  5
37D
  8
DEFAULT
 62
     5
 10
314.9009301867197
 20
624.7910466350569
 30
0.0
 40
3.062814708029144
 50
13.52076832650762
 51
54.30739001654526
  0
ARC
  5
37E
  8
DEFAULT
 62
     5
 10
314.3756141080164
 20
623.2063516272365
 30
0.0
 40
4.682874801116657
 50
60.41117304736881
 51
94.05622536397271
  0
ARC
  5
37F
  8
DEFAULT
 62
     5
 10
313.7111926123671
 20
623.7617203866673
 30
0.0
 40
4.129239474477594
 50
85.37193491886892
 51
125.9526890296476
  0
ARC
  5
380
  8
DEFAULT
 62
     5
 10
312.8279267755018
 20
625.2245967415749
 30
0.0
 40
2.430719311612348
 50
129.3460050027542
 51
180.6791690482248
  0
ARC
  5
381
  8
DEFAULT
 62
     5
 10
312.6503277358539
 20
625.123340063305
 30
0.0
 40
2.254113934526198
 50
178.1582720960423
 51
237.1110124234275
  0
ARC
  5
382
  8
DEFAULT
 62
     5
 10
316.9419723269784
 20
634.3324446139699
 30
0.0
 40
12.3965932645789
 50
243.580924721393
 51
260.7398621174996
  0
ARC
  5
383
  8
DEFAULT
 62
     5
 10
314.6749111252318
 20
620.299093310665
 30
0.0
 40
1.818800973530726
 50
55.09479244160813
 51
81.39168200520665
  0
ARC
  5
384
  8
DEFAULT
 62
     5
 10
315.2599384152286
 20
621.3714097701385
 30
0.0
 40
0.6192617938866102
 50
358.0999050951198
 51
42.61490358097384
  0
ARC
  5
385
  8
DEFAULT
 62
     5
 10
315.1322888002557
 20
621.3276151264176
 30
0.0
 40
0.7469332270842599
 50
306.6292317715191
 51
1.784661908080599
  0
ARC
  5
386
  8
DEFAULT
 62
     5
 10
314.3987422570908
 20
622.6188075561203
 30
0.0
 40
2.228211109531266
 50
266.0034536137439
 51
301.9521232462426
  0
ARC
  5
387
  8
DEFAULT
 62
     5
 10
314.1214373670083
 20
622.4253919426728
 30
0.0
 40
2.033041282067042
 50
236.2421151013713
 51
273.4404973158077
  0
ARC
  5
388
  8
DEFAULT
 62
     5
 10
314.017207996351
 20
622.0229161455055
 30
0.0
 40
1.646217052779567
 50
190.2724325504393
 51
231.4685841511362
  0
LINE
  5
389
  8
DEFAULT
 62
     5
 10
310.1010819370656
 20
621.4330519289645
 30
0.0
 11
312.3973782333619
 21
621.7293482252608
 31
0.0
  0
LINE
  5
38A
  8
DEFAULT
 62
     5
 10
319.9529337889174
 20
618.98860748452
 30
0.0
 11
319.9529337889174
 21
627.6552741511866
 31
0.0
  0
LINE
  5
38B
  8
DEFAULT
 62
     5
 10
322.2492300852138
 20
618.98860748452
 30
0.0
 11
319.9529337889174
 21
618.98860748452
 31
0.0
  0
LINE
  5
38C
  8
DEFAULT
 62
     5
 10
322.2492300852138
 20
623.2015714364936
 30
0.0
 11
322.2492300852138
 21
618.98860748452
 31
0.0
  0
ARC
  5
38D
  8
DEFAULT
 62
     5
 10
328.4907414764459
 20
623.4760430121027
 30
0.0
 40
6.247543444642692
 50
165.9836839494056
 51
182.5179698527791
  0
ARC
  5
38E
  8
DEFAULT
 62
     5
 10
323.9273005054727
 20
624.5341001714676
 30
0.0
 40
1.565690483332346
 50
125.1782212842378
 51
163.102412073899
  0
ARC
  5
38F
  8
DEFAULT
 62
     5
 10
323.943191822478
 20
624.4837538592965
 30
0.0
 40
1.616076446528537
 50
89.32631700592869
 51
124.6103649274764
  0
ARC
  5
390
  8
DEFAULT
 62
     5
 10
324.0239368859136
 20
624.9413730395773
 30
0.0
 40
1.159989961715455
 50
57.55721405384762
 51
93.05116936043952
  0
ARC
  5
391
  8
DEFAULT
 62
     5
 10
324.0178665797424
 20
625.0927414784248
 30
0.0
 40
1.039094497927171
 50
15.67278121907094
 51
52.79171992062149
  0
ARC
  5
392
  8
DEFAULT
 62
     5
 10
318.4065386375304
 20
624.067397532307
 30
0.0
 40
6.739548714165919
 50
357.2135582162085
 51
11.17396935596376
  0
LINE
  5
393
  8
DEFAULT
 62
     5
 10
325.1381189741027
 20
618.98860748452
 30
0.0
 11
325.1381189741027
 21
623.7397650508756
 31
0.0
  0
LINE
  5
394
  8
DEFAULT
 62
     5
 10
327.434415270399
 20
618.98860748452
 30
0.0
 11
325.1381189741027
 21
618.98860748452
 31
0.0
  0
LINE
  5
395
  8
DEFAULT
 62
     5
 10
327.434415270399
 20
623.1529595836246
 30
0.0
 11
327.434415270399
 21
618.98860748452
 31
0.0
  0
ARC
  5
396
  8
DEFAULT
 62
     5
 10
333.6863987657235
 20
623.4102040511742
 30
0.0
 40
6.257273554983493
 50
165.8050343408233
 51
182.3561663321634
  0
ARC
  5
397
  8
DEFAULT
 62
     5
 10
329.1858659667394
 20
624.4873290684128
 30
0.0
 40
1.631102712204539
 50
126.0705625177837
 51
163.7182555969984
  0
ARC
  5
398
  8
DEFAULT
 62
     5
 10
329.1279988164613
 20
624.5675290739815
 30
0.0
 40
1.532206627426022
 50
90.27073896360181
 51
126.0872653585964
  0
ARC
  5
399
  8
DEFAULT
 62
     5
 10
329.1886188554703
 20
625.0307585167336
 30
0.0
 40
1.071111874234296
 50
32.74573921378375
 51
93.63239799201374
  0
ARC
  5
39A
  8
DEFAULT
 62
     5
 10
326.6062074799832
 20
624.2720043763115
 30
0.0
 40
3.731485448436972
 50
354.9667531561269
 51
21.01458169493767
  0
LINE
  5
39B
  8
DEFAULT
 62
     5
 10
330.3233041592878
 20
618.98860748452
 30
0.0
 11
330.3233041592878
 21
623.944627027371
 31
0.0
  0
LINE
  5
39C
  8
DEFAULT
 62
     5
 10
332.6196004555841
 20
618.98860748452
 30
0.0
 11
330.3233041592878
 21
618.98860748452
 31
0.0
  0
LINE
  5
39D
  8
DEFAULT
 62
     5
 10
332.6196004555841
 20
624.5464778902121
 30
0.0
 11
332.6196004555841
 21
618.98860748452
 31
0.0
  0
ARC
  5
39E
  8
DEFAULT
 62
     5
 10
327.6251567266156
 20
624.8106812401012
 30
0.0
 40
5.001426953572929
 50
356.971906958411
 51
17.89399591810093
  0
ARC
  5
39F
  8
DEFAULT
 62
     5
 10
330.1825066339107
 20
625.4448944086682
 30
0.0
 40
2.37990526908938
 50
22.28543026922221
 51
59.17509813863975
  0
ARC
  5
3A0
  8
DEFAULT
 62
     5
 10
329.8940209216112
 20
624.7720691061127
 30
0.0
 40
3.107025720768408
 50
60.96474915803094
 51
91.8379505668382
  0
ARC
  5
3A1
  8
DEFAULT
 62
     5
 10
329.7820857008505
 20
624.9152608790127
 30
0.0
 40
2.962260965365156
 50
89.76239858819353
 51
118.0209040942797
  0
ARC
  5
3A2
  8
DEFAULT
 62
     5
 10
330.32800915853
 20
624.0275547748515
 30
0.0
 40
4.002904200368293
 50
118.9497448072893
 51
142.2082817022998
  0
ARC
  5
3A3
  8
DEFAULT
 62
     5
 10
324.8175985771656
 20
625.2435939863058
 30
0.0
 40
2.653115621772684
 50
27.78862696330039
 51
59.52889229807717
  0
ARC
  5
3A4
  8
DEFAULT
 62
     5
 10
324.794165615675
 20
625.0131026193818
 30
0.0
 40
2.86528737858289
 50
61.46265368357776
 51
91.431009022214
  0
ARC
  5
3A5
  8
DEFAULT
 62
     5
 10
324.7631188836854
 20
624.5001488919097
 30
0.0
 40
3.377590408527648
 50
90.68718656609462
 51
144.1035337663988
  0
LINE
  5
3A6
  8
DEFAULT
 62
     5
 10
322.0270078629915
 20
627.6552741511866
 30
0.0
 11
322.0270078629915
 21
626.4805057916163
 31
0.0
  0
LINE
  5
3A7
  8
DEFAULT
 62
     5
 10
319.9529337889174
 20
627.6552741511866
 30
0.0
 11
322.0270078629915
 21
627.6552741511866
 31
0.0
  0
ARC
  5
3A8
  8
DEFAULT
 62
     5
 10
338.297744842564
 20
624.5645235845125
 30
0.0
 40
1.730900268010173
 50
131.883225512645
 51
165.8177110061253
  0
ARC
  5
3A9
  8
DEFAULT
 62
     5
 10
337.954637551017
 20
624.6527449586182
 30
0.0
 40
1.449542476958136
 50
86.58842567011042
 51
124.0903098983539
  0
ARC
  5
3AA
  8
DEFAULT
 62
     5
 10
338.2301847627776
 20
624.3761994658764
 30
0.0
 40
1.733882366675384
 50
55.94263924993763
 51
96.26746730820742
  0
ARC
  5
3AB
  8
DEFAULT
 62
     5
 10
338.2435553498033
 20
624.9767287703239
 30
0.0
 40
1.271179330345007
 50
354.3181458611847
 51
41.11861076838802
  0
LINE
  5
3AC
  8
DEFAULT
 62
     5
 10
339.508489344473
 20
624.6182371141497
 30
0.0
 11
339.508489344473
 21
624.8508761619867
 31
0.0
  0
ARC
  5
3AD
  8
DEFAULT
 62
     5
 10
335.4417692853283
 20
635.8355186381563
 30
0.0
 40
11.93170636699837
 50
279.1179904553905
 51
289.9276370485036
  0
ARC
  5
3AE
  8
DEFAULT
 62
     5
 10
338.5386575703085
 20
616.7986570573024
 30
0.0
 40
7.355479678499491
 50
99.43752684916461
 51
113.9575582475092
  0
ARC
  5
3AF
  8
DEFAULT
 62
     5
 10
336.5344576445304
 20
621.4865462429219
 30
0.0
 40
2.258792341023352
 50
115.7850175715091
 51
149.3202322545703
  0
ARC
  5
3B0
  8
DEFAULT
 62
     5
 10
336.7597981080617
 20
621.3722955911074
 30
0.0
 40
2.51094328803493
 50
149.701719869379
 51
180.9905895128686
  0
ARC
  5
3B1
  8
DEFAULT
 62
     5
 10
336.6656984971596
 20
621.2618351132811
 30
0.0
 40
2.417398477374393
 50
178.4105964305135
 51
227.0418252861391
  0
ARC
  5
3B2
  8
DEFAULT
 62
     5
 10
336.9582456995909
 20
621.7018957151538
 30
0.0
 40
2.940069665210536
 50
228.7138226467345
 51
273.1912429493777
  0
ARC
  5
3B3
  8
DEFAULT
 62
     5
 10
337.143603099763
 20
622.2990741843578
 30
0.0
 40
3.532755488805516
 50
269.6482693741291
 51
293.4009598741262
  0
ARC
  5
3B4
  8
DEFAULT
 62
     5
 10
336.8621544859276
 20
622.8206738022302
 30
0.0
 40
4.123550644321269
 50
294.1115382807268
 51
315.4381483601221
  0
LINE
  5
3B5
  8
DEFAULT
 62
     5
 10
339.88117456498
 20
619.65990385146
 30
0.0
 11
339.8001570707939
 21
619.9272656513464
 31
0.0
  0
LINE
  5
3B6
  8
DEFAULT
 62
     5
 10
340.1010819370656
 20
618.98860748452
 30
0.0
 11
339.88117456498
 21
619.65990385146
 31
0.0
  0
LINE
  5
3B7
  8
DEFAULT
 62
     5
 10
342.3973782333619
 20
618.98860748452
 30
0.0
 11
340.1010819370656
 21
618.98860748452
 31
0.0
  0
ARC
  5
3B8
  8
DEFAULT
 62
     5
 10
346.3543951179836
 20
621.2521352926493
 30
0.0
 40
4.558677523510045
 50
193.9300067760534
 51
209.7708018394567
  0
ARC
  5
3B9
  8
DEFAULT
 62
     5
 10
350.0660379494745
 20
621.6061689706553
 30
0.0
 40
8.264706454319516
 50
178.3434316421945
 51
190.1149198716155
  0
LINE
  5
3BA
  8
DEFAULT
 62
     5
 10
341.8047856407693
 20
624.5302750695537
 30
0.0
 11
341.8047856407693
 21
621.845089601794
 31
0.0
  0
ARC
  5
3BB
  8
DEFAULT
 62
     5
 10
336.9807867799805
 20
624.8775446596788
 30
0.0
 40
4.836482314360056
 50
355.8824994975292
 51
20.7203127177051
  0
ARC
  5
3BC
  8
DEFAULT
 62
     5
 10
339.559784988229
 20
625.4524049668275
 30
0.0
 40
2.252309562873937
 50
30.29899769646257
 51
66.21983099006043
  0
ARC
  5
3BD
  8
DEFAULT
 62
     5
 10
338.5213870811571
 20
622.6094257159671
 30
0.0
 40
5.276276231894468
 50
68.35015950611145
 51
93.19583731453059
  0
ARC
  5
3BE
  8
DEFAULT
 62
     5
 10
337.9405190550347
 20
623.7799068752178
 30
0.0
 40
4.107608632257898
 50
85.99736018461164
 51
122.5557386378895
  0
ARC
  5
3BF
  8
DEFAULT
 62
     5
 10
337.9072285017697
 20
624.5872766604755
 30
0.0
 40
3.433325610016194
 50
129.3537682085856
 51
168.2762710025841
  0
LINE
  5
3C0
  8
DEFAULT
 62
     5
 10
336.6196004555841
 20
624.98860748452
 30
0.0
 11
334.5455263815101
 21
625.2849037808163
 31
0.0
  0
LINE
  5
3C1
  8
DEFAULT
 62
     5
 10
339.508489344473
 20
622.6795806427701
 30
0.0
 11
339.508489344473
 21
623.1367556326682
 31
0.0
  0
ARC
  5
3C2
  8
DEFAULT
 62
     5
 10
334.778863025638
 20
622.4805299826922
 30
0.0
 40
4.733813080498002
 50
348.8200066324565
 51
2.409923246692831
  0
ARC
  5
3C3
  8
DEFAULT
 62
     5
 10
338.0427692647782
 20
621.955030814509
 30
0.0
 40
1.434760761232533
 50
306.6162767139319
 51
344.129791486055
  0
ARC
  5
3C4
  8
DEFAULT
 62
     5
 10
337.7392836499846
 20
622.24816885653
 30
0.0
 40
1.852338566804083
 50
270.8089086703786
 51
308.7432843414122
  0
ARC
  5
3C5
  8
DEFAULT
 62
     5
 10
337.7269527477933
 20
621.5696958090293
 30
0.0
 40
1.174311596839655
 50
224.4931823485026
 51
271.8778886342595
  0
ARC
  5
3C6
  8
DEFAULT
 62
     5
 10
337.6939146469875
 20
621.5661696914646
 30
0.0
 40
1.148458672254112
 50
179.3655616979515
 51
225.5228831191686
  0
ARC
  5
3C7
  8
DEFAULT
 62
     5
 10
337.5123181895291
 20
621.5823004559439
 30
0.0
 40
0.9667978362214186
 50
123.6866761499985
 51
180.2023317014929
  0
ARC
  5
3C8
  8
DEFAULT
 62
     5
 10
338.796437250375
 20
618.9258302357944
 30
0.0
 40
3.910460531919132
 50
99.19322986521252
 51
117.7431657009952
  0
LINE
  5
3C9
  8
DEFAULT
 62
     5
 10
339.508489344473
 20
623.1367556326682
 30
0.0
 11
338.1716843010837
 21
622.786061488459
 31
0.0
  0
LINE
  5
3CA
  8
DEFAULT
 62
     5
 10
352.0270078629915
 20
624.3902288968837
 30
0.0
 11
352.0270078629915
 21
618.98860748452
 31
0.0
  0
ARC
  5
3CB
  8
DEFAULT
 62
     5
 10
344.7356539465837
 20
624.5800254242145
 30
0.0
 40
7.293823733550312
 50
358.508907264177
 51
10.727477315102
  0
ARC
  5
3CC
  8
DEFAULT
 62
     5
 10
349.4166419243735
 20
625.3804344264249
 30
0.0
 40
2.547070938267302
 50
12.63737062504987
 51
36.72554568254026
  0
ARC
  5
3CD
  8
DEFAULT
 62
     5
 10
349.6572207923824
 20
625.4654676040585
 30
0.0
 40
2.304640245733922
 50
38.60804250594678
 51
68.05969486275974
  0
ARC
  5
3CE
  8
DEFAULT
 62
     5
 10
349.1889295873492
 20
624.5220816500645
 30
0.0
 40
3.355671984701944
 50
66.66138377910255
 51
90.70947636503631
  0
ARC
  5
3CF
  8
DEFAULT
 62
     5
 10
349.1372696651927
 20
624.4703386203445
 30
0.0
 40
3.407172748815936
 50
89.83000942993196
 51
145.6792930639841
  0
LINE
  5
3D0
  8
DEFAULT
 62
     5
 10
346.3233041592878
 20
627.6552741511866
 30
0.0
 11
346.3233041592878
 21
626.391386321952
 31
0.0
  0
LINE
  5
3D1
  8
DEFAULT
 62
     5
 10
344.1751560111397
 20
627.6552741511866
 30
0.0
 11
346.3233041592878
 21
627.6552741511866
 31
0.0
  0
LINE
  5
3D2
  8
DEFAULT
 62
     5
 10
344.1751560111397
 20
618.98860748452
 30
0.0
 11
344.1751560111397
 21
627.6552741511866
 31
0.0
  0
LINE
  5
3D3
  8
DEFAULT
 62
     5
 10
346.471452307436
 20
618.98860748452
 30
0.0
 11
344.1751560111397
 21
618.98860748452
 31
0.0
  0
LINE
  5
3D4
  8
DEFAULT
 62
     5
 10
346.471452307436
 20
622.9156908355143
 30
0.0
 11
346.471452307436
 21
618.98860748452
 31
0.0
  0
ARC
  5
3D5
  8
DEFAULT
 62
     5
 10
354.0742496999896
 20
623.2613508410188
 30
0.0
 40
7.610651025479082
 50
167.5033086268578
 51
182.6031511096196
  0
ARC
  5
3D6
  8
DEFAULT
 62
     5
 10
348.2107315754895
 20
624.4202266275952
 30
0.0
 40
1.641044820898266
 50
124.458359302902
 51
162.7023398906194
  0
ARC
  5
3D7
  8
DEFAULT
 62
     5
 10
348.3125257118419
 20
624.3110280528041
 30
0.0
 40
1.788816116206152
 50
89.3210995258737
 51
125.1677702151583
  0
ARC
  5
3D8
  8
DEFAULT
 62
     5
 10
348.3711232783874
 20
624.7744360458248
 30
0.0
 40
1.325810230907523
 50
55.81100897715651
 51
91.616579706923
  0
ARC
  5
3D9
  8
DEFAULT
 62
     5
 10
348.3758149719175
 20
624.8354465464244
 30
0.0
 40
1.273069739227998
 50
18.07856121184615
 51
54.44258944916749
  0
ARC
  5
3DA
  8
DEFAULT
 62
     5
 10
342.7952551804926
 20
623.7755152481456
 30
0.0
 40
6.944904572171542
 50
357.010985967229
 51
12.09333727638532
  0
LINE
  5
3DB
  8
DEFAULT
 62
     5
 10
349.7307115666952
 20
618.98860748452
 30
0.0
 11
349.7307115666952
 21
623.4133768331011
 31
0.0
  0
LINE
  5
3DC
  8
DEFAULT
 62
     5
 10
352.0270078629915
 20
618.98860748452
 30
0.0
 11
349.7307115666952
 21
618.98860748452
 31
0.0
  0
ARC
  5
3DD
  8
DEFAULT
 62
     5
 10
356.7203434535741
 20
622.2124241650549
 30
0.0
 40
3.30506095262071
 50
193.6394779952945
 51
235.6428496660083
  0
ARC
  5
3DE
  8
DEFAULT
 62
     5
 10
357.3947863152762
 20
623.5735744078124
 30
0.0
 40
4.814004243697795
 50
238.1595782279038
 51
273.049100245073
  0
ARC
  5
3DF
  8
DEFAULT
 62
     5
 10
357.968029775017
 20
623.1241065446261
 30
0.0
 40
4.369249001159824
 50
265.8370475315963
 51
306.8687304499984
  0
ARC
  5
3E0
  8
DEFAULT
 62
     5
 10
358.9381444171383
 20
621.6940737027871
 30
0.0
 40
2.644420612867679
 50
308.6433587816622
 51
359.9367468738358
  0
ARC
  5
3E1
  8
DEFAULT
 62
     5
 10
359.4436936954875
 20
621.806133253229
 30
0.0
 40
2.141957946692196
 50
356.9229204449098
 51
48.38809149796136
  0
ARC
  5
3E2
  8
DEFAULT
 62
     5
 10
357.266794147363
 20
618.1724882631177
 30
0.0
 40
6.353069783038706
 50
55.48997422037695
 51
80.49079123416095
  0
ARC
  5
3E3
  8
DEFAULT
 62
     5
 10
359.7034296689288
 20
632.7609197382113
 30
0.0
 40
8.437452921690571
 50
245.3242690751254
 51
260.5379478007196
  0
ARC
  5
3E4
  8
DEFAULT
 62
     5
 10
356.4720941361302
 20
625.5238132748724
 30
0.0
 40
0.5191982132228806
 50
180.6919878173373
 51
235.8909058817725
  0
ARC
  5
3E5
  8
DEFAULT
 62
     5
 10
356.5087184614215
 20
625.5201137059545
 30
0.0
 40
0.5557906184892308
 50
122.102565062594
 51
180.2650295621984
  0
ARC
  5
3E6
  8
DEFAULT
 62
     5
 10
357.3203494010551
 20
623.8036188953859
 30
0.0
 40
2.451477958841361
 50
85.59847781031313
 51
116.8440511744663
  0
ARC
  5
3E7
  8
DEFAULT
 62
     5
 10
357.623927546426
 20
624.4215666788509
 30
0.0
 40
1.829944782125252
 50
57.29557343185191
 51
93.61678476170368
  0
ARC
  5
3E8
  8
DEFAULT
 62
     5
 10
357.7420784163046
 20
624.8269461224445
 30
0.0
 40
1.430003906163259
 50
12.51231288666971
 51
52.49763476641178
  0
LINE
  5
3E9
  8
DEFAULT
 62
     5
 10
361.2862671222508
 20
625.5071260030385
 30
0.0
 11
359.1381189741027
 21
625.1367556326682
 31
0.0
  0
ARC
  5
3EA
  8
DEFAULT
 62
     5
 10
358.3083375941267
 20
624.7910466350564
 30
0.0
 40
3.062814708029779
 50
13.52076832651341
 51
54.30739001654331
  0
ARC
  5
3EB
  8
DEFAULT
 62
     5
 10
357.7830215154238
 20
623.2063516272367
 30
0.0
 40
4.682874801116429
 50
60.41117304736864
 51
94.0562253639729
  0
ARC
  5
3EC
  8
DEFAULT
 62
     5
 10
357.1186000197744
 20
623.7617203866678
 30
0.0
 40
4.129239474477126
 50
85.37193491886593
 51
125.9526890296493
  0
ARC
  5
3ED
  8
DEFAULT
 62
     5
 10
356.2353341829097
 20
625.2245967415745
 30
0.0
 40
2.430719311612854
 50
129.346005002758
 51
180.679169048214
  0
ARC
  5
3EE
  8
DEFAULT
 62
     5
 10
356.0577351432615
 20
625.1233400633051
 30
0.0
 40
2.254113934526417
 50
178.1582720960453
 51
237.1110124234242
  0
ARC
  5
3EF
  8
DEFAULT
 62
     5
 10
360.3493797343859
 20
634.33244461397
 30
0.0
 40
12.39659326457902
 50
243.580924721393
 51
260.7398621174994
  0
ARC
  5
3F0
  8
DEFAULT
 62
     5
 10
358.0823185326392
 20
620.2990933106651
 30
0.0
 40
1.818800973530632
 50
55.0947924416061
 51
81.3916820052061
  0
ARC
  5
3F1
  8
DEFAULT
 62
     5
 10
358.6673458226365
 20
621.3714097701385
 30
0.0
 40
0.6192617938860988
 50
358.0999050951183
 51
42.61490358100883
  0
ARC
  5
3F2
  8
DEFAULT
 62
     5
 10
358.5396962076634
 20
621.3276151264176
 30
0.0
 40
0.7469332270840224
 50
306.6292317714946
 51
1.784661908081142
  0
ARC
  5
3F3
  8
DEFAULT
 62
     5
 10
357.8061496644982
 20
622.6188075561203
 30
0.0
 40
2.228211109531262
 50
266.0034536137453
 51
301.9521232462453
  0
ARC
  5
3F4
  8
DEFAULT
 62
     5
 10
357.5288447744157
 20
622.4253919426727
 30
0.0
 40
2.033041282066947
 50
236.2421151013695
 51
273.4404973158063
  0
ARC
  5
3F5
  8
DEFAULT
 62
     5
 10
357.4246154037584
 20
622.0229161455055
 30
0.0
 40
1.646217052779511
 50
190.2724325504397
 51
231.4685841511378
  0
LINE
  5
3F6
  8
DEFAULT
 62
     5
 10
353.508489344473
 20
621.4330519289645
 30
0.0
 11
355.8047856407693
 21
621.7293482252608
 31
0.0
  0
LINE
  5
3F7
  8
DEFAULT
 62
     5
 10
363.5825634185471
 20
615.6552741511866
 30
0.0
 11
363.5825634185471
 21
627.6552741511866
 31
0.0
  0
LINE
  5
3F8
  8
DEFAULT
 62
     5
 10
365.8788597148434
 20
615.6552741511866
 30
0.0
 11
363.5825634185471
 21
615.6552741511866
 31
0.0
  0
LINE
  5
3F9
  8
DEFAULT
 62
     5
 10
365.8788597148434
 20
620.02217337665
 30
0.0
 11
365.8788597148434
 21
615.6552741511866
 31
0.0
  0
ARC
  5
3FA
  8
DEFAULT
 62
     5
 10
369.1504245115733
 20
622.8561648424204
 30
0.0
 40
4.328353479934602
 50
220.9007318098045
 51
241.5661874466127
  0
ARC
  5
3FB
  8
DEFAULT
 62
     5
 10
368.3324964498516
 20
621.6295406595721
 30
0.0
 40
2.863442913844251
 50
244.2726796918136
 51
270.8119484161368
  0
ARC
  5
3FC
  8
DEFAULT
 62
     5
 10
368.3851051151795
 20
621.9987732630934
 30
0.0
 40
3.232410393028998
 50
269.7867331572228
 51
321.2841313139734
  0
ARC
  5
3FD
  8
DEFAULT
 62
     5
 10
366.9311770617713
 20
623.0602404090052
 30
0.0
 40
5.031406725794518
 50
322.2083304958709
 51
3.549163290843855
  0
ARC
  5
3FE
  8
DEFAULT
 62
     5
 10
367.0789744820198
 20
623.667048396371
 30
0.0
 40
4.882899176811319
 50
356.532386904211
 51
38.20640735221467
  0
ARC
  5
3FF
  8
DEFAULT
 62
     5
 10
368.4125062492786
 20
624.650174819388
 30
0.0
 40
3.227389317839193
 50
39.13414313351272
 51
90.3712886266154
  0
ARC
  5
400
  8
DEFAULT
 62
     5
 10
368.3592301368379
 20
624.9151987392698
 30
0.0
 40
2.962474401381092
 50
89.37408785354125
 51
120.8502051532829
  0
ARC
  5
401
  8
DEFAULT
 62
     5
 10
368.4961817186572
 20
624.6266457303765
 30
0.0
 40
3.280569236725118
 50
120.3193567705144
 51
147.4566672859204
  0
LINE
  5
402
  8
DEFAULT
 62
     5
 10
365.7307115666952
 20
627.6552741511866
 30
0.0
 11
365.7307115666952
 21
626.391386321952
 31
0.0
  0
LINE
  5
403
  8
DEFAULT
 62
     5
 10
363.5825634185471
 20
627.6552741511866
 30
0.0
 11
365.7307115666952
 21
627.6552741511866
 31
0.0
  0
ARC
  5
404
  8
DEFAULT
 62
     5
 10
368.9202255663699
 20
623.6859192785491
 30
0.0
 40
3.049179120397143
 50
144.9882955085166
 51
184.1025636427801
  0
ARC
  5
405
  8
DEFAULT
 62
     5
 10
367.769684454734
 20
624.4026895888755
 30
0.0
 40
1.697176447906859
 50
89.24475713170716
 51
142.521204047683
  0
ARC
  5
406
  8
DEFAULT
 62
     5
 10
367.7958406777263
 20
624.4652004658141
 30
0.0
 40
1.634522513560047
 50
35.88161498663232
 51
90.13269813491671
  0
ARC
  5
407
  8
DEFAULT
 62
     5
 10
366.3572349278136
 20
623.6023774041088
 30
0.0
 40
3.308974120938609
 50
355.6409990602593
 51
33.38569955695192
  0
ARC
  5
408
  8
DEFAULT
 62
     5
 10
366.1797130676841
 20
623.0533749814316
 30
0.0
 40
3.489629050995686
 50
327.9163505649312
 51
4.890584762904345
  0
ARC
  5
409
  8
DEFAULT
 62
     5
 10
367.8442079457349
 20
622.1451616190083
 30
0.0
 40
1.601049758400348
 50
269.5418747231207
 51
323.8116259011465
  0
ARC
  5
40A
  8
DEFAULT
 62
     5
 10
367.8388450322059
 20
622.2572746645717
 30
0.0
 40
1.713127774269849
 50
215.6716059179345
 51
269.7512137839977
  0
ARC
  5
40B
  8
DEFAULT
 62
     5
 10
369.3944788498904
 20
623.1941735757496
 30
0.0
 40
3.526249490253199
 50
175.5499574469989
 51
213.2980282733164
  0
ARC
  5
40C
  8
DEFAULT
 62
     5
 10
377.1125596573791
 20
624.5645235845124
 30
0.0
 40
1.730900268010409
 50
131.8832255126482
 51
165.8177110061235
  0
ARC
  5
40D
  8
DEFAULT
 62
     5
 10
376.7694523658317
 20
624.6527449586188
 30
0.0
 40
1.449542476957572
 50
86.58842567010684
 51
124.0903098983627
  0
ARC
  5
40E
  8
DEFAULT
 62
     5
 10
377.0449995775924
 20
624.3761994658762
 30
0.0
 40
1.733882366675604
 50
55.94263924994029
 51
96.2674673082066
  0
ARC
  5
40F
  8
DEFAULT
 62
     5
 10
377.0583701646178
 20
624.9767287703238
 30
0.0
 40
1.271179330345279
 50
354.3181458611911
 51
41.11861076838515
  0
LINE
  5
410
  8
DEFAULT
 62
     5
 10
378.3233041592878
 20
624.6182371141497
 30
0.0
 11
378.3233041592878
 21
624.8508761619867
 31
0.0
  0
ARC
  5
411
  8
DEFAULT
 62
     5
 10
374.2565841001423
 20
635.8355186381592
 30
0.0
 40
11.93170636700142
 50
279.1179904553923
 51
289.9276370485026
  0
ARC
  5
412
  8
DEFAULT
 62
     5
 10
377.3534723851237
 20
616.7986570573008
 30
0.0
 40
7.35547967850113
 50
99.43752684916562
 51
113.9575582475074
  0
ARC
  5
413
  8
DEFAULT
 62
     5
 10
375.3492724593455
 20
621.4865462429218
 30
0.0
 40
2.258792341023557
 50
115.7850175715117
 51
149.32023225457
  0
ARC
  5
414
  8
DEFAULT
 62
     5
 10
375.574612922876
 20
621.3722955911077
 30
0.0
 40
2.51094328803448
 50
149.7017198693773
 51
180.990589512874
  0
ARC
  5
415
  8
DEFAULT
 62
     5
 10
375.4805133119745
 20
621.2618351132812
 30
0.0
 40
2.417398477374592
 50
178.4105964305163
 51
227.041825286138
  0
ARC
  5
416
  8
DEFAULT
 62
     5
 10
375.7730605144058
 20
621.7018957151539
 30
0.0
 40
2.940069665210643
 50
228.7138226467343
 51
273.1912429493753
  0
ARC
  5
417
  8
DEFAULT
 62
     5
 10
375.9584179145779
 20
622.299074184357
 30
0.0
 40
3.53275548880474
 50
269.6482693741273
 51
293.4009598741297
  0
ARC
  5
418
  8
DEFAULT
 62
     5
 10
375.6769693007417
 20
622.8206738022312
 30
0.0
 40
4.123550644322513
 50
294.1115382807291
 51
315.4381483601192
  0
LINE
  5
419
  8
DEFAULT
 62
     5
 10
378.6959893797948
 20
619.65990385146
 30
0.0
 11
378.6149718856088
 21
619.9272656513464
 31
0.0
  0
LINE
  5
41A
  8
DEFAULT
 62
     5
 10
378.9158967518804
 20
618.98860748452
 30
0.0
 11
378.6959893797948
 21
619.65990385146
 31
0.0
  0
LINE
  5
41B
  8
DEFAULT
 62
     5
 10
381.2121930481767
 20
618.98860748452
 30
0.0
 11
378.9158967518804
 21
618.98860748452
 31
0.0
  0
ARC
  5
41C
  8
DEFAULT
 62
     5
 10
385.1692099328045
 20
621.2521352926515
 30
0.0
 40
4.55867752351647
 50
193.9300067760613
 51
209.7708018394419
  0
ARC
  5
41D
  8
DEFAULT
 62
     5
 10
388.8808527642833
 20
621.6061689706552
 30
0.0
 40
8.264706454313552
 50
178.3434316421925
 51
190.1149198716221
  0
LINE
  5
41E
  8
DEFAULT
 62
     5
 10
380.6196004555841
 20
624.5302750695537
 30
0.0
 11
380.6196004555841
 21
621.845089601794
 31
0.0
  0
ARC
  5
41F
  8
DEFAULT
 62
     5
 10
375.7956015947952
 20
624.8775446596788
 30
0.0
 40
4.836482314360109
 50
355.8824994975307
 51
20.72031271770486
  0
ARC
  5
420
  8
DEFAULT
 62
     5
 10
378.3745998030439
 20
625.4524049668277
 30
0.0
 40
2.252309562873787
 50
30.29899769646154
 51
66.21983099006191
  0
ARC
  5
421
  8
DEFAULT
 62
     5
 10
377.3362018959721
 20
622.6094257159674
 30
0.0
 40
5.276276231894134
 50
68.35015950611181
 51
93.19583731453204
  0
ARC
  5
422
  8
DEFAULT
 62
     5
 10
376.7553338698496
 20
623.7799068752174
 30
0.0
 40
4.107608632258217
 50
85.99736018461185
 51
122.5557386378876
  0
ARC
  5
423
  8
DEFAULT
 62
     5
 10
376.7220433165852
 20
624.5872766604751
 30
0.0
 40
3.433325610016987
 50
129.3537682085923
 51
168.276271002581
  0
LINE
  5
424
  8
DEFAULT
 62
     5
 10
375.434415270399
 20
624.98860748452
 30
0.0
 11
373.3603411963248
 21
625.2849037808163
 31
0.0
  0
LINE
  5
425
  8
DEFAULT
 62
     5
 10
378.3233041592878
 20
622.6795806427701
 30
0.0
 11
378.3233041592878
 21
623.1367556326682
 31
0.0
  0
ARC
  5
426
  8
DEFAULT
 62
     5
 10
373.5936778404622
 20
622.4805299826915
 30
0.0
 40
4.733813080488702
 50
348.8200066324441
 51
2.409923246707199
  0
ARC
  5
427
  8
DEFAULT
 62
     5
 10
376.8575840795924
 20
621.9550308145095
 30
0.0
 40
1.434760761233395
 50
306.6162767139403
 51
344.1297914860418
  0
ARC
  5
428
  8
DEFAULT
 62
     5
 10
376.5540984647994
 20
622.2481688565299
 30
0.0
 40
1.852338566803969
 50
270.8089086703786
 51
308.7432843414157
  0
ARC
  5
429
  8
DEFAULT
 62
     5
 10
376.541767562608
 20
621.569695809029
 30
0.0
 40
1.174311596839295
 50
224.4931823484966
 51
271.8778886342655
  0
ARC
  5
42A
  8
DEFAULT
 62
     5
 10
376.5087294618027
 20
621.5661696914649
 30
0.0
 40
1.148458672254449
 50
179.3655616979687
 51
225.5228831191685
  0
ARC
  5
42B
  8
DEFAULT
 62
     5
 10
376.3271330043438
 20
621.582300455944
 30
0.0
 40
0.966797836221261
 50
123.6866761499967
 51
180.2023317014996
  0
ARC
  5
42C
  8
DEFAULT
 62
     5
 10
377.6112520651894
 20
618.9258302357954
 30
0.0
 40
3.910460531918067
 50
99.19322986520999
 51
117.7431657009978
  0
LINE
  5
42D
  8
DEFAULT
 62
     5
 10
378.3233041592878
 20
623.1367556326682
 30
0.0
 11
376.9864991158985
 21
622.786061488459
 31
0.0
  0
ARC
  5
42E
  8
DEFAULT
 62
     5
 10
386.8260651963221
 20
624.2453251565631
 30
0.0
 40
3.752798353709405
 50
13.74124921964678
 51
51.9465373576973
  0
ARC
  5
42F
  8
DEFAULT
 62
     5
 10
386.8591841188504
 20
623.7347851075743
 30
0.0
 40
4.148421768091606
 50
56.65843649088574
 51
93.00665199287853
  0
ARC
  5
430
  8
DEFAULT
 62
     5
 10
386.4476936349016
 20
623.9130756172374
 30
0.0
 40
3.969159649902878
 50
87.19992250859413
 51
135.9063161205841
  0
ARC
  5
431
  8
DEFAULT
 62
     5
 10
387.1908758996485
 20
623.6024087856332
 30
0.0
 40
4.728237655693136
 50
139.4713589968521
 51
183.498996893164
  0
ARC
  5
432
  8
DEFAULT
 62
     5
 10
387.1688314614869
 20
623.0370279146434
 30
0.0
 40
4.705528187090469
 50
176.627521608092
 51
220.6290117161416
  0
ARC
  5
433
  8
DEFAULT
 62
     5
 10
386.4367092621747
 20
622.6961690646918
 30
0.0
 40
3.933983770548843
 50
223.8061799116891
 51
272.6477866780688
  0
ARC
  5
434
  8
DEFAULT
 62
     5
 10
386.8323006701282
 20
622.8586217505012
 30
0.0
 40
4.09782065029199
 50
267.0084966366608
 51
306.6460348930947
  0
ARC
  5
435
  8
DEFAULT
 62
     5
 10
386.6001289649809
 20
622.6480052353148
 30
0.0
 40
4.07935932193703
 50
311.0323195198893
 51
350.1702224221791
  0
LINE
  5
436
  8
DEFAULT
 62
     5
 10
388.3233041592878
 20
622.2478667437792
 30
0.0
 11
390.6196004555841
 21
621.9515704474829
 31
0.0
  0
ARC
  5
437
  8
DEFAULT
 62
     5
 10
386.1358828341785
 20
622.4959388612048
 30
0.0
 40
2.201443124177206
 50
316.6637628800313
 51
353.529817214638
  0
ARC
  5
438
  8
DEFAULT
 62
     5
 10
386.7346559674385
 20
622.1656659074988
 30
0.0
 40
1.548709548514874
 50
267.6696796144533
 51
310.3355415046153
  0
ARC
  5
439
  8
DEFAULT
 62
     5
 10
386.6121623352908
 20
622.3002236889299
 30
0.0
 40
1.683039433819512
 50
217.9237598606482
 51
272.0267409488704
  0
ARC
  5
43A
  8
DEFAULT
 62
     5
 10
388.3791040695691
 20
623.1560561256024
 30
0.0
 40
3.626213103336876
 50
174.8115905084393
 51
211.4177233920105
  0
ARC
  5
43B
  8
DEFAULT
 62
     5
 10
387.9047384805328
 20
623.7680956866083
 30
0.0
 40
3.149829834750689
 50
146.690357593068
 51
185.1751569443567
  0
ARC
  5
43C
  8
DEFAULT
 62
     5
 10
386.5596835980405
 20
624.4256656426727
 30
0.0
 40
1.675341846512431
 50
87.752383120975
 51
140.2089485758423
  0
ARC
  5
43D
  8
DEFAULT
 62
     5
 10
386.6948783287463
 20
624.5424432039703
 30
0.0
 40
1.558825073414267
 50
51.63347369270107
 51
92.55503106094784
  0
ARC
  5
43E
  8
DEFAULT
 62
     5
 10
386.5851186936816
 20
624.5805139033693
 30
0.0
 40
1.600864401809004
 50
6.667471865532689
 51
47.7046106640144
  0
LINE
  5
43F
  8
DEFAULT
 62
     5
 10
390.471452307436
 20
625.1367556326682
 30
0.0
 11
388.1751560111397
 21
624.7663852622978
 31
0.0
  0
ARC
  5
440
  8
DEFAULT
 62
     5
 10
395.6167079192761
 20
622.1454033535329
 30
0.0
 40
1.720619017097969
 50
309.8704139527603
 51
346.0068734975839
  0
ARC
  5
441
  8
DEFAULT
 62
     5
 10
395.8458474867368
 20
622.0403806714207
 30
0.0
 40
1.497063563929135
 50
268.0737802158683
 51
305.7127643708762
  0
ARC
  5
442
  8
DEFAULT
 62
     5
 10
395.7522826752135
 20
622.3355807795733
 30
0.0
 40
1.79193962539469
 50
223.1718025183374
 51
271.3828474240115
  0
ARC
  5
443
  8
DEFAULT
 62
     5
 10
396.1613420330038
 20
622.6165558388142
 30
0.0
 40
2.283739128201682
 50
178.0990568725124
 51
221.2909003311069
  0
LINE
  5
444
  8
DEFAULT
 62
     5
 10
399.7307115666952
 20
622.6923111882237
 30
0.0
 11
393.8788597148434
 21
622.6923111882237
 31
0.0
  0
ARC
  5
445
  8
DEFAULT
 62
     5
 10
394.1400173989675
 20
623.2556699844326
 30
0.0
 40
5.619006532326835
 50
354.2458860579188
 51
36.54405305836634
  0
ARC
  5
446
  8
DEFAULT
 62
     5
 10
395.7715772990391
 20
623.9972227389298
 30
0.0
 40
3.884874480012456
 50
42.094216271195
 51
92.78875801437371
  0
ARC
  5
447
  8
DEFAULT
 62
     5
 10
395.4847909837652
 20
624.1441771791272
 30
0.0
 40
3.734599263026156
 50
88.49981548250125
 51
137.8442905362493
  0
ARC
  5
448
  8
DEFAULT
 62
     5
 10
396.3852497488219
 20
623.5387103082377
 30
0.0
 40
4.811001816001133
 50
139.6964411077379
 51
183.369195832905
  0
ARC
  5
449
  8
DEFAULT
 62
     5
 10
396.5756256629542
 20
623.0607354494051
 30
0.0
 40
4.996877707814537
 50
177.7608171736381
 51
214.1941373506129
  0
ARC
  5
44A
  8
DEFAULT
 62
     5
 10
395.5073153121621
 20
622.6410719474023
 30
0.0
 40
3.885650094665317
 50
217.9313661296701
 51
274.3050754920483
  0
ARC
  5
44B
  8
DEFAULT
 62
     5
 10
395.9482316825115
 20
622.7661161060287
 30
0.0
 40
4.002513837964274
 50
267.863255819632
 51
304.0055471031344
  0
ARC
  5
44C
  8
DEFAULT
 62
     5
 10
395.8664245922608
 20
622.5630101723556
 30
0.0
 40
3.884133546627806
 50
306.6825197833369
 51
343.0871710223455
  0
LINE
  5
44D
  8
DEFAULT
 62
     5
 10
397.2862671222508
 20
621.7293482252608
 30
0.0
 11
399.5825634185471
 21
621.4330519289645
 31
0.0
  0
LINE
  5
44E
  8
DEFAULT
 62
     5
 10
393.9193695922343
 20
624.0997185956311
 30
0.0
 11
397.434415270399
 21
624.0997185956311
 31
0.0
  0
ARC
  5
44F
  8
DEFAULT
 62
     5
 10
395.944832663781
 20
624.2293887384828
 30
0.0
 40
2.029609568401451
 50
138.9778315301197
 51
183.663076730934
  0
ARC
  5
450
  8
DEFAULT
 62
     5
 10
395.6388816712465
 20
624.4378342290184
 30
0.0
 40
1.662540146677829
 50
88.39067061460693
 51
137.4768620086504
  0
ARC
  5
451
  8
DEFAULT
 62
     5
 10
395.7145613851731
 20
624.4506443960393
 30
0.0
 40
1.6493289651601
 50
43.6877002201774
 51
91.00707066118743
  0
ARC
  5
452
  8
DEFAULT
 62
     5
 10
395.3142908896422
 20
624.1879869459019
 30
0.0
 40
2.121961048544182
 50
357.6159488918192
 51
41.35019279844003
  0
LINE
  5
453
  8
DEFAULT
 62
     5
 10
403.7307115666952
 20
618.98860748452
 30
0.0
 11
401.434415270399
 21
618.98860748452
 31
0.0
  0
LINE
  5
454
  8
DEFAULT
 62
     5
 10
403.7307115666952
 20
621.2849037808163
 30
0.0
 11
403.7307115666952
 21
618.98860748452
 31
0.0
  0
LINE
  5
455
  8
DEFAULT
 62
     5
 10
401.434415270399
 20
621.2849037808163
 30
0.0
 11
403.7307115666952
 21
621.2849037808163
 31
0.0
  0
LINE
  5
456
  8
DEFAULT
 62
     5
 10
401.434415270399
 20
618.98860748452
 30
0.0
 11
401.434415270399
 21
621.2849037808163
 31
0.0
  0
ARC
  5
457
  8
DEFAULT
 62
     5
 10
409.937176307433
 20
624.245325156563
 30
0.0
 40
3.752798353709565
 50
13.74124921964785
 51
51.946537357697
  0
ARC
  5
458
  8
DEFAULT
 62
     5
 10
409.9702952299614
 20
623.7347851075745
 30
0.0
 40
4.148421768091489
 50
56.65843649088487
 51
93.00665199287783
  0
ARC
  5
459
  8
DEFAULT
 62
     5
 10
409.5588047460125
 20
623.9130756172378
 30
0.0
 40
3.969159649902398
 50
87.19992250859053
 51
135.9063161205865
  0
ARC
  5
45A
  8
DEFAULT
 62
     5
 10
410.3019870107594
 20
623.6024087856332
 30
0.0
 40
4.728237655692966
 50
139.4713589968503
 51
183.4989968931641
  0
ARC
  5
45B
  8
DEFAULT
 62
     5
 10
410.2799425725979
 20
623.0370279146433
 30
0.0
 40
4.705528187090309
 50
176.6275216080905
 51
220.6290117161414
  0
ARC
  5
45C
  8
DEFAULT
 62
     5
 10
409.5478203732858
 20
622.696169064692
 30
0.0
 40
3.933983770548954
 50
223.8061799116897
 51
272.6477866780679
  0
ARC
  5
45D
  8
DEFAULT
 62
     5
 10
409.9434117812392
 20
622.8586217505016
 30
0.0
 40
4.097820650292297
 50
267.0084966366618
 51
306.6460348930925
  0
ARC
  5
45E
  8
DEFAULT
 62
     5
 10
409.7112400760925
 20
622.6480052353147
 30
0.0
 40
4.079359321936563
 50
311.0323195198843
 51
350.1702224221795
  0
LINE
  5
45F
  8
DEFAULT
 62
     5
 10
411.434415270399
 20
622.2478667437792
 30
0.0
 11
413.7307115666952
 21
621.9515704474829
 31
0.0
  0
ARC
  5
460
  8
DEFAULT
 62
     5
 10
409.2469939452886
 20
622.4959388612051
 30
0.0
 40
2.201443124178143
 50
316.6637628800421
 51
353.529817214632
  0
ARC
  5
461
  8
DEFAULT
 62
     5
 10
409.8457670785496
 20
622.1656659074991
 30
0.0
 40
1.548709548515212
 50
267.6696796144558
 51
310.3355415046087
  0
ARC
  5
462
  8
DEFAULT
 62
     5
 10
409.7232734464021
 20
622.3002236889303
 30
0.0
 40
1.683039433819901
 50
217.9237598606526
 51
272.026740948866
  0
ARC
  5
463
  8
DEFAULT
 62
     5
 10
411.4902151806789
 20
623.1560561256019
 30
0.0
 40
3.626213103335615
 50
174.8115905084302
 51
211.4177233920157
  0
ARC
  5
464
  8
DEFAULT
 62
     5
 10
411.0158495916438
 20
623.7680956866083
 30
0.0
 40
3.149829834750499
 50
146.6903575930658
 51
185.175156944357
  0
ARC
  5
465
  8
DEFAULT
 62
     5
 10
409.6707947091515
 20
624.425665642673
 30
0.0
 40
1.675341846512095
 50
87.75238312097066
 51
140.2089485758487
  0
ARC
  5
466
  8
DEFAULT
 62
     5
 10
409.8059894398573
 20
624.5424432039699
 30
0.0
 40
1.558825073414605
 50
51.63347369270557
 51
92.55503106094518
  0
ARC
  5
467
  8
DEFAULT
 62
     5
 10
409.6962298047918
 20
624.5805139033687
 30
0.0
 40
1.600864401809973
 50
6.667471865549116
 51
47.70461066400127
  0
LINE
  5
468
  8
DEFAULT
 62
     5
 10
413.5825634185471
 20
625.1367556326682
 30
0.0
 11
411.2862671222508
 21
624.7663852622978
 31
0.0
  0
ARC
  5
469
  8
DEFAULT
 62
     5
 10
420.1837832038925
 20
623.2823768187578
 30
0.0
 40
5.34442392755019
 50
178.2603116267383
 51
206.5133228978461
  0
ARC
  5
46A
  8
DEFAULT
 62
     5
 10
418.6654919028691
 20
622.6196774468515
 30
0.0
 40
3.690951123629198
 50
207.8293578066086
 51
243.7960756150971
  0
ARC
  5
46B
  8
DEFAULT
 62
     5
 10
419.2880386980422
 20
623.720022897903
 30
0.0
 40
4.953641680505833
 50
242.9552851068523
 51
270.0732199272376
  0
ARC
  5
46C
  8
DEFAULT
 62
     5
 10
419.4134761296083
 20
623.0013796549463
 30
0.0
 40
4.236668973475168
 50
268.3890104354335
 51
316.1683840769701
  0
ARC
  5
46D
  8
DEFAULT
 62
     5
 10
419.2125067290887
 20
623.2018919946262
 30
0.0
 40
4.52051030432239
 50
316.0991094726612
 51
1.829960797438214
  0
ARC
  5
46E
  8
DEFAULT
 62
     5
 10
419.2650848813939
 20
623.4919132633653
 30
0.0
 40
4.468001819897637
 50
358.1317098974945
 51
43.94879123903108
  0
ARC
  5
46F
  8
DEFAULT
 62
     5
 10
419.425057089945
 20
623.6069097014037
 30
0.0
 40
4.27311214854185
 50
44.32731784384032
 51
91.96996516042975
  0
ARC
  5
470
  8
DEFAULT
 62
     5
 10
419.2147049324542
 20
623.2183579491832
 30
0.0
 40
4.659570602357793
 50
89.21963203499514
 51
118.5597929667282
  0
ARC
  5
471
  8
DEFAULT
 62
     5
 10
418.8519335738227
 20
623.9232423081339
 30
0.0
 40
3.867068942211248
 50
118.831809503414
 51
153.1610350812212
  0
ARC
  5
472
  8
DEFAULT
 62
     5
 10
419.6025146718583
 20
623.4296788944554
 30
0.0
 40
4.760715459210366
 50
151.9391303283244
 51
179.820107340777
  0
ARC
  5
473
  8
DEFAULT
 62
     5
 10
420.1227410935784
 20
623.5233633745595
 30
0.0
 40
2.991411040754243
 50
142.8740851018611
 51
183.860842983117
  0
ARC
  5
474
  8
DEFAULT
 62
     5
 10
419.1964232304617
 20
624.1504595754986
 30
0.0
 40
1.87528366922556
 50
89.41208358049482
 51
141.0679209762784
  0
ARC
  5
475
  8
DEFAULT
 62
     5
 10
419.2370454762141
 20
624.1610369919907
 30
0.0
 40
1.864730101181028
 50
38.77640312110316
 51
90.65694191497089
  0
ARC
  5
476
  8
DEFAULT
 62
     5
 10
418.3146688843938
 20
623.533690984896
 30
0.0
 40
2.978025216286061
 50
356.2350865018887
 51
37.07168058540213
  0
ARC
  5
477
  8
DEFAULT
 62
     5
 10
418.2605981071678
 20
623.129498181224
 30
0.0
 40
3.032854533797809
 50
323.2530680751416
 51
3.944815398816718
  0
ARC
  5
478
  8
DEFAULT
 62
     5
 10
419.2370453083425
 20
622.482844051865
 30
0.0
 40
1.864729507444145
 50
269.3430630342173
 51
321.2236278239524
  0
ARC
  5
479
  8
DEFAULT
 62
     5
 10
419.1964233985548
 20
622.4934214609443
 30
0.0
 40
1.875283068268466
 50
218.9320481217876
 51
270.5879114718768
  0
ARC
  5
47A
  8
DEFAULT
 62
     5
 10
420.1227434092982
 20
623.120519574794
 30
0.0
 40
2.991413338873146
 50
176.1391635071763
 51
217.1258995579713
  0
LINE
  5
47B
  8
DEFAULT
 62
     5
 10
425.2862671222508
 20
618.98860748452
 30
0.0
 11
425.2862671222508
 21
627.6552741511866
 31
0.0
  0
LINE
  5
47C
  8
DEFAULT
 62
     5
 10
427.5825634185471
 20
618.98860748452
 30
0.0
 11
425.2862671222508
 21
618.98860748452
 31
0.0
  0
LINE
  5
47D
  8
DEFAULT
 62
     5
 10
427.5825634185471
 20
623.2015714364936
 30
0.0
 11
427.5825634185471
 21
618.98860748452
 31
0.0
  0
ARC
  5
47E
  8
DEFAULT
 62
     5
 10
433.82407480978
 20
623.4760430121027
 30
0.0
 40
6.24754344464352
 50
165.9836839494075
 51
182.5179698527789
  0
ARC
  5
47F
  8
DEFAULT
 62
     5
 10
429.260633838807
 20
624.534100171467
 30
0.0
 40
1.5656904833334
 50
125.1782212842565
 51
163.1024120738894
  0
ARC
  5
480
  8
DEFAULT
 62
     5
 10
429.2765251558113
 20
624.4837538592963
 30
0.0
 40
1.616076446528764
 50
89.32631700593079
 51
124.6103649274752
  0
ARC
  5
481
  8
DEFAULT
 62
     5
 10
429.357270219247
 20
624.9413730395776
 30
0.0
 40
1.159989961715233
 50
57.55721405384398
 51
93.05116936044291
  0
ARC
  5
482
  8
DEFAULT
 62
     5
 10
429.3511999130762
 20
625.0927414784251
 30
0.0
 40
1.039094497926727
 50
15.6727812190648
 51
52.79171992063388
  0
ARC
  5
483
  8
DEFAULT
 62
     5
 10
423.7398719708515
 20
624.0673975323064
 30
0.0
 40
6.739548714178092
 50
357.2135582162193
 51
11.17396935594923
  0
LINE
  5
484
  8
DEFAULT
 62
     5
 10
430.471452307436
 20
618.98860748452
 30
0.0
 11
430.471452307436
 21
623.7397650508756
 31
0.0
  0
LINE
  5
485
  8
DEFAULT
 62
     5
 10
432.7677486037322
 20
618.98860748452
 30
0.0
 11
430.471452307436
 21
618.98860748452
 31
0.0
  0
LINE
  5
486
  8
DEFAULT
 62
     5
 10
432.7677486037322
 20
623.1529595836246
 30
0.0
 11
432.7677486037322
 21
618.98860748452
 31
0.0
  0
ARC
  5
487
  8
DEFAULT
 62
     5
 10
439.0197320990537
 20
623.4102040511743
 30
0.0
 40
6.257273554980434
 50
165.8050343408172
 51
182.3561663321656
  0
ARC
  5
488
  8
DEFAULT
 62
     5
 10
434.5191993000734
 20
624.4873290684122
 30
0.0
 40
1.631102712205401
 50
126.0705625177913
 51
163.7182555969865
  0
ARC
  5
489
  8
DEFAULT
 62
     5
 10
434.4613321497946
 20
624.5675290739817
 30
0.0
 40
1.532206627425795
 50
90.27073896360186
 51
126.0872653585997
  0
ARC
  5
48A
  8
DEFAULT
 62
     5
 10
434.5219521888037
 20
625.0307585167337
 30
0.0
 40
1.071111874234234
 50
32.74573921377863
 51
93.63239799201678
  0
ARC
  5
48B
  8
DEFAULT
 62
     5
 10
431.939540813316
 20
624.2720043763115
 30
0.0
 40
3.731485448437482
 50
354.9667531561275
 51
21.01458169493454
  0
LINE
  5
48C
  8
DEFAULT
 62
     5
 10
435.6566374926211
 20
618.98860748452
 30
0.0
 11
435.6566374926211
 21
623.944627027371
 31
0.0
  0
LINE
  5
48D
  8
DEFAULT
 62
     5
 10
437.9529337889174
 20
618.98860748452
 30
0.0
 11
435.6566374926211
 21
618.98860748452
 31
0.0
  0
LINE
  5
48E
  8
DEFAULT
 62
     5
 10
437.9529337889174
 20
624.5464778902121
 30
0.0
 11
437.9529337889174
 21
618.98860748452
 31
0.0
  0
ARC
  5
48F
  8
DEFAULT
 62
     5
 10
432.9584900599528
 20
624.8106812401018
 30
0.0
 40
5.001426953569076
 50
356.9719069584021
 51
17.89399591810833
  0
ARC
  5
490
  8
DEFAULT
 62
     5
 10
435.5158399672445
 20
625.4448944086688
 30
0.0
 40
2.379905269088659
 50
22.28543026921422
 51
59.17509813864215
  0
ARC
  5
491
  8
DEFAULT
 62
     5
 10
435.2273542549444
 20
624.7720691061121
 30
0.0
 40
3.107025720768976
 50
60.96474915803419
 51
91.83795056683785
  0
ARC
  5
492
  8
DEFAULT
 62
     5
 10
435.1154190341837
 20
624.9152608790133
 30
0.0
 40
2.962260965364575
 50
89.7623985881924
 51
118.0209040942819
  0
ARC
  5
493
  8
DEFAULT
 62
     5
 10
435.661342491863
 20
624.0275547748516
 30
0.0
 40
4.002904200367999
 50
118.9497448072858
 51
142.2082817022986
  0
ARC
  5
494
  8
DEFAULT
 62
     5
 10
430.1509319104989
 20
625.2435939863058
 30
0.0
 40
2.653115621772713
 50
27.78862696330039
 51
59.52889229807611
  0
ARC
  5
495
  8
DEFAULT
 62
     5
 10
430.1274989490082
 20
625.0131026193817
 30
0.0
 40
2.865287378583002
 50
61.46265368357785
 51
91.43100902221282
  0
ARC
  5
496
  8
DEFAULT
 62
     5
 10
430.0964522170187
 20
624.5001488919096
 30
0.0
 40
3.377590408527715
 50
90.68718656609462
 51
144.1035337663972
  0
LINE
  5
497
  8
DEFAULT
 62
     5
 10
427.3603411963248
 20
627.6552741511866
 30
0.0
 11
427.3603411963248
 21
626.4805057916163
 31
0.0
  0
LINE
  5
498
  8
DEFAULT
 62
     5
 10
425.2862671222508
 20
627.6552741511866
 30
0.0
 11
427.3603411963248
 21
627.6552741511866
 31
0.0
  0
LINE
  5
49A
  8
PROJITEM005
 62
     5
 10
920.028
 20
578.345
 30
0.0
 11
1036.03
 21
578.345
 31
0.0
  0
ARC
  5
49B
  8
PROJITEM005
 62
     5
 10
1036.03
 20
559.345
 30
0.0
 40
19.0000000000001
 50
269.999843195966
 51
90.00017678401812
  0
LINE
  5
49C
  8
PROJITEM005
 62
     5
 10
1036.03
 20
540.345
 30
0.0
 11
920.028
 21
540.345
 31
0.0
  0
ARC
  5
49D
  8
PROJITEM005
 62
     5
 10
920.028
 20
559.3450000000001
 30
0.0
 40
18.99999999999989
 50
90.0000003423627
 51
269.9998431959667
  0
LINE
  5
49E
  8
PROJITEM005
 62
     5
 10
908.028
 20
283.345
 30
0.0
 11
908.028
 21
291.345
 31
0.0
  0
LINE
  5
49F
  8
PROJITEM005
 62
     5
 10
1048.03
 20
283.345
 30
0.0
 11
908.028
 21
283.345
 31
0.0
  0
LINE
  5
4A0
  8
PROJITEM005
 62
     5
 10
908.028
 20
291.345
 30
0.0
 11
1048.03
 21
291.345
 31
0.0
  0
LINE
  5
4A1
  8
PROJITEM005
 62
     5
 10
1048.03
 20
291.345
 30
0.0
 11
1048.03
 21
283.345
 31
0.0
  0
LINE
  5
4A2
  8
PROJITEM005
 62
     5
 10
836.028
 20
431.345
 30
0.0
 11
836.028
 21
259.345
 31
0.0
  0
LINE
  5
4A3
  8
PROJITEM005
 62
     5
 10
828.028
 20
431.345
 30
0.0
 11
836.028
 21
431.345
 31
0.0
  0
LINE
  5
4A4
  8
PROJITEM005
 62
     5
 10
836.028
 20
259.345
 30
0.0
 11
1120.03
 21
259.345
 31
0.0
  0
LINE
  5
4A5
  8
PROJITEM005
 62
     5
 10
828.028
 20
259.345
 30
0.0
 11
828.028
 21
431.345
 31
0.0
  0
LINE
  5
4A6
  8
PROJITEM005
 62
     5
 10
1120.03
 20
259.345
 30
0.0
 11
1120.03
 21
431.345
 31
0.0
  0
LINE
  5
4A7
  8
PROJITEM005
 62
     5
 10
806.028
 20
259.345
 30
0.0
 11
828.028
 21
259.345
 31
0.0
  0
LINE
  5
4A8
  8
PROJITEM005
 62
     5
 10
1120.03
 20
431.345
 30
0.0
 11
1128.03
 21
431.345
 31
0.0
  0
LINE
  5
4A9
  8
PROJITEM005
 62
     5
 10
1128.03
 20
431.345
 30
0.0
 11
1128.03
 21
259.345
 31
0.0
  0
LINE
  5
4AA
  8
PROJITEM005
 62
     5
 10
1128.03
 20
259.345
 30
0.0
 11
1150.03
 21
259.345
 31
0.0
  0
LINE
  5
4AB
  8
PROJITEM005
 62
     5
 10
806.028
 20
603.345
 30
0.0
 11
806.028
 21
259.345
 31
0.0
  0
LINE
  5
4AC
  8
PROJITEM005
 62
     5
 10
1150.03
 20
259.345
 30
0.0
 11
1150.03
 21
603.345
 31
0.0
  0
LINE
  5
4AD
  8
PROJITEM005
 62
     5
 10
1150.03
 20
603.345
 30
0.0
 11
806.028
 21
603.345
 31
0.0
  0
LINE
  5
4AF
  8
PROJITEM004
 62
     5
 10
560.979
 20
296.247
 30
0.0
 11
560.979
 21
290.247
 31
0.0
  0
LINE
  5
4B0
  8
PROJITEM004
 62
     5
 10
488.979
 20
296.247
 30
0.0
 11
560.979
 21
296.247
 31
0.0
  0
LINE
  5
4B1
  8
PROJITEM004
 62
     5
 10
488.979
 20
368.247
 30
0.0
 11
488.979
 21
296.247
 31
0.0
  0
LINE
  5
4B2
  8
PROJITEM004
 62
     5
 10
482.979
 20
368.247
 30
0.0
 11
488.979
 21
368.247
 31
0.0
  0
LINE
  5
4B3
  8
PROJITEM004
 62
     5
 10
482.979
 20
508.247
 30
0.0
 11
482.979
 21
368.247
 31
0.0
  0
LINE
  5
4B4
  8
PROJITEM004
 62
     5
 10
488.979
 20
508.247
 30
0.0
 11
482.979
 21
508.247
 31
0.0
  0
LINE
  5
4B5
  8
PROJITEM004
 62
     5
 10
488.979
 20
580.247
 30
0.0
 11
488.979
 21
508.247
 31
0.0
  0
LINE
  5
4B6
  8
PROJITEM004
 62
     5
 10
560.979
 20
580.247
 30
0.0
 11
488.979
 21
580.247
 31
0.0
  0
LINE
  5
4B7
  8
PROJITEM004
 62
     5
 10
560.979
 20
586.247
 30
0.0
 11
560.979
 21
580.247
 31
0.0
  0
LINE
  5
4B8
  8
PROJITEM004
 62
     5
 10
700.979
 20
586.247
 30
0.0
 11
560.979
 21
586.247
 31
0.0
  0
LINE
  5
4B9
  8
PROJITEM004
 62
     5
 10
700.979
 20
580.247
 30
0.0
 11
700.979
 21
586.247
 31
0.0
  0
LINE
  5
4BA
  8
PROJITEM004
 62
     5
 10
772.979
 20
580.247
 30
0.0
 11
700.979
 21
580.247
 31
0.0
  0
LINE
  5
4BB
  8
PROJITEM004
 62
     5
 10
772.979
 20
508.247
 30
0.0
 11
772.979
 21
580.247
 31
0.0
  0
LINE
  5
4BC
  8
PROJITEM004
 62
     5
 10
778.979
 20
508.247
 30
0.0
 11
772.979
 21
508.247
 31
0.0
  0
LINE
  5
4BD
  8
PROJITEM004
 62
     5
 10
778.979
 20
368.247
 30
0.0
 11
778.979
 21
508.247
 31
0.0
  0
LINE
  5
4BE
  8
PROJITEM004
 62
     5
 10
772.979
 20
368.247
 30
0.0
 11
778.979
 21
368.247
 31
0.0
  0
LINE
  5
4BF
  8
PROJITEM004
 62
     5
 10
772.979
 20
296.247
 30
0.0
 11
772.979
 21
368.247
 31
0.0
  0
LINE
  5
4C0
  8
PROJITEM004
 62
     5
 10
700.979
 20
296.247
 30
0.0
 11
772.979
 21
296.247
 31
0.0
  0
LINE
  5
4C1
  8
PROJITEM004
 62
     5
 10
700.979
 20
290.247
 30
0.0
 11
700.979
 21
296.247
 31
0.0
  0
LINE
  5
4C2
  8
PROJITEM004
 62
     5
 10
560.979
 20
290.247
 30
0.0
 11
700.979
 21
290.247
 31
0.0
  0
LINE
  5
4C4
  8
VIEW
 62
     5
 10
343.903
 20
540.345
 30
0.0
 11
227.903
 21
540.345
 31
0.0
  0
ARC
  5
4C5
  8
VIEW
 62
     5
 10
227.903
 20
559.345
 30
0.0
 40
19.0
 50
90.0
 51
270.0001999999999
  0
LINE
  5
4C6
  8
VIEW
 62
     5
 10
227.903
 20
578.345
 30
0.0
 11
343.903
 21
578.345
 31
0.0
  0
ARC
  5
4C7
  8
VIEW
 62
     5
 10
343.903
 20
559.345
 30
0.0
 40
19.0
 50
270.0
 51
90.0
  0
LINE
  5
4C8
  8
VIEW
 62
     5
 10
355.903
 20
291.345
 30
0.0
 11
355.903
 21
283.345
 31
0.0
  0
LINE
  5
4C9
  8
VIEW
 62
     5
 10
215.903
 20
291.345
 30
0.0
 11
355.903
 21
291.345
 31
0.0
  0
LINE
  5
4CA
  8
VIEW
 62
     5
 10
355.903
 20
283.345
 30
0.0
 11
215.903
 21
283.345
 31
0.0
  0
LINE
  5
4CB
  8
VIEW
 62
     5
 10
215.903
 20
283.345
 30
0.0
 11
215.903
 21
291.345
 31
0.0
  0
LINE
  5
4CC
  8
VIEW
 62
     5
 10
427.903
 20
431.345
 30
0.0
 11
427.903
 21
603.345
 31
0.0
  0
LINE
  5
4CD
  8
VIEW
 62
     5
 10
435.903
 20
431.345
 30
0.0
 11
427.903
 21
431.345
 31
0.0
  0
LINE
  5
4CE
  8
VIEW
 62
     5
 10
427.903
 20
603.345
 30
0.0
 11
143.903
 21
603.345
 31
0.0
  0
LINE
  5
4CF
  8
VIEW
 62
     5
 10
435.903
 20
603.345
 30
0.0
 11
435.903
 21
431.345
 31
0.0
  0
LINE
  5
4D0
  8
VIEW
 62
     5
 10
143.903
 20
603.345
 30
0.0
 11
143.903
 21
431.345
 31
0.0
  0
LINE
  5
4D1
  8
VIEW
 62
     5
 10
457.903
 20
603.345
 30
0.0
 11
435.903
 21
603.345
 31
0.0
  0
LINE
  5
4D2
  8
VIEW
 62
     5
 10
143.903
 20
431.345
 30
0.0
 11
135.903
 21
431.345
 31
0.0
  0
LINE
  5
4D3
  8
VIEW
 62
     5
 10
135.903
 20
431.345
 30
0.0
 11
135.903
 21
603.345
 31
0.0
  0
LINE
  5
4D4
  8
VIEW
 62
     5
 10
135.903
 20
603.345
 30
0.0
 11
113.903
 21
603.345
 31
0.0
  0
LINE
  5
4D5
  8
VIEW
 62
     5
 10
457.903
 20
259.345
 30
0.0
 11
457.903
 21
603.345
 31
0.0
  0
LINE
  5
4D6
  8
VIEW
 62
     5
 10
113.903
 20
603.345
 30
0.0
 11
113.903
 21
259.345
 31
0.0
  0
LINE
  5
4D7
  8
VIEW
 62
     5
 10
113.903
 20
259.345
 30
0.0
 11
457.903
 21
259.345
 31
0.0
  0
ENDSEC
  0
EOF
