  0
SECTION
  2
HEADER
  9
$ACADVER
  1
AC1009
  9
$DWGCODEPAGE
  3
ansi_1252
  9
$INSBASE
 10
0.0
 20
0.0
 30
0.0
  9
$EXTMIN
 10
-66.65483288447999
 20
-52.86355194945497
 30
0.0
  9
$EXTMAX
 10
63.57656906437953
 20
85.94462715304947
 30
0.0
  9
$LIMMIN
 10
0.0
 20
0.0
  9
$LIMMAX
 10
12.0
 20
9.0
  9
$ORTHOMODE
 70
     0
  9
$REGENMODE
 70
     1
  9
$FILLMODE
 70
     1
  9
$QTEXTMODE
 70
     0
  9
$MIRRTEXT
 70
     1
  9
$DRAGMODE
 70
     2
  9
$LTSCALE
 40
1.0
  9
$OSMODE
 70
    37
  9
$ATTMODE
 70
     1
  9
$TEXTSIZE
 40
0.2
  9
$TRACEWID
 40
0.05
  9
$TEXTSTYLE
  7
STANDARD
  9
$CLAYER
  8
DEFAULT
  9
$CELTYPE
  6
BYLAYER
  9
$CECOLOR
 62
   256
  9
$DIMSCALE
 40
1.0
  9
$DIMASZ
 40
0.18
  9
$DIMEXO
 40
0.0625
  9
$DIMDLI
 40
0.38
  9
$DIMRND
 40
0.0
  9
$DIMDLE
 40
0.0
  9
$DIMEXE
 40
0.18
  9
$DIMTP
 40
0.0
  9
$DIMTM
 40
0.0
  9
$DIMTXT
 40
0.18
  9
$DIMCEN
 40
0.09
  9
$DIMTSZ
 40
0.0
  9
$DIMTOL
 70
     0
  9
$DIMLIM
 70
     0
  9
$DIMTIH
 70
     1
  9
$DIMTOH
 70
     1
  9
$DIMSE1
 70
     0
  9
$DIMSE2
 70
     0
  9
$DIMTAD
 70
     0
  9
$DIMZIN
 70
     0
  9
$DIMBLK
  1

  9
$DIMASO
 70
     1
  9
$DIMSHO
 70
     1
  9
$DIMPOST
  1

  9
$DIMAPOST
  1

  9
$DIMALT
 70
     0
  9
$DIMALTD
 70
     2
  9
$DIMALTF
 40
25.4
  9
$DIMLFAC
 40
1.0
  9
$DIMTOFL
 70
     0
  9
$DIMTVP
 40
0.0
  9
$DIMTIX
 70
     0
  9
$DIMSOXD
 70
     0
  9
$DIMSAH
 70
     0
  9
$DIMBLK1
  1

  9
$DIMBLK2
  1

  9
$DIMSTYLE
  2
STANDARD
  9
$DIMCLRD
 70
     0
  9
$DIMCLRE
 70
     0
  9
$DIMCLRT
 70
     0
  9
$DIMTFAC
 40
1.0
  9
$DIMGAP
 40
0.09
  9
$LUNITS
 70
     2
  9
$LUPREC
 70
     4
  9
$SKETCHINC
 40
0.1
  9
$FILLETRAD
 40
0.5
  9
$AUNITS
 70
     0
  9
$AUPREC
 70
     0
  9
$MENU
  1
.
  9
$ELEVATION
 40
0.0
  9
$PELEVATION
 40
0.0
  9
$THICKNESS
 40
0.0
  9
$LIMCHECK
 70
     0
  9
$CHAMFERA
 40
0.0
  9
$CHAMFERB
 40
0.0
  9
$SKPOLY
 70
     0
  9
$TDCREATE
 40
2458792.933571088
  9
$TDUPDATE
 40
2458792.933585058
  9
$TDINDWG
 40
0.0000000116
  9
$TDUSRTIMER
 40
0.0000000116
  9
$USRTIMER
 70
     1
  9
$ANGBASE
 50
0.0
  9
$ANGDIR
 70
     0
  9
$PDMODE
 70
     0
  9
$PDSIZE
 40
0.0
  9
$PLINEWID
 40
0.0
  9
$COORDS
 70
     1
  9
$SPLFRAME
 70
     0
  9
$SPLINETYPE
 70
     6
  9
$SPLINESEGS
 70
     8
  9
$ATTDIA
 70
     0
  9
$ATTREQ
 70
     1
  9
$HANDLING
 70
     1
  9
$HANDSEED
  5
4A4
  9
$SURFTAB1
 70
     6
  9
$SURFTAB2
 70
     6
  9
$SURFTYPE
 70
     6
  9
$SURFU
 70
     6
  9
$SURFV
 70
     6
  9
$UCSNAME
  2

  9
$UCSORG
 10
0.0
 20
0.0
 30
0.0
  9
$UCSXDIR
 10
1.0
 20
0.0
 30
0.0
  9
$UCSYDIR
 10
0.0
 20
1.0
 30
0.0
  9
$PUCSNAME
  2

  9
$PUCSORG
 10
0.0
 20
0.0
 30
0.0
  9
$PUCSXDIR
 10
1.0
 20
0.0
 30
0.0
  9
$PUCSYDIR
 10
0.0
 20
1.0
 30
0.0
  9
$USERI1
 70
     0
  9
$USERI2
 70
     0
  9
$USERI3
 70
     0
  9
$USERI4
 70
     0
  9
$USERI5
 70
     0
  9
$USERR1
 40
0.0
  9
$USERR2
 40
0.0
  9
$USERR3
 40
0.0
  9
$USERR4
 40
0.0
  9
$USERR5
 40
0.0
  9
$WORLDVIEW
 70
     1
  9
$SHADEDGE
 70
     3
  9
$SHADEDIF
 70
    70
  9
$TILEMODE
 70
     1
  9
$MAXACTVP
 70
    64
  9
$PLIMCHECK
 70
     0
  9
$PEXTMIN
 10
1.000000000000000E+20
 20
1.000000000000000E+20
 30
1.000000000000000E+20
  9
$PEXTMAX
 10
-1.000000000000000E+20
 20
-1.000000000000000E+20
 30
-1.000000000000000E+20
  9
$PLIMMIN
 10
0.0
 20
0.0
  9
$PLIMMAX
 10
12.0
 20
9.0
  9
$UNITMODE
 70
     0
  9
$VISRETAIN
 70
     1
  9
$PLINEGEN
 70
     0
  9
$PSLTSCALE
 70
     1
  0
ENDSEC
  0
SECTION
  2
TABLES
  0
TABLE
  2
VPORT
 70
     1
  0
VPORT
  2
*ACTIVE
 70
     0
 10
0.0
 20
0.0
 11
1.0
 21
1.0
 12
-1.53913191005023
 22
16.54053760179724
 13
0.0
 23
0.0
 14
0.5
 24
0.5
 15
0.5
 25
0.5
 16
0.0
 26
0.0
 36
1.0
 17
0.0
 27
0.0
 37
0.0
 40
141.5843426845545
 41
0.9382112984328445
 42
50.0
 43
0.0
 44
0.0
 50
0.0
 51
0.0
 71
     0
 72
   100
 73
     1
 74
     3
 75
     0
 76
     0
 77
     0
 78
     0
  0
ENDTAB
  0
TABLE
  2
LTYPE
 70
     1
  0
LTYPE
  2
CONTINUOUS
 70
     0
  3
Solid line
 72
    65
 73
     0
 40
0.0
  0
ENDTAB
  0
TABLE
  2
LAYER
 70
     6
  0
LAYER
  2
0
 70
     0
 62
     7
  6
CONTINUOUS
  0
LAYER
  2
DEFAULT
 70
     0
 62
     7
  6
CONTINUOUS
  0
LAYER
  2
4
 70
     0
 62
     7
  6
CONTINUOUS
  0
LAYER
  2
3
 70
     0
 62
     7
  6
CONTINUOUS
  0
LAYER
  2
2
 70
     0
 62
     7
  6
CONTINUOUS
  0
LAYER
  2
1
 70
     0
 62
     7
  6
CONTINUOUS
  0
ENDTAB
  0
TABLE
  2
STYLE
 70
     1
  0
STYLE
  2
STANDARD
 70
     0
 40
0.0
 41
1.0
 50
0.0
 71
     0
 42
0.2
  3
txt
  4

  0
ENDTAB
  0
TABLE
  2
VIEW
 70
     0
  0
ENDTAB
  0
TABLE
  2
UCS
 70
     0
  0
ENDTAB
  0
TABLE
  2
APPID
 70
     1
  0
APPID
  2
ACAD
 70
     0
  0
ENDTAB
  0
TABLE
  2
DIMSTYLE
 70
     1
  0
DIMSTYLE
  2
STANDARD
 70
     0
  3

  4

  5

  6

  7

 40
1.0
 41
0.18
 42
0.0625
 43
0.38
 44
0.18
 45
0.0
 46
0.0
 47
0.0
 48
0.0
140
0.18
141
0.09
142
0.0
143
25.4
144
1.0
145
0.0
146
1.0
147
0.09
 71
     0
 72
     0
 73
     1
 74
     1
 75
     0
 76
     0
 77
     0
 78
     0
170
     0
171
     2
172
     0
173
     0
174
     0
175
     0
176
     0
177
     0
178
     0
  0
ENDTAB
  0
ENDSEC
  0
SECTION
  2
BLOCKS
  0
BLOCK
  8
0
  2
$MODEL_SPACE
 70
     0
 10
0.0
 20
0.0
 30
0.0
  3
$MODEL_SPACE
  1

  0
ENDBLK
  5
21
  8
0
  0
BLOCK
 67
     1
  8
0
  2
$PAPER_SPACE
 70
     0
 10
0.0
 20
0.0
 30
0.0
  3
$PAPER_SPACE
  1

  0
ENDBLK
  5
1D
 67
     1
  8
0
  0
BLOCK
  8
0
  2
SE
 70
     0
 10
0.0
 20
0.0
 30
0.0
  3
SE
  1

  0
LINE
  5
48C
  8
1
  6
CONTINUOUS
 62
     7
 10
184.7139731608
 20
164.1855278092
 30
0.0
 11
216.4639731608
 21
219.1781409495
 31
0.0
  0
LINE
  5
48D
  8
1
  6
CONTINUOUS
 62
     7
 10
216.4639731608
 20
219.1781409495
 30
0.0
 11
243.9602797309
 21
187.714374611
 31
0.0
  0
LINE
  5
48E
  8
1
  6
CONTINUOUS
 62
     7
 10
243.9602797309
 20
187.714374611
 30
0.0
 11
217.0364404837
 21
164.1855278092
 31
0.0
  0
LINE
  5
48F
  8
1
  6
CONTINUOUS
 62
     7
 10
217.0364404837
 20
164.1855278092
 30
0.0
 11
184.7139731608
 21
164.1855278092
 31
0.0
  0
LINE
  5
490
  8
2
  6
CONTINUOUS
 62
     7
 10
216.4639731608
 20
219.1781409495
 30
0.0
 11
243.9602797309
 21
187.714374611
 31
0.0
  0
LINE
  5
491
  8
2
  6
CONTINUOUS
 62
     7
 10
243.9602797309
 20
187.714374611
 30
0.0
 11
279.9639731608
 21
219.1781409495
 31
0.0
  0
LINE
  5
492
  8
2
  6
CONTINUOUS
 62
     7
 10
279.9639731608
 20
219.1781409495
 30
0.0
 11
248.2139731608
 21
274.1707540898
 31
0.0
  0
LINE
  5
493
  8
2
  6
CONTINUOUS
 62
     7
 10
248.2139731608
 20
274.1707540898
 30
0.0
 11
216.4639731608
 21
219.1781409495
 31
0.0
  0
LINE
  5
494
  8
3
  6
CONTINUOUS
 62
     7
 10
217.0364404837
 20
164.1855278092
 30
0.0
 11
253.0401339136
 21
195.6492941477
 31
0.0
  0
LINE
  5
495
  8
3
  6
CONTINUOUS
 62
     7
 10
253.0401339136
 20
195.6492941477
 30
0.0
 11
280.5364404837
 21
164.1855278092
 31
0.0
  0
LINE
  5
496
  8
3
  6
CONTINUOUS
 62
     7
 10
280.5364404837
 20
164.1855278092
 30
0.0
 11
217.0364404837
 21
164.1855278092
 31
0.0
  0
LINE
  5
497
  8
4
  6
CONTINUOUS
 62
     7
 10
253.0401339136
 20
195.6492941477
 30
0.0
 11
280.5364404837
 21
164.1855278092
 31
0.0
  0
LINE
  5
498
  8
4
  6
CONTINUOUS
 62
     7
 10
280.5364404837
 20
164.1855278092
 30
0.0
 11
311.7139731608
 21
164.1855278092
 31
0.0
  0
LINE
  5
499
  8
4
  6
CONTINUOUS
 62
     7
 10
311.7139731608
 20
164.1855278092
 30
0.0
 11
279.9639731608
 21
219.1781409495
 31
0.0
  0
LINE
  5
49A
  8
4
  6
CONTINUOUS
 62
     7
 10
279.9639731608
 20
219.1781409495
 30
0.0
 11
253.0401339136
 21
195.6492941477
 31
0.0
  0
ENDBLK
  5
49C
  8
0
  0
ENDSEC
  0
SECTION
  2
ENTITIES
  0
POLYLINE
  5
6F
  8
DEFAULT
 62
     5
 66
     1
 10
0.0
 20
0.0
 30
0.0
 70
     1
  0
VERTEX
  5
70
  8
DEFAULT
 62
     5
 10
62.41426473393187
 20
72.73209994379236
 30
0.0
 42
0.1931771868552449
  0
VERTEX
  5
71
  8
DEFAULT
 62
     5
 10
62.15066541324092
 20
73.47718102853926
 30
0.0
 42
0.4344367687048078
  0
VERTEX
  5
72
  8
DEFAULT
 62
     5
 10
60.90384819089153
 20
73.4630031366014
 30
0.0
 42
0.1974850402976842
  0
VERTEX
  5
73
  8
DEFAULT
 62
     5
 10
60.65674189484956
 20
72.73209994379236
 30
0.0
  0
SEQEND
  5
74
  8
DEFAULT
 62
     5
  0
POLYLINE
  5
75
  8
DEFAULT
 62
     5
 66
     1
 10
0.0
 20
0.0
 30
0.0
 70
     1
  0
VERTEX
  5
76
  8
DEFAULT
 62
     5
 10
62.34019065985779
 20
71.54691475860717
 30
0.0
  0
VERTEX
  5
77
  8
DEFAULT
 62
     5
 10
63.48833880800594
 20
71.39876661045903
 30
0.0
 42
-0.1601948643917389
  0
VERTEX
  5
78
  8
DEFAULT
 62
     5
 10
62.79042222964381
 20
70.40628987340307
 30
0.0
 42
-0.15902094058143
  0
VERTEX
  5
79
  8
DEFAULT
 62
     5
 10
61.59655692159523
 20
70.0654332771257
 30
0.0
 42
-0.2510606897924307
  0
VERTEX
  5
7A
  8
DEFAULT
 62
     5
 10
59.91831600424544
 20
70.80848886800307
 30
0.0
 42
-0.1603231689598353
  0
VERTEX
  5
7B
  8
DEFAULT
 62
     5
 10
59.48833880800593
 20
72.31022528818
 30
0.0
 42
-0.192898891945061
  0
VERTEX
  5
7C
  8
DEFAULT
 62
     5
 10
60.05517925797754
 20
74.007563154008
 30
0.0
 42
-0.2186957110499406
  0
VERTEX
  5
7D
  8
DEFAULT
 62
     5
 10
61.48833880800594
 20
74.62098883268125
 30
0.0
 42
-0.2248762650829931
  0
VERTEX
  5
7E
  8
DEFAULT
 62
     5
 10
63.02421870254913
 20
73.98296815388082
 30
0.0
 42
-0.186685059264746
  0
VERTEX
  5
7F
  8
DEFAULT
 62
     5
 10
63.56241288208003
 20
72.02839624008865
 30
0.0
  0
VERTEX
  5
80
  8
DEFAULT
 62
     5
 10
60.63648695615409
 20
72.02839624008865
 30
0.0
 42
0.1907233177561383
  0
VERTEX
  5
81
  8
DEFAULT
 62
     5
 10
60.91976278558084
 20
71.2370190003327
 30
0.0
 42
0.2135192120775259
  0
VERTEX
  5
82
  8
DEFAULT
 62
     5
 10
61.59482078399277
 20
70.95432216601459
 30
0.0
 42
0.1657236937100951
  0
VERTEX
  5
83
  8
DEFAULT
 62
     5
 10
62.05691539558002
 20
71.09465797752608
 30
0.0
 42
0.1589948514629665
  0
SEQEND
  5
84
  8
DEFAULT
 62
     5
  0
POLYLINE
  5
85
  8
DEFAULT
 62
     5
 66
     1
 10
0.0
 20
0.0
 30
0.0
 70
     1
  0
VERTEX
  5
86
  8
DEFAULT
 62
     5
 10
57.52537584504298
 20
70.1765443882368
 30
0.0
  0
VERTEX
  5
87
  8
DEFAULT
 62
     5
 10
57.52537584504298
 20
76.13950735119977
 30
0.0
  0
VERTEX
  5
88
  8
DEFAULT
 62
     5
 10
58.67352399319113
 20
76.13950735119977
 30
0.0
  0
VERTEX
  5
89
  8
DEFAULT
 62
     5
 10
58.67352399319113
 20
70.1765443882368
 30
0.0
  0
SEQEND
  5
8A
  8
DEFAULT
 62
     5
  0
POLYLINE
  5
8B
  8
DEFAULT
 62
     5
 66
     1
 10
0.0
 20
0.0
 30
0.0
 70
     1
  0
VERTEX
  5
8C
  8
DEFAULT
 62
     5
 10
52.89574621541335
 20
70.1765443882368
 30
0.0
  0
VERTEX
  5
8D
  8
DEFAULT
 62
     5
 10
52.89574621541335
 20
71.06543327712569
 30
0.0
  0
VERTEX
  5
8E
  8
DEFAULT
 62
     5
 10
54.49759820855244
 20
72.96126671642446
 30
0.0
  0
VERTEX
  5
8F
  8
DEFAULT
 62
     5
 10
55.08093140059854
 20
73.62098883268125
 30
0.0
  0
VERTEX
  5
90
  8
DEFAULT
 62
     5
 10
54.55951988455819
 20
73.59610475886149
 30
0.0
  0
VERTEX
  5
91
  8
DEFAULT
 62
     5
 10
53.0438943635615
 20
73.58395179564421
 30
0.0
  0
VERTEX
  5
92
  8
DEFAULT
 62
     5
 10
53.0438943635615
 20
74.50987772157013
 30
0.0
  0
VERTEX
  5
93
  8
DEFAULT
 62
     5
 10
56.59944991911706
 20
74.50987772157013
 30
0.0
  0
VERTEX
  5
94
  8
DEFAULT
 62
     5
 10
56.59944991911706
 20
73.69506290675533
 30
0.0
  0
VERTEX
  5
95
  8
DEFAULT
 62
     5
 10
54.92873282986026
 20
71.77550281870512
 30
0.0
  0
VERTEX
  5
96
  8
DEFAULT
 62
     5
 10
54.34019065985779
 20
71.13950735119977
 30
0.0
  0
VERTEX
  5
97
  8
DEFAULT
 62
     5
 10
54.94204265299688
 20
71.1765443882368
 30
0.0
  0
VERTEX
  5
98
  8
DEFAULT
 62
     5
 10
56.74759806726521
 20
71.1765443882368
 30
0.0
  0
VERTEX
  5
99
  8
DEFAULT
 62
     5
 10
56.74759806726521
 20
70.1765443882368
 30
0.0
  0
SEQEND
  5
9A
  8
DEFAULT
 62
     5
  0
POLYLINE
  5
9B
  8
DEFAULT
 62
     5
 66
     1
 10
0.0
 20
0.0
 30
0.0
 70
     1
  0
VERTEX
  5
9C
  8
DEFAULT
 62
     5
 10
48.74759806726521
 20
70.1765443882368
 30
0.0
  0
VERTEX
  5
9D
  8
DEFAULT
 62
     5
 10
48.74759806726521
 20
71.06543327712569
 30
0.0
  0
VERTEX
  5
9E
  8
DEFAULT
 62
     5
 10
50.3494500604043
 20
72.96126671642446
 30
0.0
  0
VERTEX
  5
9F
  8
DEFAULT
 62
     5
 10
50.93278325245038
 20
73.62098883268125
 30
0.0
  0
VERTEX
  5
A0
  8
DEFAULT
 62
     5
 10
50.41137173641005
 20
73.59610475886149
 30
0.0
  0
VERTEX
  5
A1
  8
DEFAULT
 62
     5
 10
48.89574621541335
 20
73.58395179564421
 30
0.0
  0
VERTEX
  5
A2
  8
DEFAULT
 62
     5
 10
48.89574621541335
 20
74.50987772157013
 30
0.0
  0
VERTEX
  5
A3
  8
DEFAULT
 62
     5
 10
52.4513017709689
 20
74.50987772157013
 30
0.0
  0
VERTEX
  5
A4
  8
DEFAULT
 62
     5
 10
52.4513017709689
 20
73.69506290675533
 30
0.0
  0
VERTEX
  5
A5
  8
DEFAULT
 62
     5
 10
50.78058468171211
 20
71.77550281870512
 30
0.0
  0
VERTEX
  5
A6
  8
DEFAULT
 62
     5
 10
50.19204251170965
 20
71.13950735119977
 30
0.0
  0
VERTEX
  5
A7
  8
DEFAULT
 62
     5
 10
50.79389450484874
 20
71.1765443882368
 30
0.0
  0
VERTEX
  5
A8
  8
DEFAULT
 62
     5
 10
52.59944991911706
 20
71.1765443882368
 30
0.0
  0
VERTEX
  5
A9
  8
DEFAULT
 62
     5
 10
52.59944991911706
 20
70.1765443882368
 30
0.0
  0
SEQEND
  5
AA
  8
DEFAULT
 62
     5
  0
POLYLINE
  5
AB
  8
DEFAULT
 62
     5
 66
     1
 10
0.0
 20
0.0
 30
0.0
 70
     1
  0
VERTEX
  5
AC
  8
DEFAULT
 62
     5
 10
47.00685732652446
 20
70.1765443882368
 30
0.0
  0
VERTEX
  5
AD
  8
DEFAULT
 62
     5
 10
47.00685732652447
 20
70.82064183122034
 30
0.0
 42
-0.1223972716446052
  0
VERTEX
  5
AE
  8
DEFAULT
 62
     5
 10
46.38995937264627
 20
70.27087311843187
 30
0.0
 42
-0.1257588650398338
  0
VERTEX
  5
AF
  8
DEFAULT
 62
     5
 10
45.58266782077549
 20
70.06543327712569
 30
0.0
 42
-0.1301059334599663
  0
VERTEX
  5
B0
  8
DEFAULT
 62
     5
 10
44.80633682433309
 20
70.25785236898783
 30
0.0
 42
-0.167000738323196
  0
VERTEX
  5
B1
  8
DEFAULT
 62
     5
 10
44.30865139189525
 20
70.79807232496273
 30
0.0
 42
-0.1009427833083555
  0
VERTEX
  5
B2
  8
DEFAULT
 62
     5
 10
44.15500547467261
 20
71.75987814543186
 30
0.0
  0
VERTEX
  5
B3
  8
DEFAULT
 62
     5
 10
44.15500547467261
 20
74.50987772157013
 30
0.0
  0
VERTEX
  5
B4
  8
DEFAULT
 62
     5
 10
45.30315362282075
 20
74.50987772157013
 30
0.0
  0
VERTEX
  5
B5
  8
DEFAULT
 62
     5
 10
45.30315362282074
 20
72.52029454718495
 30
0.0
 42
0.0503730066259904
  0
VERTEX
  5
B6
  8
DEFAULT
 62
     5
 10
45.36565372878619
 20
71.40079238690305
 30
0.0
 42
0.1675734251047284
  0
VERTEX
  5
B7
  8
DEFAULT
 62
     5
 10
45.59366307634998
 20
71.0746926776722
 30
0.0
 42
0.1610647544742636
  0
VERTEX
  5
B8
  8
DEFAULT
 62
     5
 10
46.01322316440018
 20
70.95432216601458
 30
0.0
 42
0.1578518894734267
  0
VERTEX
  5
B9
  8
DEFAULT
 62
     5
 10
46.53347782052116
 20
71.11549134618123
 30
0.0
 42
0.1591085904631121
  0
VERTEX
  5
BA
  8
DEFAULT
 62
     5
 10
46.8480032790689
 20
71.51508641695203
 30
0.0
 42
0.062794802146825
  0
VERTEX
  5
BB
  8
DEFAULT
 62
     5
 10
46.93278325245038
 20
72.682910508687
 30
0.0
  0
VERTEX
  5
BC
  8
DEFAULT
 62
     5
 10
46.93278325245038
 20
74.50987772157013
 30
0.0
  0
VERTEX
  5
BD
  8
DEFAULT
 62
     5
 10
48.08093140059854
 20
74.50987772157013
 30
0.0
  0
VERTEX
  5
BE
  8
DEFAULT
 62
     5
 10
48.08093140059854
 20
70.1765443882368
 30
0.0
  0
SEQEND
  5
BF
  8
DEFAULT
 62
     5
  0
POLYLINE
  5
C0
  8
DEFAULT
 62
     5
 66
     1
 10
0.0
 20
0.0
 30
0.0
 70
     1
  0
VERTEX
  5
C1
  8
DEFAULT
 62
     5
 10
40.22907954874669
 20
72.41612798648372
 30
0.0
 42
0.1662127852120534
  0
VERTEX
  5
C2
  8
DEFAULT
 62
     5
 10
40.51322316440018
 20
71.31138243067385
 30
0.0
 42
0.2404461653497645
  0
VERTEX
  5
C3
  8
DEFAULT
 62
     5
 10
41.20535289999524
 20
70.95432216601459
 30
0.0
 42
0.2413239634427046
  0
VERTEX
  5
C4
  8
DEFAULT
 62
     5
 10
41.85784139214956
 20
71.28215801284792
 30
0.0
 42
0.1627449374921677
  0
VERTEX
  5
C5
  8
DEFAULT
 62
     5
 10
42.11796843763556
 20
72.35767915083186
 30
0.0
 42
0.1661976731382208
  0
VERTEX
  5
C6
  8
DEFAULT
 62
     5
 10
41.84973941667138
 20
73.39384783649318
 30
0.0
 42
0.2412377667960484
  0
VERTEX
  5
C7
  8
DEFAULT
 62
     5
 10
41.18567723898288
 20
73.73209994379238
 30
0.0
 42
0.2367422129321813
  0
VERTEX
  5
C8
  8
DEFAULT
 62
     5
 10
40.50107048375738
 20
73.39992403552733
 30
0.0
 42
0.1723447809988969
  0
SEQEND
  5
C9
  8
DEFAULT
 62
     5
  0
POLYLINE
  5
CA
  8
DEFAULT
 62
     5
 66
     1
 10
0.0
 20
0.0
 30
0.0
 70
     1
  0
VERTEX
  5
CB
  8
DEFAULT
 62
     5
 10
39.08093140059854
 20
74.50987772157013
 30
0.0
  0
VERTEX
  5
CC
  8
DEFAULT
 62
     5
 10
40.15500547467261
 20
74.50987772157013
 30
0.0
  0
VERTEX
  5
CD
  8
DEFAULT
 62
     5
 10
40.15500547467262
 20
73.87793380695284
 30
0.0
 42
-0.1189653659007564
  0
VERTEX
  5
CE
  8
DEFAULT
 62
     5
 10
40.70969324400141
 20
74.41149828621046
 30
0.0
 42
-0.138210559891001
  0
VERTEX
  5
CF
  8
DEFAULT
 62
     5
 10
41.48544581048412
 20
74.62098883268123
 30
0.0
 42
-0.2273648758850392
  0
VERTEX
  5
D0
  8
DEFAULT
 62
     5
 10
42.74759806726521
 20
74.02579231625944
 30
0.0
 42
-0.183868218893611
  0
VERTEX
  5
D1
  8
DEFAULT
 62
     5
 10
43.26611658578373
 20
72.3680954112977
 30
0.0
 42
-0.1823656645300186
  0
VERTEX
  5
D2
  8
DEFAULT
 62
     5
 10
42.74325800583351
 20
70.67075754546973
 30
0.0
 42
-0.2285594541575
  0
VERTEX
  5
D3
  8
DEFAULT
 62
     5
 10
41.47618640993761
 20
70.06543327712568
 30
0.0
 42
-0.1163198006807953
  0
VERTEX
  5
D4
  8
DEFAULT
 62
     5
 10
40.83440381709071
 20
70.2072158699726
 30
0.0
 42
-0.0904152380777624
  0
VERTEX
  5
D5
  8
DEFAULT
 62
     5
 10
40.22907954874669
 20
70.69332733430181
 30
0.0
  0
VERTEX
  5
D6
  8
DEFAULT
 62
     5
 10
40.22907954874669
 20
68.50987772157013
 30
0.0
  0
VERTEX
  5
D7
  8
DEFAULT
 62
     5
 10
39.08093140059854
 20
68.50987772157013
 30
0.0
  0
SEQEND
  5
D8
  8
DEFAULT
 62
     5
  0
POLYLINE
  5
D9
  8
DEFAULT
 62
     5
 66
     1
 10
0.0
 20
0.0
 30
0.0
 70
     1
  0
VERTEX
  5
DA
  8
DEFAULT
 62
     5
 10
29.30315362282077
 20
74.50987772157013
 30
0.0
  0
VERTEX
  5
DB
  8
DEFAULT
 62
     5
 10
30.34019065985779
 20
74.50987772157013
 30
0.0
  0
VERTEX
  5
DC
  8
DEFAULT
 62
     5
 10
30.34019065985779
 20
73.92249354178495
 30
0.0
 42
-0.2373869490350018
  0
VERTEX
  5
DD
  8
DEFAULT
 62
     5
 10
31.68799180654503
 20
74.62098883268125
 30
0.0
 42
-0.1315120310734666
  0
VERTEX
  5
DE
  8
DEFAULT
 62
     5
 10
32.4081885348977
 20
74.44737789817917
 30
0.0
 42
-0.1393853272245145
  0
VERTEX
  5
DF
  8
DEFAULT
 62
     5
 10
32.90905660369895
 20
73.92249354178495
 30
0.0
 42
-0.1018343532166057
  0
VERTEX
  5
E0
  8
DEFAULT
 62
     5
 10
33.52190385241252
 20
74.44737789817918
 30
0.0
 42
-0.1239296679571285
  0
VERTEX
  5
E1
  8
DEFAULT
 62
     5
 10
34.22387170108824
 20
74.62098883268125
 30
0.0
 42
-0.1355305589141657
  0
VERTEX
  5
E2
  8
DEFAULT
 62
     5
 10
35.02769097775408
 20
74.42654452952405
 30
0.0
 42
-0.1623661969580545
  0
VERTEX
  5
E3
  8
DEFAULT
 62
     5
 10
35.51901057231623
 20
73.8559427306549
 30
0.0
 42
-0.0915442810314392
  0
VERTEX
  5
E4
  8
DEFAULT
 62
     5
 10
35.6364869561541
 20
72.95547959108289
 30
0.0
  0
VERTEX
  5
E5
  8
DEFAULT
 62
     5
 10
35.63648695615409
 20
70.1765443882368
 30
0.0
  0
VERTEX
  5
E6
  8
DEFAULT
 62
     5
 10
34.48833880800594
 20
70.1765443882368
 30
0.0
  0
VERTEX
  5
E7
  8
DEFAULT
 62
     5
 10
34.48833880800593
 20
72.65455415966231
 30
0.0
 42
0.1141470137910769
  0
VERTEX
  5
E8
  8
DEFAULT
 62
     5
 10
34.37144113670222
 20
73.487308497887
 30
0.0
 42
0.2721000606534074
  0
VERTEX
  5
E9
  8
DEFAULT
 62
     5
 10
33.88706609254996
 20
73.73209994379236
 30
0.0
 42
0.1575639071466934
  0
VERTEX
  5
EA
  8
DEFAULT
 62
     5
 10
33.43943844659318
 20
73.58510922071254
 30
0.0
 42
0.1657627374473852
  0
VERTEX
  5
EB
  8
DEFAULT
 62
     5
 10
33.13677631242117
 20
73.15455387708784
 30
0.0
 42
0.0723437487254887
  0
VERTEX
  5
EC
  8
DEFAULT
 62
     5
 10
33.0438943635615
 20
72.25872043778907
 30
0.0
  0
VERTEX
  5
ED
  8
DEFAULT
 62
     5
 10
33.0438943635615
 20
70.1765443882368
 30
0.0
  0
VERTEX
  5
EE
  8
DEFAULT
 62
     5
 10
31.89574621541335
 20
70.1765443882368
 30
0.0
  0
VERTEX
  5
EF
  8
DEFAULT
 62
     5
 10
31.89574621541335
 20
72.55212317141458
 30
0.0
  0
VERTEX
  5
F0
  8
DEFAULT
 62
     5
 10
31.8358505984261
 20
73.36896348009894
 30
0.0
 42
0.1633931196985038
  0
VERTEX
  5
F1
  8
DEFAULT
 62
     5
 10
31.64979762701416
 20
73.64240091387055
 30
0.0
 42
0.1561218014296492
  0
VERTEX
  5
F2
  8
DEFAULT
 62
     5
 10
31.30778332309401
 20
73.73209994379236
 30
0.0
 42
0.1551837175468132
  0
VERTEX
  5
F3
  8
DEFAULT
 62
     5
 10
30.83932287363104
 20
73.58916020845162
 30
0.0
 42
0.1670025847935269
  0
VERTEX
  5
F4
  8
DEFAULT
 62
     5
 10
30.54129043973227
 20
73.17683402707836
 30
0.0
 42
0.0722698594962461
  0
VERTEX
  5
F5
  8
DEFAULT
 62
     5
 10
30.4513017709689
 20
72.28302636422363
 30
0.0
  0
VERTEX
  5
F6
  8
DEFAULT
 62
     5
 10
30.4513017709689
 20
70.1765443882368
 30
0.0
  0
VERTEX
  5
F7
  8
DEFAULT
 62
     5
 10
29.30315362282077
 20
70.1765443882368
 30
0.0
  0
SEQEND
  5
F8
  8
DEFAULT
 62
     5
  0
POLYLINE
  5
F9
  8
DEFAULT
 62
     5
 66
     1
 10
0.0
 20
0.0
 30
0.0
 70
     1
  0
VERTEX
  5
FA
  8
DEFAULT
 62
     5
 10
27.37722769689483
 20
72.73209994379236
 30
0.0
 42
0.1931771868552501
  0
VERTEX
  5
FB
  8
DEFAULT
 62
     5
 10
27.11362837620387
 20
73.47718102853928
 30
0.0
 42
0.434436768704808
  0
VERTEX
  5
FC
  8
DEFAULT
 62
     5
 10
25.86681115385451
 20
73.4630031366014
 30
0.0
 42
0.1974850402976935
  0
VERTEX
  5
FD
  8
DEFAULT
 62
     5
 10
25.61970485781254
 20
72.73209994379236
 30
0.0
  0
SEQEND
  5
FE
  8
DEFAULT
 62
     5
  0
POLYLINE
  5
FF
  8
DEFAULT
 62
     5
 66
     1
 10
0.0
 20
0.0
 30
0.0
 70
     1
  0
VERTEX
  5
100
  8
DEFAULT
 62
     5
 10
27.30315362282077
 20
71.54691475860717
 30
0.0
  0
VERTEX
  5
101
  8
DEFAULT
 62
     5
 10
28.4513017709689
 20
71.39876661045903
 30
0.0
 42
-0.1601948643917492
  0
VERTEX
  5
102
  8
DEFAULT
 62
     5
 10
27.75338519260677
 20
70.40628987340305
 30
0.0
 42
-0.159020940581439
  0
VERTEX
  5
103
  8
DEFAULT
 62
     5
 10
26.5595198845582
 20
70.06543327712568
 30
0.0
 42
-0.2510606897924196
  0
VERTEX
  5
104
  8
DEFAULT
 62
     5
 10
24.88127896720841
 20
70.80848886800307
 30
0.0
 42
-0.1603231689598343
  0
VERTEX
  5
105
  8
DEFAULT
 62
     5
 10
24.4513017709689
 20
72.31022528818
 30
0.0
 42
-0.1928988919450608
  0
VERTEX
  5
106
  8
DEFAULT
 62
     5
 10
25.01814222094051
 20
74.007563154008
 30
0.0
 42
-0.2186957110499395
  0
VERTEX
  5
107
  8
DEFAULT
 62
     5
 10
26.4513017709689
 20
74.62098883268125
 30
0.0
 42
-0.2248762650829808
  0
VERTEX
  5
108
  8
DEFAULT
 62
     5
 10
27.98718166551212
 20
73.98296815388082
 30
0.0
 42
-0.1866850592647379
  0
VERTEX
  5
109
  8
DEFAULT
 62
     5
 10
28.52537584504298
 20
72.02839624008865
 30
0.0
  0
VERTEX
  5
10A
  8
DEFAULT
 62
     5
 10
25.59944991911706
 20
72.02839624008865
 30
0.0
 42
0.1907233177561358
  0
VERTEX
  5
10B
  8
DEFAULT
 62
     5
 10
25.8827257485438
 20
71.23701900033268
 30
0.0
 42
0.2135192120775191
  0
VERTEX
  5
10C
  8
DEFAULT
 62
     5
 10
26.55778374695573
 20
70.95432216601458
 30
0.0
 42
0.1657236937100939
  0
VERTEX
  5
10D
  8
DEFAULT
 62
     5
 10
27.01987835854298
 20
71.0946579775261
 30
0.0
 42
0.1589948514629567
  0
SEQEND
  5
10E
  8
DEFAULT
 62
     5
  0
POLYLINE
  5
10F
  8
DEFAULT
 62
     5
 66
     1
 10
0.0
 20
0.0
 30
0.0
 70
     1
  0
VERTEX
  5
110
  8
DEFAULT
 62
     5
 10
22.48833880800594
 20
70.1765443882368
 30
0.0
  0
VERTEX
  5
111
  8
DEFAULT
 62
     5
 10
22.48833880800594
 20
76.13950735119977
 30
0.0
  0
VERTEX
  5
112
  8
DEFAULT
 62
     5
 10
23.63648695615409
 20
76.13950735119977
 30
0.0
  0
VERTEX
  5
113
  8
DEFAULT
 62
     5
 10
23.63648695615409
 20
70.1765443882368
 30
0.0
  0
SEQEND
  5
114
  8
DEFAULT
 62
     5
  0
POLYLINE
  5
115
  8
DEFAULT
 62
     5
 66
     1
 10
0.0
 20
0.0
 30
0.0
 70
     1
  0
VERTEX
  5
116
  8
DEFAULT
 62
     5
 10
18.56241288208002
 20
72.42365124942775
 30
0.0
 42
0.137528406818834
  0
VERTEX
  5
117
  8
DEFAULT
 62
     5
 10
18.77132528116561
 20
71.41670669901787
 30
0.0
 42
0.2740108968145634
  0
VERTEX
  5
118
  8
DEFAULT
 62
     5
 10
19.55083919654586
 20
70.95432216601458
 30
0.0
 42
0.2391215062966628
  0
VERTEX
  5
119
  8
DEFAULT
 62
     5
 10
20.18799180654504
 20
71.282447369115
 30
0.0
 42
0.1664742695868033
  0
VERTEX
  5
11A
  8
DEFAULT
 62
     5
 10
20.4513017709689
 20
72.31659112605573
 30
0.0
 42
0.1640109831052042
  0
VERTEX
  5
11B
  8
DEFAULT
 62
     5
 10
20.18596631267548
 20
73.39992403552733
 30
0.0
 42
0.4960567659548469
  0
VERTEX
  5
11C
  8
DEFAULT
 62
     5
 10
18.83179961068701
 20
73.40802601100553
 30
0.0
 42
0.1733692477042048
  0
SEQEND
  5
11D
  8
DEFAULT
 62
     5
  0
POLYLINE
  5
11E
  8
DEFAULT
 62
     5
 66
     1
 10
0.0
 20
0.0
 30
0.0
 70
     1
  0
VERTEX
  5
11F
  8
DEFAULT
 62
     5
 10
17.41426473393187
 20
70.1765443882368
 30
0.0
  0
VERTEX
  5
120
  8
DEFAULT
 62
     5
 10
17.41426473393187
 20
76.13950735119977
 30
0.0
  0
VERTEX
  5
121
  8
DEFAULT
 62
     5
 10
18.56241288208002
 20
76.13950735119977
 30
0.0
  0
VERTEX
  5
122
  8
DEFAULT
 62
     5
 10
18.56241288208002
 20
74.02145225482774
 30
0.0
 42
-0.2270822596882943
  0
VERTEX
  5
123
  8
DEFAULT
 62
     5
 10
19.7996816301903
 20
74.62098883268125
 30
0.0
 42
-0.2252479393351286
  0
VERTEX
  5
124
  8
DEFAULT
 62
     5
 10
21.0893227323438
 20
74.04431083477795
 30
0.0
 42
-0.1849988564296102
  0
VERTEX
  5
125
  8
DEFAULT
 62
     5
 10
21.59944991911705
 20
72.38835034999317
 30
0.0
 42
-0.1811789010422562
  0
VERTEX
  5
126
  8
DEFAULT
 62
     5
 10
21.08035297063886
 20
70.66873205160019
 30
0.0
 42
-0.2291506328684953
  0
VERTEX
  5
127
  8
DEFAULT
 62
     5
 10
19.81935785635161
 20
70.06543327712569
 30
0.0
 42
-0.1258590372261079
  0
VERTEX
  5
128
  8
DEFAULT
 62
     5
 10
19.09973955795861
 20
70.25669494391953
 30
0.0
 42
-0.1164914631293887
  0
VERTEX
  5
129
  8
DEFAULT
 62
     5
 10
18.48833880800594
 20
70.80848886800307
 30
0.0
  0
VERTEX
  5
12A
  8
DEFAULT
 62
     5
 10
18.48833880800594
 20
70.1765443882368
 30
0.0
  0
SEQEND
  5
12B
  8
DEFAULT
 62
     5
  0
POLYLINE
  5
12C
  8
DEFAULT
 62
     5
 66
     1
 10
0.0
 20
0.0
 30
0.0
 70
     1
  0
VERTEX
  5
12D
  8
DEFAULT
 62
     5
 10
13.22907954874669
 20
72.34321133747795
 30
0.0
 42
0.1807696907208305
  0
VERTEX
  5
12E
  8
DEFAULT
 62
     5
 10
13.52884812024792
 20
71.33973906227301
 30
0.0
 42
0.4777036397637699
  0
VERTEX
  5
12F
  8
DEFAULT
 62
     5
 10
15.00541082776354
 20
71.33973906227303
 30
0.0
 42
0.1794408075869758
  0
VERTEX
  5
130
  8
DEFAULT
 62
     5
 10
15.30315362282077
 20
72.35131331295614
 30
0.0
 42
0.1800932450793884
  0
VERTEX
  5
131
  8
DEFAULT
 62
     5
 10
15.00541082776355
 20
73.3466833301084
 30
0.0
 42
0.4793729384846578
  0
VERTEX
  5
132
  8
DEFAULT
 62
     5
 10
13.52884812024791
 20
73.3466833301084
 30
0.0
 42
0.1807697890868303
  0
SEQEND
  5
133
  8
DEFAULT
 62
     5
  0
POLYLINE
  5
134
  8
DEFAULT
 62
     5
 66
     1
 10
0.0
 20
0.0
 30
0.0
 70
     1
  0
VERTEX
  5
135
  8
DEFAULT
 62
     5
 10
12.08093140059854
 20
72.40455373580059
 30
0.0
 42
-0.1222574291832706
  0
VERTEX
  5
136
  8
DEFAULT
 62
     5
 10
12.36073467224586
 20
73.5168225545545
 30
0.0
 42
-0.1509199207836015
  0
VERTEX
  5
137
  8
DEFAULT
 62
     5
 10
13.1535589759117
 20
74.33771356840347
 30
0.0
 42
-0.1287246067144219
  0
VERTEX
  5
138
  8
DEFAULT
 62
     5
 10
14.29910320023063
 20
74.62098883268125
 30
0.0
 42
-0.2109274079128304
  0
VERTEX
  5
139
  8
DEFAULT
 62
     5
 10
15.90095462822076
 20
73.97862780987467
 30
0.0
 42
-0.2026212639801723
  0
VERTEX
  5
13A
  8
DEFAULT
 62
     5
 10
16.52537584504299
 20
72.35536430069523
 30
0.0
 42
-0.2022295973323206
  0
VERTEX
  5
13B
  8
DEFAULT
 62
     5
 10
15.8948784291866
 20
70.71589627541047
 30
0.0
 42
-0.2115506096601058
  0
VERTEX
  5
13C
  8
DEFAULT
 62
     5
 10
14.30720461055986
 20
70.06543327712569
 30
0.0
 42
-0.1188796278362248
  0
VERTEX
  5
13D
  8
DEFAULT
 62
     5
 10
13.1778643371973
 20
70.3362667870681
 30
0.0
 42
-0.1582355798320286
  0
VERTEX
  5
13E
  8
DEFAULT
 62
     5
 10
12.36073467224586
 20
71.13053787206931
 30
0.0
 42
-0.1239053267140386
  0
SEQEND
  5
13F
  8
DEFAULT
 62
     5
  0
POLYLINE
  5
140
  8
DEFAULT
 62
     5
 66
     1
 10
0.0
 20
0.0
 30
0.0
 70
     1
  0
VERTEX
  5
141
  8
DEFAULT
 62
     5
 10
10.26611658578373
 20
70.1765443882368
 30
0.0
  0
VERTEX
  5
142
  8
DEFAULT
 62
     5
 10
9.117968437635575
 20
70.1765443882368
 30
0.0
  0
VERTEX
  5
143
  8
DEFAULT
 62
     5
 10
9.117968437635575
 20
74.50987772157013
 30
0.0
  0
VERTEX
  5
144
  8
DEFAULT
 62
     5
 10
10.19204251170965
 20
74.50987772157013
 30
0.0
  0
VERTEX
  5
145
  8
DEFAULT
 62
     5
 10
10.19204251170965
 20
73.89818818049935
 30
0.0
 42
-0.0977550519460921
  0
VERTEX
  5
146
  8
DEFAULT
 62
     5
 10
10.66252873761665
 20
74.47631295973804
 30
0.0
 42
-0.1561720185079542
  0
VERTEX
  5
147
  8
DEFAULT
 62
     5
 10
11.13648723872857
 20
74.62098883268125
 30
0.0
 42
-0.143817098136984
  0
VERTEX
  5
148
  8
DEFAULT
 62
     5
 10
11.85870917837632
 20
74.40281759819813
 30
0.0
  0
VERTEX
  5
149
  8
DEFAULT
 62
     5
 10
11.50685760909894
 20
73.39760975053967
 30
0.0
 42
0.1496770151887695
  0
VERTEX
  5
14A
  8
DEFAULT
 62
     5
 10
10.9952836409903
 20
73.58395179564421
 30
0.0
 42
0.1810970994867372
  0
VERTEX
  5
14B
  8
DEFAULT
 62
     5
 10
10.60726282090264
 20
73.4511395296512
 30
0.0
 42
0.1501348396487886
  0
VERTEX
  5
14C
  8
DEFAULT
 62
     5
 10
10.3572626796154
 20
72.97110482950511
 30
0.0
 42
0.0509111359642144
  0
VERTEX
  5
14D
  8
DEFAULT
 62
     5
 10
10.26611658578373
 20
71.51682227198002
 30
0.0
  0
SEQEND
  5
14E
  8
DEFAULT
 62
     5
  0
POLYLINE
  5
14F
  8
DEFAULT
 62
     5
 66
     1
 10
0.0
 20
0.0
 30
0.0
 70
     1
  0
VERTEX
  5
150
  8
DEFAULT
 62
     5
 10
5.192042511709651
 20
72.41612798648372
 30
0.0
 42
0.1662127852120615
  0
VERTEX
  5
151
  8
DEFAULT
 62
     5
 10
5.476186127363144
 20
71.31138243067385
 30
0.0
 42
0.2404461653497642
  0
VERTEX
  5
152
  8
DEFAULT
 62
     5
 10
6.168315862958202
 20
70.95432216601459
 30
0.0
 42
0.2413239634427136
  0
VERTEX
  5
153
  8
DEFAULT
 62
     5
 10
6.820804355112522
 20
71.28215801284792
 30
0.0
 42
0.162744937492175
  0
VERTEX
  5
154
  8
DEFAULT
 62
     5
 10
7.080931400598534
 20
72.35767915083186
 30
0.0
 42
0.1661976731382073
  0
VERTEX
  5
155
  8
DEFAULT
 62
     5
 10
6.812702379634331
 20
73.39384783649317
 30
0.0
 42
0.2412377667960512
  0
VERTEX
  5
156
  8
DEFAULT
 62
     5
 10
6.148640201945852
 20
73.73209994379236
 30
0.0
 42
0.2367422129321858
  0
VERTEX
  5
157
  8
DEFAULT
 62
     5
 10
5.464033446720335
 20
73.39992403552733
 30
0.0
 42
0.172344780998895
  0
SEQEND
  5
158
  8
DEFAULT
 62
     5
  0
POLYLINE
  5
159
  8
DEFAULT
 62
     5
 66
     1
 10
0.0
 20
0.0
 30
0.0
 70
     1
  0
VERTEX
  5
15A
  8
DEFAULT
 62
     5
 10
4.043894363561499
 20
74.50987772157013
 30
0.0
  0
VERTEX
  5
15B
  8
DEFAULT
 62
     5
 10
5.117968437635575
 20
74.50987772157013
 30
0.0
  0
VERTEX
  5
15C
  8
DEFAULT
 62
     5
 10
5.117968437635577
 20
73.87793380695283
 30
0.0
 42
-0.118965365900754
  0
VERTEX
  5
15D
  8
DEFAULT
 62
     5
 10
5.672656206964376
 20
74.41149828621046
 30
0.0
 42
-0.1382105598910137
  0
VERTEX
  5
15E
  8
DEFAULT
 62
     5
 10
6.448408773447085
 20
74.62098883268126
 30
0.0
 42
-0.2273648758850314
  0
VERTEX
  5
15F
  8
DEFAULT
 62
     5
 10
7.710561030228173
 20
74.02579231625944
 30
0.0
 42
-0.1838682188936103
  0
VERTEX
  5
160
  8
DEFAULT
 62
     5
 10
8.229079548746686
 20
72.3680954112977
 30
0.0
 42
-0.182365664530025
  0
VERTEX
  5
161
  8
DEFAULT
 62
     5
 10
7.706220968796474
 20
70.67075754546974
 30
0.0
 42
-0.228559454157504
  0
VERTEX
  5
162
  8
DEFAULT
 62
     5
 10
6.439149372900588
 20
70.06543327712568
 30
0.0
 42
-0.1163198006807966
  0
VERTEX
  5
163
  8
DEFAULT
 62
     5
 10
5.797366780053678
 20
70.2072158699726
 30
0.0
 42
-0.0904152380777664
  0
VERTEX
  5
164
  8
DEFAULT
 62
     5
 10
5.192042511709652
 20
70.69332733430181
 30
0.0
  0
VERTEX
  5
165
  8
DEFAULT
 62
     5
 10
5.192042511709651
 20
68.50987772157013
 30
0.0
  0
VERTEX
  5
166
  8
DEFAULT
 62
     5
 10
4.043894363561499
 20
68.50987772157013
 30
0.0
  0
SEQEND
  5
167
  8
DEFAULT
 62
     5
  0
POLYLINE
  5
168
  8
DEFAULT
 62
     5
 66
     1
 10
0.0
 20
0.0
 30
0.0
 70
     1
  0
VERTEX
  5
169
  8
DEFAULT
 62
     5
 10
-3.28943896977183
 20
71.39876661045903
 30
0.0
  0
VERTEX
  5
16A
  8
DEFAULT
 62
     5
 10
-2.141290821623672
 20
71.54691475860717
 30
0.0
 42
0.1817134537413236
  0
VERTEX
  5
16B
  8
DEFAULT
 62
     5
 10
-1.844126173951673
 20
71.04980832127795
 30
0.0
 42
0.1637490318832733
  0
VERTEX
  5
16C
  8
DEFAULT
 62
     5
 10
-1.21825789321958
 20
70.88024809194052
 30
0.0
 42
0.1581548590316008
  0
VERTEX
  5
16D
  8
DEFAULT
 62
     5
 10
-0.5510125140187562
 20
71.0463363286475
 30
0.0
 42
0.2454173628752976
  0
VERTEX
  5
16E
  8
DEFAULT
 62
     5
 10
-0.4005500808829553
 20
71.35767915083186
 30
0.0
  0
VERTEX
  5
16F
  8
DEFAULT
 62
     5
 10
-0.4821468527520878
 20
71.57758652291746
 30
0.0
  0
VERTEX
  5
170
  8
DEFAULT
 62
     5
 10
-0.8664063239422084
 20
71.73094308387302
 30
0.0
 42
-0.0750101977649388
  0
VERTEX
  5
171
  8
DEFAULT
 62
     5
 10
-2.626822725695299
 20
72.29749361242857
 30
0.0
 42
-0.2630575377237235
  0
VERTEX
  5
172
  8
DEFAULT
 62
     5
 10
-3.141290821623687
 20
73.28013280155284
 30
0.0
 42
-0.2278055359033939
  0
VERTEX
  5
173
  8
DEFAULT
 62
     5
 10
-2.696557020912156
 20
74.23441479392898
 30
0.0
 42
-0.1789409577799111
  0
VERTEX
  5
174
  8
DEFAULT
 62
     5
 10
-1.317795318796527
 20
74.62098883268125
 30
0.0
 42
-0.1478680227512782
  0
VERTEX
  5
175
  8
DEFAULT
 62
     5
 10
0.0039640464281676
 20
74.32150990002157
 30
0.0
 42
-0.1798681362132249
  0
VERTEX
  5
176
  8
DEFAULT
 62
     5
 10
0.59944991911706
 20
73.43580364749606
 30
0.0
  0
VERTEX
  5
177
  8
DEFAULT
 62
     5
 10
-0.4746241549570237
 20
73.25061846231088
 30
0.0
 42
0.1762609448244137
  0
VERTEX
  5
178
  8
DEFAULT
 62
     5
 10
-0.7373554068467242
 20
73.66294492625863
 30
0.0
 42
0.1598214678236374
  0
VERTEX
  5
179
  8
DEFAULT
 62
     5
 10
-1.28943896977183
 20
73.80617401786644
 30
0.0
 42
0.1371855487857327
  0
VERTEX
  5
17A
  8
DEFAULT
 62
     5
 10
-1.937008122811339
 20
73.6777020958796
 30
0.0
 42
0.5297885667389413
  0
VERTEX
  5
17B
  8
DEFAULT
 62
     5
 10
-1.953212073767739
 20
73.22920666369603
 30
0.0
 42
0.0664798749578489
  0
VERTEX
  5
17C
  8
DEFAULT
 62
     5
 10
-0.8855035549948842
 20
72.90137109943721
 30
0.0
 42
-0.1095214193377308
  0
VERTEX
  5
17D
  8
DEFAULT
 62
     5
 10
0.3893806601121158
 20
72.38603549985655
 30
0.0
 42
-0.2284114958797741
  0
VERTEX
  5
17E
  8
DEFAULT
 62
     5
 10
0.7475980672652023
 20
71.52781781012898
 30
0.0
 42
-0.2276229810650842
  0
VERTEX
  5
17F
  8
DEFAULT
 62
     5
 10
0.2510703424701488
 20
70.49656761585901
 30
0.0
 42
-0.1809722242825235
  0
VERTEX
  5
180
  8
DEFAULT
 62
     5
 10
-1.218257893219579
 20
70.06543327712569
 30
0.0
 42
-0.1534212868271843
  0
VERTEX
  5
181
  8
DEFAULT
 62
     5
 10
-2.616117108962366
 20
70.42422967938744
 30
0.0
 42
-0.1853542620166102
  0
SEQEND
  5
182
  8
DEFAULT
 62
     5
  0
POLYLINE
  5
183
  8
DEFAULT
 62
     5
 66
     1
 10
0.0
 20
0.0
 30
0.0
 70
     1
  0
VERTEX
  5
184
  8
DEFAULT
 62
     5
 10
-4.855410785793239
 20
74.02839624008865
 30
0.0
  0
VERTEX
  5
185
  8
DEFAULT
 62
     5
 10
-5.067216747549608
 20
75.13487821607548
 30
0.0
  0
VERTEX
  5
186
  8
DEFAULT
 62
     5
 10
-5.067216747549608
 20
76.13950735119977
 30
0.0
  0
VERTEX
  5
187
  8
DEFAULT
 62
     5
 10
-3.844994525327387
 20
76.13950735119977
 30
0.0
  0
VERTEX
  5
188
  8
DEFAULT
 62
     5
 10
-3.844994525327387
 20
75.13487821607548
 30
0.0
  0
VERTEX
  5
189
  8
DEFAULT
 62
     5
 10
-4.028443572910106
 20
74.02839624008865
 30
0.0
  0
SEQEND
  5
18A
  8
DEFAULT
 62
     5
  0
POLYLINE
  5
18B
  8
DEFAULT
 62
     5
 66
     1
 10
0.0
 20
0.0
 30
0.0
 70
     1
  0
VERTEX
  5
18C
  8
DEFAULT
 62
     5
 10
-6.919068599401463
 20
70.1765443882368
 30
0.0
  0
VERTEX
  5
18D
  8
DEFAULT
 62
     5
 10
-8.067216747549608
 20
70.1765443882368
 30
0.0
  0
VERTEX
  5
18E
  8
DEFAULT
 62
     5
 10
-8.067216747549608
 20
74.50987772157013
 30
0.0
  0
VERTEX
  5
18F
  8
DEFAULT
 62
     5
 10
-6.993142673475532
 20
74.50987772157013
 30
0.0
  0
VERTEX
  5
190
  8
DEFAULT
 62
     5
 10
-6.993142673475537
 20
73.89818818049935
 30
0.0
 42
-0.0977550519460809
  0
VERTEX
  5
191
  8
DEFAULT
 62
     5
 10
-6.522656447568542
 20
74.47631295973804
 30
0.0
 42
-0.1561720185079497
  0
VERTEX
  5
192
  8
DEFAULT
 62
     5
 10
-6.048697946456613
 20
74.62098883268125
 30
0.0
 42
-0.1438170981369891
  0
VERTEX
  5
193
  8
DEFAULT
 62
     5
 10
-5.326476006808869
 20
74.40281759819813
 30
0.0
  0
VERTEX
  5
194
  8
DEFAULT
 62
     5
 10
-5.67832757608624
 20
73.39760975053966
 30
0.0
 42
0.1496770151887629
  0
VERTEX
  5
195
  8
DEFAULT
 62
     5
 10
-6.189901544194882
 20
73.58395179564421
 30
0.0
 42
0.1810970994867365
  0
VERTEX
  5
196
  8
DEFAULT
 62
     5
 10
-6.577922364282539
 20
73.4511395296512
 30
0.0
 42
0.1501348396488168
  0
VERTEX
  5
197
  8
DEFAULT
 62
     5
 10
-6.827922505569785
 20
72.97110482950511
 30
0.0
 42
0.0509111359642144
  0
VERTEX
  5
198
  8
DEFAULT
 62
     5
 10
-6.919068599401465
 20
71.51682227198002
 30
0.0
  0
SEQEND
  5
199
  8
DEFAULT
 62
     5
  0
POLYLINE
  5
19A
  8
DEFAULT
 62
     5
 66
     1
 10
0.0
 20
0.0
 30
0.0
 70
     1
  0
VERTEX
  5
19B
  8
DEFAULT
 62
     5
 10
-10.10425378458665
 20
72.73209994379236
 30
0.0
 42
0.1931771868552583
  0
VERTEX
  5
19C
  8
DEFAULT
 62
     5
 10
-10.3678531052776
 20
73.47718102853928
 30
0.0
 42
0.434436768704822
  0
VERTEX
  5
19D
  8
DEFAULT
 62
     5
 10
-11.61467032762699
 20
73.46300313660142
 30
0.0
 42
0.197485040297681
  0
VERTEX
  5
19E
  8
DEFAULT
 62
     5
 10
-11.86177662366896
 20
72.73209994379236
 30
0.0
  0
SEQEND
  5
19F
  8
DEFAULT
 62
     5
  0
POLYLINE
  5
1A0
  8
DEFAULT
 62
     5
 66
     1
 10
0.0
 20
0.0
 30
0.0
 70
     1
  0
VERTEX
  5
1A1
  8
DEFAULT
 62
     5
 10
-10.17832785866072
 20
71.54691475860717
 30
0.0
  0
VERTEX
  5
1A2
  8
DEFAULT
 62
     5
 10
-9.030179710512577
 20
71.39876661045903
 30
0.0
 42
-0.1601948643917463
  0
VERTEX
  5
1A3
  8
DEFAULT
 62
     5
 10
-9.728096288874715
 20
70.40628987340305
 30
0.0
 42
-0.1590209405814362
  0
VERTEX
  5
1A4
  8
DEFAULT
 62
     5
 10
-10.92196159692328
 20
70.06543327712569
 30
0.0
 42
-0.2510606897924187
  0
VERTEX
  5
1A5
  8
DEFAULT
 62
     5
 10
-12.60020251427308
 20
70.80848886800307
 30
0.0
 42
-0.1603231689598293
  0
VERTEX
  5
1A6
  8
DEFAULT
 62
     5
 10
-13.03017971051258
 20
72.31022528818
 30
0.0
 42
-0.1928988919450598
  0
VERTEX
  5
1A7
  8
DEFAULT
 62
     5
 10
-12.46333926054098
 20
74.007563154008
 30
0.0
 42
-0.2186957110499428
  0
VERTEX
  5
1A8
  8
DEFAULT
 62
     5
 10
-11.03017971051257
 20
74.62098883268125
 30
0.0
 42
-0.2248762650829876
  0
VERTEX
  5
1A9
  8
DEFAULT
 62
     5
 10
-9.494299815969372
 20
73.98296815388082
 30
0.0
 42
-0.1866850592647415
  0
VERTEX
  5
1AA
  8
DEFAULT
 62
     5
 10
-8.956105636438501
 20
72.02839624008865
 30
0.0
  0
VERTEX
  5
1AB
  8
DEFAULT
 62
     5
 10
-11.88203156236442
 20
72.02839624008865
 30
0.0
 42
0.1907233177561404
  0
VERTEX
  5
1AC
  8
DEFAULT
 62
     5
 10
-11.5987557329377
 20
71.23701900033268
 30
0.0
 42
0.2135192120775047
  0
VERTEX
  5
1AD
  8
DEFAULT
 62
     5
 10
-10.92369773452575
 20
70.95432216601459
 30
0.0
 42
0.1657236937100925
  0
VERTEX
  5
1AE
  8
DEFAULT
 62
     5
 10
-10.4616031229385
 20
71.09465797752608
 30
0.0
 42
0.1589948514629713
  0
SEQEND
  5
1AF
  8
DEFAULT
 62
     5
  0
POLYLINE
  5
1B0
  8
DEFAULT
 62
     5
 66
     1
 10
0.0
 20
0.0
 30
0.0
 70
     1
  0
VERTEX
  5
1B1
  8
DEFAULT
 62
     5
 10
-16.62277230310517
 20
76.13950735119977
 30
0.0
  0
VERTEX
  5
1B2
  8
DEFAULT
 62
     5
 10
-16.62277230310517
 20
73.97689195484668
 30
0.0
 42
-0.2297604469665511
  0
VERTEX
  5
1B3
  8
DEFAULT
 62
     5
 10
-15.30679978064756
 20
74.62098883268125
 30
0.0
 42
-0.1105861482598779
  0
VERTEX
  5
1B4
  8
DEFAULT
 62
     5
 10
-14.59817730297801
 20
74.47370875333432
 30
0.0
 42
-0.1329990183628061
  0
VERTEX
  5
1B5
  8
DEFAULT
 62
     5
 10
-14.12248266426361
 20
74.0972621839298
 30
0.0
 42
-0.1017582537502505
  0
VERTEX
  5
1B6
  8
DEFAULT
 62
     5
 10
-13.90373271724632
 20
73.58973920356026
 30
0.0
  0
VERTEX
  5
1B7
  8
DEFAULT
 62
     5
 10
-13.84499452532739
 20
72.72631338359976
 30
0.0
  0
VERTEX
  5
1B8
  8
DEFAULT
 62
     5
 10
-13.84499452532739
 20
70.1765443882368
 30
0.0
  0
VERTEX
  5
1B9
  8
DEFAULT
 62
     5
 10
-14.99314267347553
 20
70.1765443882368
 30
0.0
  0
VERTEX
  5
1BA
  8
DEFAULT
 62
     5
 10
-14.99314267347554
 20
72.46647541180634
 30
0.0
 42
0.0632012682018142
  0
VERTEX
  5
1BB
  8
DEFAULT
 62
     5
 10
-15.05737863446896
 20
73.3319264430619
 30
0.0
 42
0.1681746719245825
  0
VERTEX
  5
1BC
  8
DEFAULT
 62
     5
 10
-15.2848089869241
 20
73.62388239535203
 30
0.0
 42
0.1491915597585604
  0
VERTEX
  5
1BD
  8
DEFAULT
 62
     5
 10
-15.6933741019743
 20
73.73209994379236
 30
0.0
 42
0.1438663844543014
  0
VERTEX
  5
1BE
  8
DEFAULT
 62
     5
 10
-16.1962673820706
 20
73.5932111961907
 30
0.0
 42
0.1700128950902268
  0
VERTEX
  5
1BF
  8
DEFAULT
 62
     5
 10
-16.52005224116484
 20
73.17480853320882
 30
0.0
 42
0.0829006645175062
  0
VERTEX
  5
1C0
  8
DEFAULT
 62
     5
 10
-16.62277230310517
 20
72.34841975028536
 30
0.0
  0
VERTEX
  5
1C1
  8
DEFAULT
 62
     5
 10
-16.62277230310517
 20
70.1765443882368
 30
0.0
  0
VERTEX
  5
1C2
  8
DEFAULT
 62
     5
 10
-17.77092045125331
 20
70.1765443882368
 30
0.0
  0
VERTEX
  5
1C3
  8
DEFAULT
 62
     5
 10
-17.77092045125331
 20
76.13950735119977
 30
0.0
  0
SEQEND
  5
1C4
  8
DEFAULT
 62
     5
  0
POLYLINE
  5
1C5
  8
DEFAULT
 62
     5
 66
     1
 10
0.0
 20
0.0
 30
0.0
 70
     1
  0
VERTEX
  5
1C6
  8
DEFAULT
 62
     5
 10
-22.80795748829035
 20
71.39876661045903
 30
0.0
  0
VERTEX
  5
1C7
  8
DEFAULT
 62
     5
 10
-21.6598093401422
 20
71.54691475860717
 30
0.0
 42
0.1817134537413109
  0
VERTEX
  5
1C8
  8
DEFAULT
 62
     5
 10
-21.36264469247019
 20
71.04980832127795
 30
0.0
 42
0.1637490318832732
  0
VERTEX
  5
1C9
  8
DEFAULT
 62
     5
 10
-20.7367764117381
 20
70.88024809194052
 30
0.0
 42
0.1581548590316019
  0
VERTEX
  5
1CA
  8
DEFAULT
 62
     5
 10
-20.06953103253727
 20
71.0463363286475
 30
0.0
 42
0.2454173628753008
  0
VERTEX
  5
1CB
  8
DEFAULT
 62
     5
 10
-19.91906859940147
 20
71.35767915083186
 30
0.0
  0
VERTEX
  5
1CC
  8
DEFAULT
 62
     5
 10
-20.00066537127061
 20
71.57758652291746
 30
0.0
  0
VERTEX
  5
1CD
  8
DEFAULT
 62
     5
 10
-20.38492484246073
 20
71.73094308387302
 30
0.0
 42
-0.0750101977649377
  0
VERTEX
  5
1CE
  8
DEFAULT
 62
     5
 10
-22.14534124421382
 20
72.29749361242857
 30
0.0
 42
-0.2630575377237379
  0
VERTEX
  5
1CF
  8
DEFAULT
 62
     5
 10
-22.65980934014222
 20
73.28013280155284
 30
0.0
 42
-0.2278055359033895
  0
VERTEX
  5
1D0
  8
DEFAULT
 62
     5
 10
-22.21507553943068
 20
74.23441479392899
 30
0.0
 42
-0.1789409577799128
  0
VERTEX
  5
1D1
  8
DEFAULT
 62
     5
 10
-20.83631383731505
 20
74.62098883268126
 30
0.0
 42
-0.1478680227512731
  0
VERTEX
  5
1D2
  8
DEFAULT
 62
     5
 10
-19.51455447209035
 20
74.32150990002157
 30
0.0
 42
-0.1798681362132327
  0
VERTEX
  5
1D3
  8
DEFAULT
 62
     5
 10
-18.91906859940146
 20
73.43580364749606
 30
0.0
  0
VERTEX
  5
1D4
  8
DEFAULT
 62
     5
 10
-19.99314267347553
 20
73.25061846231088
 30
0.0
 42
0.1762609448244054
  0
VERTEX
  5
1D5
  8
DEFAULT
 62
     5
 10
-20.25587392536525
 20
73.66294492625862
 30
0.0
 42
0.1598214678236577
  0
VERTEX
  5
1D6
  8
DEFAULT
 62
     5
 10
-20.80795748829035
 20
73.80617401786644
 30
0.0
 42
0.1371855487857363
  0
VERTEX
  5
1D7
  8
DEFAULT
 62
     5
 10
-21.45552664132985
 20
73.67770209587958
 30
0.0
 42
0.5297885667389589
  0
VERTEX
  5
1D8
  8
DEFAULT
 62
     5
 10
-21.47173059228625
 20
73.22920666369603
 30
0.0
 42
0.0664798749578575
  0
VERTEX
  5
1D9
  8
DEFAULT
 62
     5
 10
-20.4040220735134
 20
72.90137109943721
 30
0.0
 42
-0.1095214193377281
  0
VERTEX
  5
1DA
  8
DEFAULT
 62
     5
 10
-19.1291378584064
 20
72.38603549985655
 30
0.0
 42
-0.2284114958797737
  0
VERTEX
  5
1DB
  8
DEFAULT
 62
     5
 10
-18.77092045125331
 20
71.52781781012898
 30
0.0
 42
-0.2276229810650715
  0
VERTEX
  5
1DC
  8
DEFAULT
 62
     5
 10
-19.26744817604838
 20
70.49656761585902
 30
0.0
 42
-0.1809722242825293
  0
VERTEX
  5
1DD
  8
DEFAULT
 62
     5
 10
-20.7367764117381
 20
70.06543327712569
 30
0.0
 42
-0.1534212868271863
  0
VERTEX
  5
1DE
  8
DEFAULT
 62
     5
 10
-22.13463562748088
 20
70.42422967938742
 30
0.0
 42
-0.1853542620166187
  0
SEQEND
  5
1DF
  8
DEFAULT
 62
     5
  0
POLYLINE
  5
1E0
  8
DEFAULT
 62
     5
 66
     1
 10
0.0
 20
0.0
 30
0.0
 70
     1
  0
VERTEX
  5
1E1
  8
DEFAULT
 62
     5
 10
-24.73388341421628
 20
72.25061846231088
 30
0.0
  0
VERTEX
  5
1E2
  8
DEFAULT
 62
     5
 10
-25.40228593591093
 20
72.07527139020635
 30
0.0
  0
VERTEX
  5
1E3
  8
DEFAULT
 62
     5
 10
-26.00008665873645
 20
71.87561895681623
 30
0.0
 42
0.251719188348609
  0
VERTEX
  5
1E4
  8
DEFAULT
 62
     5
 10
-26.21536489569776
 20
71.47168382461375
 30
0.0
 42
0.4298150945545105
  0
VERTEX
  5
1E5
  8
DEFAULT
 62
     5
 10
-25.60541092708048
 20
70.88024809194053
 30
0.0
 42
0.1670482644845616
  0
VERTEX
  5
1E6
  8
DEFAULT
 62
     5
 10
-25.03885983337596
 20
71.0839520782187
 30
0.0
 42
0.1651612454991477
  0
VERTEX
  5
1E7
  8
DEFAULT
 62
     5
 10
-24.77670701144591
 20
71.46358184913556
 30
0.0
  0
VERTEX
  5
1E8
  8
DEFAULT
 62
     5
 10
-24.73388341421628
 20
72.0220309673619
 30
0.0
  0
SEQEND
  5
1E9
  8
DEFAULT
 62
     5
  0
POLYLINE
  5
1EA
  8
DEFAULT
 62
     5
 66
     1
 10
0.0
 20
0.0
 30
0.0
 70
     1
  0
VERTEX
  5
1EB
  8
DEFAULT
 62
     5
 10
-26.17832785866072
 20
73.1765443882368
 30
0.0
  0
VERTEX
  5
1EC
  8
DEFAULT
 62
     5
 10
-27.21536489569775
 20
73.32469253638496
 30
0.0
 42
-0.1714833175990167
  0
VERTEX
  5
1ED
  8
DEFAULT
 62
     5
 10
-26.62306137679776
 20
74.30328073777014
 30
0.0
 42
-0.1608829132837488
  0
VERTEX
  5
1EE
  8
DEFAULT
 62
     5
 10
-25.37450801684591
 20
74.62098883268125
 30
0.0
 42
-0.1088364278880641
  0
VERTEX
  5
1EF
  8
DEFAULT
 62
     5
 10
-24.25413778776278
 20
74.43898656643393
 30
0.0
 42
-0.1580303644335328
  0
VERTEX
  5
1F0
  8
DEFAULT
 62
     5
 10
-23.73590862551134
 20
73.97660231600511
 30
0.0
 42
-0.1088017057953455
  0
VERTEX
  5
1F1
  8
DEFAULT
 62
     5
 10
-23.58573526606812
 20
72.94737818075367
 30
0.0
  0
VERTEX
  5
1F2
  8
DEFAULT
 62
     5
 10
-23.58573526606813
 20
71.60478544687383
 30
0.0
  0
VERTEX
  5
1F3
  8
DEFAULT
 62
     5
 10
-23.52323516010269
 20
70.7595885065903
 30
0.0
  0
VERTEX
  5
1F4
  8
DEFAULT
 62
     5
 10
-23.28943896977183
 20
70.1765443882368
 30
0.0
  0
VERTEX
  5
1F5
  8
DEFAULT
 62
     5
 10
-24.43758711791998
 20
70.1765443882368
 30
0.0
  0
VERTEX
  5
1F6
  8
DEFAULT
 62
     5
 10
-24.54754080396278
 20
70.51219257170676
 30
0.0
  0
VERTEX
  5
1F7
  8
DEFAULT
 62
     5
 10
-24.5880495510558
 20
70.64587347164998
 30
0.0
 42
-0.0933244186738162
  0
VERTEX
  5
1F8
  8
DEFAULT
 62
     5
 10
-25.2147861831636
 20
70.21068814517754
 30
0.0
 42
-0.1040133466925884
  0
VERTEX
  5
1F9
  8
DEFAULT
 62
     5
 10
-25.92717000973069
 20
70.0654332771257
 30
0.0
 42
-0.196543035759651
  0
VERTEX
  5
1FA
  8
DEFAULT
 62
     5
 10
-26.97896421638871
 20
70.42857002339358
 30
0.0
 42
-0.215436948765117
  0
VERTEX
  5
1FB
  8
DEFAULT
 62
     5
 10
-27.36351304384591
 20
71.3466836126829
 30
0.0
 42
-0.137378024802449
  0
VERTEX
  5
1FC
  8
DEFAULT
 62
     5
 10
-27.19221667690598
 20
72.00177602866643
 30
0.0
 42
-0.1473783213971128
  0
VERTEX
  5
1FD
  8
DEFAULT
 62
     5
 10
-26.71218169418541
 20
72.44245884163887
 30
0.0
 42
-0.0634404934847191
  0
VERTEX
  5
1FE
  8
DEFAULT
 62
     5
 10
-25.82184602396114
 20
72.70953072010923
 30
0.0
 42
0.0472009877729071
  0
VERTEX
  5
1FF
  8
DEFAULT
 62
     5
 10
-24.73388341421628
 20
72.99135920305162
 30
0.0
  0
VERTEX
  5
200
  8
DEFAULT
 62
     5
 10
-24.73388341421627
 20
73.10767872697014
 30
0.0
 42
0.2070921599656193
  0
VERTEX
  5
201
  8
DEFAULT
 62
     5
 10
-24.88752904886443
 20
73.58858149591747
 30
0.0
 42
0.1777887432707939
  0
VERTEX
  5
202
  8
DEFAULT
 62
     5
 10
-25.46767960454714
 20
73.73209994379236
 30
0.0
 42
0.1651091138038857
  0
VERTEX
  5
203
  8
DEFAULT
 62
     5
 10
-25.91704282295743
 20
73.60883615203845
 30
0.0
 42
0.1491587679877849
  0
SEQEND
  5
204
  8
DEFAULT
 62
     5
  0
POLYLINE
  5
205
  8
DEFAULT
 62
     5
 66
     1
 10
0.0
 20
0.0
 30
0.0
 70
     1
  0
VERTEX
  5
206
  8
DEFAULT
 62
     5
 10
-31.21536489569776
 20
72.42365124942775
 30
0.0
 42
0.1276841436789394
  0
VERTEX
  5
207
  8
DEFAULT
 62
     5
 10
-31.02670743530764
 20
71.40860472353968
 30
0.0
 42
0.282075680087873
  0
VERTEX
  5
208
  8
DEFAULT
 62
     5
 10
-30.26281819320064
 20
70.95432216601458
 30
0.0
 42
0.2392668132723546
  0
VERTEX
  5
209
  8
DEFAULT
 62
     5
 10
-29.5996240843134
 20
71.29488940602486
 30
0.0
 42
0.1689742320291394
  0
VERTEX
  5
20A
  8
DEFAULT
 62
     5
 10
-29.32647600680886
 20
72.31254013831663
 30
0.0
 42
0.1638068512632577
  0
VERTEX
  5
20B
  8
DEFAULT
 62
     5
 10
-29.59181146510229
 20
73.39992403552733
 30
0.0
 42
0.4979191279739625
  0
VERTEX
  5
20C
  8
DEFAULT
 62
     5
 10
-30.9439526732212
 20
73.40397502326644
 30
0.0
 42
0.1734205701458589
  0
SEQEND
  5
20D
  8
DEFAULT
 62
     5
  0
POLYLINE
  5
20E
  8
DEFAULT
 62
     5
 66
     1
 10
0.0
 20
0.0
 30
0.0
 70
     1
  0
VERTEX
  5
20F
  8
DEFAULT
 62
     5
 10
-28.17832785866072
 20
70.1765443882368
 30
0.0
  0
VERTEX
  5
210
  8
DEFAULT
 62
     5
 10
-29.25240193273479
 20
70.1765443882368
 30
0.0
  0
VERTEX
  5
211
  8
DEFAULT
 62
     5
 10
-29.25240193273479
 20
70.80848886800307
 30
0.0
 42
-0.1195257890911386
  0
VERTEX
  5
212
  8
DEFAULT
 62
     5
 10
-29.86785282270312
 20
70.25264395618044
 30
0.0
 42
-0.1234715217774317
  0
VERTEX
  5
213
  8
DEFAULT
 62
     5
 10
-30.5834204159315
 20
70.06543327712569
 30
0.0
 42
-0.2283648896821323
  0
VERTEX
  5
214
  8
DEFAULT
 62
     5
 10
-31.84036482505412
 20
70.67075754546974
 30
0.0
 42
-0.1826315182993505
  0
VERTEX
  5
215
  8
DEFAULT
 62
     5
 10
-32.3635130438459
 20
72.35941528843432
 30
0.0
 42
-0.1842914998158201
  0
VERTEX
  5
216
  8
DEFAULT
 62
     5
 10
-31.85338557449818
 20
74.04431083477795
 30
0.0
 42
-0.2252478569575025
  0
VERTEX
  5
217
  8
DEFAULT
 62
     5
 10
-30.56374418977019
 20
74.62098883268126
 30
0.0
 42
-0.2270824258515749
  0
VERTEX
  5
218
  8
DEFAULT
 62
     5
 10
-29.32647600680887
 20
74.02145225482774
 30
0.0
  0
VERTEX
  5
219
  8
DEFAULT
 62
     5
 10
-29.32647600680887
 20
76.13950735119977
 30
0.0
  0
VERTEX
  5
21A
  8
DEFAULT
 62
     5
 10
-28.17832785866072
 20
76.13950735119977
 30
0.0
  0
SEQEND
  5
21B
  8
DEFAULT
 62
     5
  0
POLYLINE
  5
21C
  8
DEFAULT
 62
     5
 66
     1
 10
0.0
 20
0.0
 30
0.0
 70
     1
  0
VERTEX
  5
21D
  8
DEFAULT
 62
     5
 10
-34.17832785866072
 20
70.1765443882368
 30
0.0
  0
VERTEX
  5
21E
  8
DEFAULT
 62
     5
 10
-35.32647600680887
 20
70.1765443882368
 30
0.0
  0
VERTEX
  5
21F
  8
DEFAULT
 62
     5
 10
-35.32647600680887
 20
74.50987772157013
 30
0.0
  0
VERTEX
  5
220
  8
DEFAULT
 62
     5
 10
-34.25240193273479
 20
74.50987772157013
 30
0.0
  0
VERTEX
  5
221
  8
DEFAULT
 62
     5
 10
-34.2524019327348
 20
73.89818818049936
 30
0.0
 42
-0.097755051946075
  0
VERTEX
  5
222
  8
DEFAULT
 62
     5
 10
-33.7819157068278
 20
74.47631295973804
 30
0.0
 42
-0.1561720185079356
  0
VERTEX
  5
223
  8
DEFAULT
 62
     5
 10
-33.30795720571587
 20
74.62098883268123
 30
0.0
 42
-0.1438170981369943
  0
VERTEX
  5
224
  8
DEFAULT
 62
     5
 10
-32.58573526606813
 20
74.40281759819813
 30
0.0
  0
VERTEX
  5
225
  8
DEFAULT
 62
     5
 10
-32.93758683534551
 20
73.39760975053967
 30
0.0
 42
0.1496770151887546
  0
VERTEX
  5
226
  8
DEFAULT
 62
     5
 10
-33.44916080345414
 20
73.58395179564421
 30
0.0
 42
0.181097099486728
  0
VERTEX
  5
227
  8
DEFAULT
 62
     5
 10
-33.8371816235418
 20
73.4511395296512
 30
0.0
 42
0.1501348396488174
  0
VERTEX
  5
228
  8
DEFAULT
 62
     5
 10
-34.08718176482903
 20
72.97110482950511
 30
0.0
 42
0.0509111359642071
  0
VERTEX
  5
229
  8
DEFAULT
 62
     5
 10
-34.17832785866072
 20
71.51682227198002
 30
0.0
  0
SEQEND
  5
22A
  8
DEFAULT
 62
     5
  0
POLYLINE
  5
22B
  8
DEFAULT
 62
     5
 66
     1
 10
0.0
 20
0.0
 30
0.0
 70
     1
  0
VERTEX
  5
22C
  8
DEFAULT
 62
     5
 10
-37.3635130438459
 20
72.73209994379236
 30
0.0
 42
0.1931771868552394
  0
VERTEX
  5
22D
  8
DEFAULT
 62
     5
 10
-37.62711236453686
 20
73.47718102853928
 30
0.0
 42
0.4344367687048224
  0
VERTEX
  5
22E
  8
DEFAULT
 62
     5
 10
-38.87392958688624
 20
73.4630031366014
 30
0.0
 42
0.1974850402976649
  0
VERTEX
  5
22F
  8
DEFAULT
 62
     5
 10
-39.12103588292821
 20
72.73209994379236
 30
0.0
  0
SEQEND
  5
230
  8
DEFAULT
 62
     5
  0
POLYLINE
  5
231
  8
DEFAULT
 62
     5
 66
     1
 10
0.0
 20
0.0
 30
0.0
 70
     1
  0
VERTEX
  5
232
  8
DEFAULT
 62
     5
 10
-37.43758711791997
 20
71.54691475860717
 30
0.0
  0
VERTEX
  5
233
  8
DEFAULT
 62
     5
 10
-36.28943896977183
 20
71.39876661045905
 30
0.0
 42
-0.1601948643917494
  0
VERTEX
  5
234
  8
DEFAULT
 62
     5
 10
-36.98735554813397
 20
70.40628987340304
 30
0.0
 42
-0.1590209405814349
  0
VERTEX
  5
235
  8
DEFAULT
 62
     5
 10
-38.18122085618254
 20
70.06543327712569
 30
0.0
 42
-0.2510606897924255
  0
VERTEX
  5
236
  8
DEFAULT
 62
     5
 10
-39.85946177353235
 20
70.80848886800307
 30
0.0
 42
-0.1603231689598276
  0
VERTEX
  5
237
  8
DEFAULT
 62
     5
 10
-40.28943896977183
 20
72.31022528818
 30
0.0
 42
-0.1928988919450657
  0
VERTEX
  5
238
  8
DEFAULT
 62
     5
 10
-39.72259851980023
 20
74.00756315400798
 30
0.0
 42
-0.218695711049942
  0
VERTEX
  5
239
  8
DEFAULT
 62
     5
 10
-38.28943896977183
 20
74.62098883268125
 30
0.0
 42
-0.2248762650829953
  0
VERTEX
  5
23A
  8
DEFAULT
 62
     5
 10
-36.75355907522862
 20
73.98296815388083
 30
0.0
 42
-0.1866850592647476
  0
VERTEX
  5
23B
  8
DEFAULT
 62
     5
 10
-36.21536489569776
 20
72.02839624008865
 30
0.0
  0
VERTEX
  5
23C
  8
DEFAULT
 62
     5
 10
-39.14129082162368
 20
72.02839624008865
 30
0.0
 42
0.1907233177561418
  0
VERTEX
  5
23D
  8
DEFAULT
 62
     5
 10
-38.85801499219695
 20
71.23701900033268
 30
0.0
 42
0.2135192120775141
  0
VERTEX
  5
23E
  8
DEFAULT
 62
     5
 10
-38.18295699378501
 20
70.95432216601458
 30
0.0
 42
0.1657236937100931
  0
VERTEX
  5
23F
  8
DEFAULT
 62
     5
 10
-37.72086238219775
 20
71.0946579775261
 30
0.0
 42
0.1589948514629543
  0
SEQEND
  5
240
  8
DEFAULT
 62
     5
  0
POLYLINE
  5
241
  8
DEFAULT
 62
     5
 66
     1
 10
0.0
 20
0.0
 30
0.0
 70
     1
  0
VERTEX
  5
242
  8
DEFAULT
 62
     5
 10
-43.88203156236442
 20
72.42365124942775
 30
0.0
 42
0.1375284068188254
  0
VERTEX
  5
243
  8
DEFAULT
 62
     5
 10
-43.67311916327883
 20
71.41670669901787
 30
0.0
 42
0.2740108968145668
  0
VERTEX
  5
244
  8
DEFAULT
 62
     5
 10
-42.89360524789858
 20
70.95432216601458
 30
0.0
 42
0.2391215062966446
  0
VERTEX
  5
245
  8
DEFAULT
 62
     5
 10
-42.25645263789941
 20
71.28244736911499
 30
0.0
 42
0.1664742695867961
  0
VERTEX
  5
246
  8
DEFAULT
 62
     5
 10
-41.99314267347555
 20
72.31659112605573
 30
0.0
 42
0.1640109831052097
  0
VERTEX
  5
247
  8
DEFAULT
 62
     5
 10
-42.25847813176895
 20
73.39992403552733
 30
0.0
 42
0.4960567659548439
  0
VERTEX
  5
248
  8
DEFAULT
 62
     5
 10
-43.61264483375744
 20
73.40802601100553
 30
0.0
 42
0.1733692477042041
  0
SEQEND
  5
249
  8
DEFAULT
 62
     5
  0
POLYLINE
  5
24A
  8
DEFAULT
 62
     5
 66
     1
 10
0.0
 20
0.0
 30
0.0
 70
     1
  0
VERTEX
  5
24B
  8
DEFAULT
 62
     5
 10
-45.03017971051257
 20
70.1765443882368
 30
0.0
  0
VERTEX
  5
24C
  8
DEFAULT
 62
     5
 10
-45.03017971051257
 20
76.13950735119977
 30
0.0
  0
VERTEX
  5
24D
  8
DEFAULT
 62
     5
 10
-43.88203156236442
 20
76.13950735119977
 30
0.0
  0
VERTEX
  5
24E
  8
DEFAULT
 62
     5
 10
-43.88203156236442
 20
74.02145225482772
 30
0.0
 42
-0.2270822596883027
  0
VERTEX
  5
24F
  8
DEFAULT
 62
     5
 10
-42.64476281425414
 20
74.62098883268125
 30
0.0
 42
-0.225247939335136
  0
VERTEX
  5
250
  8
DEFAULT
 62
     5
 10
-41.35512171210063
 20
74.04431083477795
 30
0.0
 42
-0.1849988564296061
  0
VERTEX
  5
251
  8
DEFAULT
 62
     5
 10
-40.8449945253274
 20
72.38835034999317
 30
0.0
 42
-0.1811789010422571
  0
VERTEX
  5
252
  8
DEFAULT
 62
     5
 10
-41.36409147380559
 20
70.66873205160019
 30
0.0
 42
-0.2291506328684983
  0
VERTEX
  5
253
  8
DEFAULT
 62
     5
 10
-42.62508658809283
 20
70.0654332771257
 30
0.0
 42
-0.1258590372261092
  0
VERTEX
  5
254
  8
DEFAULT
 62
     5
 10
-43.34470488648584
 20
70.25669494391954
 30
0.0
 42
-0.1164914631293976
  0
VERTEX
  5
255
  8
DEFAULT
 62
     5
 10
-43.95610563643849
 20
70.80848886800307
 30
0.0
  0
VERTEX
  5
256
  8
DEFAULT
 62
     5
 10
-43.95610563643849
 20
70.1765443882368
 30
0.0
  0
SEQEND
  5
257
  8
DEFAULT
 62
     5
  0
POLYLINE
  5
258
  8
DEFAULT
 62
     5
 66
     1
 10
0.0
 20
0.0
 30
0.0
 70
     1
  0
VERTEX
  5
259
  8
DEFAULT
 62
     5
 10
-47.3635130438459
 20
72.25061846231088
 30
0.0
  0
VERTEX
  5
25A
  8
DEFAULT
 62
     5
 10
-48.03191556554056
 20
72.07527139020635
 30
0.0
  0
VERTEX
  5
25B
  8
DEFAULT
 62
     5
 10
-48.62971628836607
 20
71.87561895681621
 30
0.0
 42
0.2517191883486183
  0
VERTEX
  5
25C
  8
DEFAULT
 62
     5
 10
-48.84499452532739
 20
71.47168382461375
 30
0.0
 42
0.4298150945545157
  0
VERTEX
  5
25D
  8
DEFAULT
 62
     5
 10
-48.2350405567101
 20
70.88024809194053
 30
0.0
 42
0.1670482644845703
  0
VERTEX
  5
25E
  8
DEFAULT
 62
     5
 10
-47.66848946300559
 20
71.0839520782187
 30
0.0
 42
0.1651612454991412
  0
VERTEX
  5
25F
  8
DEFAULT
 62
     5
 10
-47.40633664107554
 20
71.46358184913556
 30
0.0
  0
VERTEX
  5
260
  8
DEFAULT
 62
     5
 10
-47.3635130438459
 20
72.0220309673619
 30
0.0
  0
SEQEND
  5
261
  8
DEFAULT
 62
     5
  0
POLYLINE
  5
262
  8
DEFAULT
 62
     5
 66
     1
 10
0.0
 20
0.0
 30
0.0
 70
     1
  0
VERTEX
  5
263
  8
DEFAULT
 62
     5
 10
-48.80795748829035
 20
73.1765443882368
 30
0.0
  0
VERTEX
  5
264
  8
DEFAULT
 62
     5
 10
-49.84499452532739
 20
73.32469253638496
 30
0.0
 42
-0.1714833175990184
  0
VERTEX
  5
265
  8
DEFAULT
 62
     5
 10
-49.25269100642739
 20
74.30328073777014
 30
0.0
 42
-0.1608829132837532
  0
VERTEX
  5
266
  8
DEFAULT
 62
     5
 10
-48.00413764647554
 20
74.62098883268125
 30
0.0
 42
-0.1088364278880701
  0
VERTEX
  5
267
  8
DEFAULT
 62
     5
 10
-46.88376741739241
 20
74.43898656643393
 30
0.0
 42
-0.1580303644335339
  0
VERTEX
  5
268
  8
DEFAULT
 62
     5
 10
-46.36553825514096
 20
73.97660231600511
 30
0.0
 42
-0.1088017057953455
  0
VERTEX
  5
269
  8
DEFAULT
 62
     5
 10
-46.21536489569775
 20
72.94737818075367
 30
0.0
  0
VERTEX
  5
26A
  8
DEFAULT
 62
     5
 10
-46.21536489569775
 20
71.60478544687383
 30
0.0
  0
VERTEX
  5
26B
  8
DEFAULT
 62
     5
 10
-46.15286478973233
 20
70.7595885065903
 30
0.0
  0
VERTEX
  5
26C
  8
DEFAULT
 62
     5
 10
-45.91906859940146
 20
70.1765443882368
 30
0.0
  0
VERTEX
  5
26D
  8
DEFAULT
 62
     5
 10
-47.06721674754961
 20
70.1765443882368
 30
0.0
  0
VERTEX
  5
26E
  8
DEFAULT
 62
     5
 10
-47.17717043359241
 20
70.51219257170676
 30
0.0
  0
VERTEX
  5
26F
  8
DEFAULT
 62
     5
 10
-47.21767918068543
 20
70.64587347164996
 30
0.0
 42
-0.0933244186738111
  0
VERTEX
  5
270
  8
DEFAULT
 62
     5
 10
-47.84441581279323
 20
70.21068814517754
 30
0.0
 42
-0.1040133466925893
  0
VERTEX
  5
271
  8
DEFAULT
 62
     5
 10
-48.55679963936031
 20
70.06543327712569
 30
0.0
 42
-0.1965430357596526
  0
VERTEX
  5
272
  8
DEFAULT
 62
     5
 10
-49.60859384601834
 20
70.42857002339358
 30
0.0
 42
-0.2154369487651218
  0
VERTEX
  5
273
  8
DEFAULT
 62
     5
 10
-49.99314267347554
 20
71.3466836126829
 30
0.0
 42
-0.1373780248024435
  0
VERTEX
  5
274
  8
DEFAULT
 62
     5
 10
-49.82184630653562
 20
72.00177602866643
 30
0.0
 42
-0.1473783213971133
  0
VERTEX
  5
275
  8
DEFAULT
 62
     5
 10
-49.34181132381504
 20
72.44245884163888
 30
0.0
 42
-0.0634404934847081
  0
VERTEX
  5
276
  8
DEFAULT
 62
     5
 10
-48.45147565359077
 20
72.70953072010921
 30
0.0
 42
0.0472009877729027
  0
VERTEX
  5
277
  8
DEFAULT
 62
     5
 10
-47.3635130438459
 20
72.99135920305162
 30
0.0
  0
VERTEX
  5
278
  8
DEFAULT
 62
     5
 10
-47.36351304384589
 20
73.10767872697014
 30
0.0
 42
0.20709215996562
  0
VERTEX
  5
279
  8
DEFAULT
 62
     5
 10
-47.51715867849406
 20
73.58858149591748
 30
0.0
 42
0.1777887432707768
  0
VERTEX
  5
27A
  8
DEFAULT
 62
     5
 10
-48.09730923417677
 20
73.73209994379236
 30
0.0
 42
0.165109113803876
  0
VERTEX
  5
27B
  8
DEFAULT
 62
     5
 10
-48.54667245258706
 20
73.60883615203844
 30
0.0
 42
0.1491587679877754
  0
SEQEND
  5
27C
  8
DEFAULT
 62
     5
  0
POLYLINE
  5
27D
  8
DEFAULT
 62
     5
 66
     1
 10
0.0
 20
0.0
 30
0.0
 70
     1
  0
VERTEX
  5
27E
  8
DEFAULT
 62
     5
 10
-55.6598093401422
 20
70.1765443882368
 30
0.0
  0
VERTEX
  5
27F
  8
DEFAULT
 62
     5
 10
-55.6598093401422
 20
76.13950735119977
 30
0.0
  0
VERTEX
  5
280
  8
DEFAULT
 62
     5
 10
-54.43758711791997
 20
76.13950735119977
 30
0.0
  0
VERTEX
  5
281
  8
DEFAULT
 62
     5
 10
-54.43758711791997
 20
73.80617401786644
 30
0.0
  0
VERTEX
  5
282
  8
DEFAULT
 62
     5
 10
-52.06721674754961
 20
73.80617401786644
 30
0.0
  0
VERTEX
  5
283
  8
DEFAULT
 62
     5
 10
-52.06721674754961
 20
76.13950735119977
 30
0.0
  0
VERTEX
  5
284
  8
DEFAULT
 62
     5
 10
-50.84499452532739
 20
76.13950735119977
 30
0.0
  0
VERTEX
  5
285
  8
DEFAULT
 62
     5
 10
-50.84499452532739
 20
70.1765443882368
 30
0.0
  0
VERTEX
  5
286
  8
DEFAULT
 62
     5
 10
-52.06721674754961
 20
70.1765443882368
 30
0.0
  0
VERTEX
  5
287
  8
DEFAULT
 62
     5
 10
-52.06721674754961
 20
72.80617401786644
 30
0.0
  0
VERTEX
  5
288
  8
DEFAULT
 62
     5
 10
-54.43758711791997
 20
72.80617401786644
 30
0.0
  0
VERTEX
  5
289
  8
DEFAULT
 62
     5
 10
-54.43758711791997
 20
70.1765443882368
 30
0.0
  0
SEQEND
  5
28A
  8
DEFAULT
 62
     5
  0
POLYLINE
  5
28B
  8
DEFAULT
 62
     5
 66
     1
 10
0.0
 20
0.0
 30
0.0
 70
     1
  0
VERTEX
  5
28C
  8
DEFAULT
 62
     5
 10
51.67085806553265
 20
84.20278210885643
 30
0.0
  0
VERTEX
  5
28D
  8
DEFAULT
 62
     5
 10
52.70789510256969
 20
84.20278210885643
 30
0.0
  0
VERTEX
  5
28E
  8
DEFAULT
 62
     5
 10
52.70789510256969
 20
83.61539792907124
 30
0.0
 42
-0.2373869490350023
  0
VERTEX
  5
28F
  8
DEFAULT
 62
     5
 10
54.05569624925692
 20
84.31389321996753
 30
0.0
 42
-0.1315120310734763
  0
VERTEX
  5
290
  8
DEFAULT
 62
     5
 10
54.77589297760959
 20
84.14028228546547
 30
0.0
 42
-0.1393853272245233
  0
VERTEX
  5
291
  8
DEFAULT
 62
     5
 10
55.27676104641083
 20
83.61539792907124
 30
0.0
 42
-0.1018343532166059
  0
VERTEX
  5
292
  8
DEFAULT
 62
     5
 10
55.88960829512441
 20
84.14028228546547
 30
0.0
 42
-0.1239296679571273
  0
VERTEX
  5
293
  8
DEFAULT
 62
     5
 10
56.59157614380012
 20
84.31389321996754
 30
0.0
 42
-0.1355305589141708
  0
VERTEX
  5
294
  8
DEFAULT
 62
     5
 10
57.39539542046597
 20
84.11944891681034
 30
0.0
 42
-0.1623661969580467
  0
VERTEX
  5
295
  8
DEFAULT
 62
     5
 10
57.88671501502812
 20
83.5488471179412
 30
0.0
 42
-0.0915442810314392
  0
VERTEX
  5
296
  8
DEFAULT
 62
     5
 10
58.00419139886597
 20
82.64838397836918
 30
0.0
  0
VERTEX
  5
297
  8
DEFAULT
 62
     5
 10
58.00419139886598
 20
79.8694487755231
 30
0.0
  0
VERTEX
  5
298
  8
DEFAULT
 62
     5
 10
56.85604325071782
 20
79.8694487755231
 30
0.0
  0
VERTEX
  5
299
  8
DEFAULT
 62
     5
 10
56.85604325071782
 20
82.3474585469486
 30
0.0
 42
0.1141470137910682
  0
VERTEX
  5
29A
  8
DEFAULT
 62
     5
 10
56.73914557941411
 20
83.18021288517329
 30
0.0
 42
0.2721000606533791
  0
VERTEX
  5
29B
  8
DEFAULT
 62
     5
 10
56.25477053526185
 20
83.42500433107865
 30
0.0
 42
0.1575639071466866
  0
VERTEX
  5
29C
  8
DEFAULT
 62
     5
 10
55.80714288930508
 20
83.27801360799882
 30
0.0
 42
0.1657627374474255
  0
VERTEX
  5
29D
  8
DEFAULT
 62
     5
 10
55.50448075513304
 20
82.84745826437414
 30
0.0
 42
0.0723437487254833
  0
VERTEX
  5
29E
  8
DEFAULT
 62
     5
 10
55.41159880627338
 20
81.95162482507536
 30
0.0
  0
VERTEX
  5
29F
  8
DEFAULT
 62
     5
 10
55.41159880627338
 20
79.8694487755231
 30
0.0
  0
VERTEX
  5
2A0
  8
DEFAULT
 62
     5
 10
54.26345065812524
 20
79.8694487755231
 30
0.0
  0
VERTEX
  5
2A1
  8
DEFAULT
 62
     5
 10
54.26345065812524
 20
82.24502755870087
 30
0.0
  0
VERTEX
  5
2A2
  8
DEFAULT
 62
     5
 10
54.203555041138
 20
83.06186786738523
 30
0.0
 42
0.1633931196985227
  0
VERTEX
  5
2A3
  8
DEFAULT
 62
     5
 10
54.01750206972605
 20
83.33530530115682
 30
0.0
 42
0.156121801429668
  0
VERTEX
  5
2A4
  8
DEFAULT
 62
     5
 10
53.6754877658059
 20
83.42500433107864
 30
0.0
 42
0.1551837175468108
  0
VERTEX
  5
2A5
  8
DEFAULT
 62
     5
 10
53.20702731634293
 20
83.2820645957379
 30
0.0
 42
0.1670025847935274
  0
VERTEX
  5
2A6
  8
DEFAULT
 62
     5
 10
52.90899488244416
 20
82.86973841436466
 30
0.0
 42
0.0722698594962726
  0
VERTEX
  5
2A7
  8
DEFAULT
 62
     5
 10
52.81900621368079
 20
81.97593075150992
 30
0.0
  0
VERTEX
  5
2A8
  8
DEFAULT
 62
     5
 10
52.81900621368079
 20
79.8694487755231
 30
0.0
  0
VERTEX
  5
2A9
  8
DEFAULT
 62
     5
 10
51.67085806553265
 20
79.8694487755231
 30
0.0
  0
SEQEND
  5
2AA
  8
DEFAULT
 62
     5
  0
POLYLINE
  5
2AB
  8
DEFAULT
 62
     5
 66
     1
 10
0.0
 20
0.0
 30
0.0
 70
     1
  0
VERTEX
  5
2AC
  8
DEFAULT
 62
     5
 10
47.59678399145857
 20
82.03611572476424
 30
0.0
 42
0.1807696907208248
  0
VERTEX
  5
2AD
  8
DEFAULT
 62
     5
 10
47.89655256295979
 20
81.03264344955929
 30
0.0
 42
0.4777036397637545
  0
VERTEX
  5
2AE
  8
DEFAULT
 62
     5
 10
49.37311527047543
 20
81.0326434495593
 30
0.0
 42
0.1794408075869741
  0
VERTEX
  5
2AF
  8
DEFAULT
 62
     5
 10
49.67085806553266
 20
82.04421770024243
 30
0.0
 42
0.1800932450793867
  0
VERTEX
  5
2B0
  8
DEFAULT
 62
     5
 10
49.37311527047543
 20
83.0395877173947
 30
0.0
 42
0.4793729384846822
  0
VERTEX
  5
2B1
  8
DEFAULT
 62
     5
 10
47.89655256295981
 20
83.0395877173947
 30
0.0
 42
0.1807697890868451
  0
SEQEND
  5
2B2
  8
DEFAULT
 62
     5
  0
POLYLINE
  5
2B3
  8
DEFAULT
 62
     5
 66
     1
 10
0.0
 20
0.0
 30
0.0
 70
     1
  0
VERTEX
  5
2B4
  8
DEFAULT
 62
     5
 10
46.44863584331042
 20
82.09745812308688
 30
0.0
 42
-0.122257429183275
  0
VERTEX
  5
2B5
  8
DEFAULT
 62
     5
 10
46.72843911495776
 20
83.20972694184078
 30
0.0
 42
-0.1509199207836058
  0
VERTEX
  5
2B6
  8
DEFAULT
 62
     5
 10
47.52126341862358
 20
84.03061795568976
 30
0.0
 42
-0.1287246067144223
  0
VERTEX
  5
2B7
  8
DEFAULT
 62
     5
 10
48.66680764294251
 20
84.31389321996754
 30
0.0
 42
-0.2109274079128284
  0
VERTEX
  5
2B8
  8
DEFAULT
 62
     5
 10
50.26865907093265
 20
83.67153219716096
 30
0.0
 42
-0.2026212639801761
  0
VERTEX
  5
2B9
  8
DEFAULT
 62
     5
 10
50.89308028775486
 20
82.04826868798152
 30
0.0
 42
-0.202229597332328
  0
VERTEX
  5
2BA
  8
DEFAULT
 62
     5
 10
50.26258287189849
 20
80.40880066269675
 30
0.0
 42
-0.2115506096601014
  0
VERTEX
  5
2BB
  8
DEFAULT
 62
     5
 10
48.67490905327174
 20
79.75833766441198
 30
0.0
 42
-0.1188796278362258
  0
VERTEX
  5
2BC
  8
DEFAULT
 62
     5
 10
47.54556877990918
 20
80.02917117435437
 30
0.0
 42
-0.1582355798320248
  0
VERTEX
  5
2BD
  8
DEFAULT
 62
     5
 10
46.72843911495775
 20
80.8234422593556
 30
0.0
 42
-0.1239053267140336
  0
SEQEND
  5
2BE
  8
DEFAULT
 62
     5
  0
POLYLINE
  5
2BF
  8
DEFAULT
 62
     5
 66
     1
 10
0.0
 20
0.0
 30
0.0
 70
     1
  0
VERTEX
  5
2C0
  8
DEFAULT
 62
     5
 10
45.81900621368079
 20
82.94352284959717
 30
0.0
  0
VERTEX
  5
2C1
  8
DEFAULT
 62
     5
 10
44.67085806553266
 20
82.75833766441198
 30
0.0
 42
0.1809968098175161
  0
VERTEX
  5
2C2
  8
DEFAULT
 62
     5
 10
44.41449265151865
 20
83.25746987818522
 30
0.0
 42
0.1804760167669756
  0
VERTEX
  5
2C3
  8
DEFAULT
 62
     5
 10
43.89597385042566
 20
83.42500433107865
 30
0.0
 42
0.2329674834671235
  0
VERTEX
  5
2C4
  8
DEFAULT
 62
     5
 10
43.21946935325281
 20
83.12407861708358
 30
0.0
 42
0.1695179555120368
  0
VERTEX
  5
2C5
  8
DEFAULT
 62
     5
 10
42.96715436182895
 20
82.11713434924819
 30
0.0
 42
0.1610966817174971
  0
VERTEX
  5
2C6
  8
DEFAULT
 62
     5
 10
43.22554583486144
 20
81.00804844943215
 30
0.0
 42
0.2405540491094307
  0
VERTEX
  5
2C7
  8
DEFAULT
 62
     5
 10
43.91912235179188
 20
80.6842635903379
 30
0.0
 42
0.188345844186953
  0
VERTEX
  5
2C8
  8
DEFAULT
 62
     5
 10
44.45181904482276
 20
80.86771292049512
 30
0.0
 42
0.1622604489947706
  0
VERTEX
  5
2C9
  8
DEFAULT
 62
     5
 10
44.74493213960672
 20
81.49907840515273
 30
0.0
  0
VERTEX
  5
2CA
  8
DEFAULT
 62
     5
 10
45.89308028775485
 20
81.35093025700458
 30
0.0
 42
-0.1724509721436007
  0
VERTEX
  5
2CB
  8
DEFAULT
 62
     5
 10
45.22236291592359
 20
80.16053694158647
 30
0.0
 42
-0.1746967243539424
  0
VERTEX
  5
2CC
  8
DEFAULT
 62
     5
 10
43.89250214036967
 20
79.758337664412
 30
0.0
 42
-0.2163976905724378
  0
VERTEX
  5
2CD
  8
DEFAULT
 62
     5
 10
42.38208503218038
 20
80.36163643888646
 30
0.0
 42
-0.19438705663211
  0
VERTEX
  5
2CE
  8
DEFAULT
 62
     5
 10
41.81900621368077
 20
82.03206473702515
 30
0.0
 42
-0.1945054615972593
  0
VERTEX
  5
2CF
  8
DEFAULT
 62
     5
 10
42.3817956759133
 20
83.7126202219371
 30
0.0
 42
-0.2157801631579905
  0
VERTEX
  5
2D0
  8
DEFAULT
 62
     5
 10
43.90407582590384
 20
84.31389321996754
 30
0.0
 42
-0.1599423076957883
  0
VERTEX
  5
2D1
  8
DEFAULT
 62
     5
 10
45.15291854212276
 20
83.97535175640128
 30
0.0
 42
-0.1682635697126552
  0
SEQEND
  5
2D2
  8
DEFAULT
 62
     5
  0
POLYLINE
  5
2D3
  8
DEFAULT
 62
     5
 66
     1
 10
0.0
 20
0.0
 30
0.0
 70
     1
  0
VERTEX
  5
2D4
  8
DEFAULT
 62
     5
 10
39.74493213960672
 20
79.8694487755231
 30
0.0
  0
VERTEX
  5
2D5
  8
DEFAULT
 62
     5
 10
39.74493213960672
 20
81.01759692367125
 30
0.0
  0
VERTEX
  5
2D6
  8
DEFAULT
 62
     5
 10
40.89308028775486
 20
81.01759692367125
 30
0.0
  0
VERTEX
  5
2D7
  8
DEFAULT
 62
     5
 10
40.89308028775486
 20
79.8694487755231
 30
0.0
  0
SEQEND
  5
2D8
  8
DEFAULT
 62
     5
  0
POLYLINE
  5
2D9
  8
DEFAULT
 62
     5
 66
     1
 10
0.0
 20
0.0
 30
0.0
 70
     1
  0
VERTEX
  5
2DA
  8
DEFAULT
 62
     5
 10
37.74493213960672
 20
82.42500433107865
 30
0.0
 42
0.1931771868552357
  0
VERTEX
  5
2DB
  8
DEFAULT
 62
     5
 10
37.48133281891577
 20
83.17008541582557
 30
0.0
 42
0.4344367687048224
  0
VERTEX
  5
2DC
  8
DEFAULT
 62
     5
 10
36.2345155965664
 20
83.15590752388768
 30
0.0
 42
0.1974850402976749
  0
VERTEX
  5
2DD
  8
DEFAULT
 62
     5
 10
35.98740930052442
 20
82.42500433107865
 30
0.0
  0
SEQEND
  5
2DE
  8
DEFAULT
 62
     5
  0
POLYLINE
  5
2DF
  8
DEFAULT
 62
     5
 66
     1
 10
0.0
 20
0.0
 30
0.0
 70
     1
  0
VERTEX
  5
2E0
  8
DEFAULT
 62
     5
 10
37.67085806553265
 20
81.23981914589346
 30
0.0
  0
VERTEX
  5
2E1
  8
DEFAULT
 62
     5
 10
38.81900621368079
 20
81.09167099774533
 30
0.0
 42
-0.1601948643917488
  0
VERTEX
  5
2E2
  8
DEFAULT
 62
     5
 10
38.12108963531865
 20
80.09919426068934
 30
0.0
 42
-0.159020940581441
  0
VERTEX
  5
2E3
  8
DEFAULT
 62
     5
 10
36.92722432727009
 20
79.75833766441198
 30
0.0
 42
-0.2510606897924232
  0
VERTEX
  5
2E4
  8
DEFAULT
 62
     5
 10
35.24898340992029
 20
80.50139325528936
 30
0.0
 42
-0.1603231689598305
  0
VERTEX
  5
2E5
  8
DEFAULT
 62
     5
 10
34.81900621368078
 20
82.00312967546628
 30
0.0
 42
-0.1928988919450595
  0
VERTEX
  5
2E6
  8
DEFAULT
 62
     5
 10
35.38584666365239
 20
83.70046754129429
 30
0.0
 42
-0.2186957110499389
  0
VERTEX
  5
2E7
  8
DEFAULT
 62
     5
 10
36.81900621368079
 20
84.31389321996754
 30
0.0
 42
-0.2248762650829919
  0
VERTEX
  5
2E8
  8
DEFAULT
 62
     5
 10
38.354886108224
 20
83.67587254116712
 30
0.0
 42
-0.1866850592647389
  0
VERTEX
  5
2E9
  8
DEFAULT
 62
     5
 10
38.89308028775486
 20
81.72130062737494
 30
0.0
  0
VERTEX
  5
2EA
  8
DEFAULT
 62
     5
 10
35.96715436182894
 20
81.72130062737494
 30
0.0
 42
0.1907233177561383
  0
VERTEX
  5
2EB
  8
DEFAULT
 62
     5
 10
36.25043019125567
 20
80.92992338761897
 30
0.0
 42
0.2135192120775246
  0
VERTEX
  5
2EC
  8
DEFAULT
 62
     5
 10
36.92548818966761
 20
80.64722655330087
 30
0.0
 42
0.165723693710085
  0
VERTEX
  5
2ED
  8
DEFAULT
 62
     5
 10
37.38758280125487
 20
80.78756236481237
 30
0.0
 42
0.1589948514629713
  0
SEQEND
  5
2EE
  8
DEFAULT
 62
     5
  0
POLYLINE
  5
2EF
  8
DEFAULT
 62
     5
 66
     1
 10
0.0
 20
0.0
 30
0.0
 70
     1
  0
VERTEX
  5
2F0
  8
DEFAULT
 62
     5
 10
34.26345065812524
 20
82.94352284959717
 30
0.0
  0
VERTEX
  5
2F1
  8
DEFAULT
 62
     5
 10
33.1153025099771
 20
82.75833766441198
 30
0.0
 42
0.1809968098175288
  0
VERTEX
  5
2F2
  8
DEFAULT
 62
     5
 10
32.85893709596309
 20
83.25746987818523
 30
0.0
 42
0.1804760167669621
  0
VERTEX
  5
2F3
  8
DEFAULT
 62
     5
 10
32.3404182948701
 20
83.42500433107865
 30
0.0
 42
0.2329674834671422
  0
VERTEX
  5
2F4
  8
DEFAULT
 62
     5
 10
31.66391379769724
 20
83.12407861708358
 30
0.0
 42
0.169517955512043
  0
VERTEX
  5
2F5
  8
DEFAULT
 62
     5
 10
31.41159880627338
 20
82.11713434924818
 30
0.0
 42
0.1610966817174977
  0
VERTEX
  5
2F6
  8
DEFAULT
 62
     5
 10
31.66999027930589
 20
81.00804844943215
 30
0.0
 42
0.240554049109429
  0
VERTEX
  5
2F7
  8
DEFAULT
 62
     5
 10
32.36356679623633
 20
80.6842635903379
 30
0.0
 42
0.1883458441869787
  0
VERTEX
  5
2F8
  8
DEFAULT
 62
     5
 10
32.8962634892672
 20
80.86771292049511
 30
0.0
 42
0.1622604489947946
  0
VERTEX
  5
2F9
  8
DEFAULT
 62
     5
 10
33.18937658405117
 20
81.49907840515273
 30
0.0
  0
VERTEX
  5
2FA
  8
DEFAULT
 62
     5
 10
34.33752473219931
 20
81.35093025700458
 30
0.0
 42
-0.172450972143605
  0
VERTEX
  5
2FB
  8
DEFAULT
 62
     5
 10
33.66680736036803
 20
80.16053694158647
 30
0.0
 42
-0.17469672435394
  0
VERTEX
  5
2FC
  8
DEFAULT
 62
     5
 10
32.33694658481412
 20
79.75833766441197
 30
0.0
 42
-0.2163976905724374
  0
VERTEX
  5
2FD
  8
DEFAULT
 62
     5
 10
30.82652947662483
 20
80.36163643888646
 30
0.0
 42
-0.1943870566321068
  0
VERTEX
  5
2FE
  8
DEFAULT
 62
     5
 10
30.26345065812524
 20
82.03206473702515
 30
0.0
 42
-0.1945054615972562
  0
VERTEX
  5
2FF
  8
DEFAULT
 62
     5
 10
30.82624012035774
 20
83.71262022193709
 30
0.0
 42
-0.2157801631579869
  0
VERTEX
  5
300
  8
DEFAULT
 62
     5
 10
32.34852027034828
 20
84.31389321996754
 30
0.0
 42
-0.15994230769579
  0
VERTEX
  5
301
  8
DEFAULT
 62
     5
 10
33.59736298656721
 20
83.97535175640128
 30
0.0
 42
-0.1682635697126424
  0
SEQEND
  5
302
  8
DEFAULT
 62
     5
  0
POLYLINE
  5
303
  8
DEFAULT
 62
     5
 66
     1
 10
0.0
 20
0.0
 30
0.0
 70
     1
  0
VERTEX
  5
304
  8
DEFAULT
 62
     5
 10
28.18937658405117
 20
81.94352284959717
 30
0.0
  0
VERTEX
  5
305
  8
DEFAULT
 62
     5
 10
27.52097406235651
 20
81.76817577749264
 30
0.0
  0
VERTEX
  5
306
  8
DEFAULT
 62
     5
 10
26.92317333953099
 20
81.5685233441025
 30
0.0
 42
0.251719188348617
  0
VERTEX
  5
307
  8
DEFAULT
 62
     5
 10
26.70789510256968
 20
81.16458821190004
 30
0.0
 42
0.4298150945544986
  0
VERTEX
  5
308
  8
DEFAULT
 62
     5
 10
27.31784907118696
 20
80.5731524792268
 30
0.0
 42
0.1670482644845595
  0
VERTEX
  5
309
  8
DEFAULT
 62
     5
 10
27.88440016489148
 20
80.77685646550499
 30
0.0
 42
0.1651612454991213
  0
VERTEX
  5
30A
  8
DEFAULT
 62
     5
 10
28.14655298682153
 20
81.15648623642186
 30
0.0
  0
VERTEX
  5
30B
  8
DEFAULT
 62
     5
 10
28.18937658405117
 20
81.71493535464819
 30
0.0
  0
SEQEND
  5
30C
  8
DEFAULT
 62
     5
  0
POLYLINE
  5
30D
  8
DEFAULT
 62
     5
 66
     1
 10
0.0
 20
0.0
 30
0.0
 70
     1
  0
VERTEX
  5
30E
  8
DEFAULT
 62
     5
 10
26.74493213960672
 20
82.8694487755231
 30
0.0
  0
VERTEX
  5
30F
  8
DEFAULT
 62
     5
 10
25.70789510256969
 20
83.01759692367125
 30
0.0
 42
-0.1714833175990174
  0
VERTEX
  5
310
  8
DEFAULT
 62
     5
 10
26.30019862146969
 20
83.99618512505643
 30
0.0
 42
-0.1608829132837457
  0
VERTEX
  5
311
  8
DEFAULT
 62
     5
 10
27.54875198142152
 20
84.31389321996754
 30
0.0
 42
-0.1088364278880655
  0
VERTEX
  5
312
  8
DEFAULT
 62
     5
 10
28.66912221050466
 20
84.13189095372023
 30
0.0
 42
-0.1580303644335342
  0
VERTEX
  5
313
  8
DEFAULT
 62
     5
 10
29.18735137275608
 20
83.6695067032914
 30
0.0
 42
-0.1088017057953527
  0
VERTEX
  5
314
  8
DEFAULT
 62
     5
 10
29.33752473219931
 20
82.64028256803996
 30
0.0
  0
VERTEX
  5
315
  8
DEFAULT
 62
     5
 10
29.33752473219931
 20
81.29768983416012
 30
0.0
  0
VERTEX
  5
316
  8
DEFAULT
 62
     5
 10
29.40002483816475
 20
80.4524928938766
 30
0.0
  0
VERTEX
  5
317
  8
DEFAULT
 62
     5
 10
29.63382102849561
 20
79.8694487755231
 30
0.0
  0
VERTEX
  5
318
  8
DEFAULT
 62
     5
 10
28.48567288034746
 20
79.8694487755231
 30
0.0
  0
VERTEX
  5
319
  8
DEFAULT
 62
     5
 10
28.37571919430466
 20
80.20509695899305
 30
0.0
  0
VERTEX
  5
31A
  8
DEFAULT
 62
     5
 10
28.33521044721164
 20
80.33877785893625
 30
0.0
 42
-0.0933244186738248
  0
VERTEX
  5
31B
  8
DEFAULT
 62
     5
 10
27.70847381510384
 20
79.90359253246382
 30
0.0
 42
-0.1040133466925789
  0
VERTEX
  5
31C
  8
DEFAULT
 62
     5
 10
26.99608998853675
 20
79.75833766441198
 30
0.0
 42
-0.1965430357596589
  0
VERTEX
  5
31D
  8
DEFAULT
 62
     5
 10
25.94429578187873
 20
80.12147441067988
 30
0.0
 42
-0.215436948765128
  0
VERTEX
  5
31E
  8
DEFAULT
 62
     5
 10
25.55974695442152
 20
81.03958799996919
 30
0.0
 42
-0.1373780248024209
  0
VERTEX
  5
31F
  8
DEFAULT
 62
     5
 10
25.73104332136145
 20
81.6946804159527
 30
0.0
 42
-0.1473783213971194
  0
VERTEX
  5
320
  8
DEFAULT
 62
     5
 10
26.21107830408202
 20
82.13536322892514
 30
0.0
 42
-0.0634404934847193
  0
VERTEX
  5
321
  8
DEFAULT
 62
     5
 10
27.1014139743063
 20
82.40243510739552
 30
0.0
 42
0.0472009877729073
  0
VERTEX
  5
322
  8
DEFAULT
 62
     5
 10
28.18937658405117
 20
82.6842635903379
 30
0.0
  0
VERTEX
  5
323
  8
DEFAULT
 62
     5
 10
28.18937658405117
 20
82.80058311425643
 30
0.0
 42
0.2070921599656362
  0
VERTEX
  5
324
  8
DEFAULT
 62
     5
 10
28.03573094940302
 20
83.28148588320376
 30
0.0
 42
0.1777887432707822
  0
VERTEX
  5
325
  8
DEFAULT
 62
     5
 10
27.4555803937203
 20
83.42500433107865
 30
0.0
 42
0.1651091138038958
  0
VERTEX
  5
326
  8
DEFAULT
 62
     5
 10
27.00621717531001
 20
83.30174053932474
 30
0.0
 42
0.1491587679877849
  0
SEQEND
  5
327
  8
DEFAULT
 62
     5
  0
POLYLINE
  5
328
  8
DEFAULT
 62
     5
 66
     1
 10
0.0
 20
0.0
 30
0.0
 70
     1
  0
VERTEX
  5
329
  8
DEFAULT
 62
     5
 10
21.96715436182894
 20
82.10903237377
 30
0.0
 42
0.1662127852120684
  0
VERTEX
  5
32A
  8
DEFAULT
 62
     5
 10
22.25129797748244
 20
81.00428681796015
 30
0.0
 42
0.2404461653497831
  0
VERTEX
  5
32B
  8
DEFAULT
 62
     5
 10
22.9434277130775
 20
80.64722655330088
 30
0.0
 42
0.2413239634427007
  0
VERTEX
  5
32C
  8
DEFAULT
 62
     5
 10
23.59591620523181
 20
80.97506240013422
 30
0.0
 42
0.1627449374921645
  0
VERTEX
  5
32D
  8
DEFAULT
 62
     5
 10
23.85604325071782
 20
82.05058353811815
 30
0.0
 42
0.166197673138215
  0
VERTEX
  5
32E
  8
DEFAULT
 62
     5
 10
23.58781422975362
 20
83.08675222377946
 30
0.0
 42
0.2412377667960511
  0
VERTEX
  5
32F
  8
DEFAULT
 62
     5
 10
22.92375205206515
 20
83.42500433107865
 30
0.0
 42
0.2367422129322007
  0
VERTEX
  5
330
  8
DEFAULT
 62
     5
 10
22.23914529683965
 20
83.09282842281362
 30
0.0
 42
0.172344780998899
  0
SEQEND
  5
331
  8
DEFAULT
 62
     5
  0
POLYLINE
  5
332
  8
DEFAULT
 62
     5
 66
     1
 10
0.0
 20
0.0
 30
0.0
 70
     1
  0
VERTEX
  5
333
  8
DEFAULT
 62
     5
 10
20.8190062136808
 20
84.20278210885643
 30
0.0
  0
VERTEX
  5
334
  8
DEFAULT
 62
     5
 10
21.89308028775486
 20
84.20278210885643
 30
0.0
  0
VERTEX
  5
335
  8
DEFAULT
 62
     5
 10
21.89308028775486
 20
83.57083819423913
 30
0.0
 42
-0.1189653659007523
  0
VERTEX
  5
336
  8
DEFAULT
 62
     5
 10
22.44776805708367
 20
84.10440267349675
 30
0.0
 42
-0.1382105598910111
  0
VERTEX
  5
337
  8
DEFAULT
 62
     5
 10
23.22352062356638
 20
84.31389321996754
 30
0.0
 42
-0.2273648758850292
  0
VERTEX
  5
338
  8
DEFAULT
 62
     5
 10
24.48567288034745
 20
83.71869670354573
 30
0.0
 42
-0.1838682188936111
  0
VERTEX
  5
339
  8
DEFAULT
 62
     5
 10
25.00419139886598
 20
82.06099979858399
 30
0.0
 42
-0.1823656645300267
  0
VERTEX
  5
33A
  8
DEFAULT
 62
     5
 10
24.48133281891576
 20
80.36366193275602
 30
0.0
 42
-0.2285594541574998
  0
VERTEX
  5
33B
  8
DEFAULT
 62
     5
 10
23.21426122301988
 20
79.75833766441198
 30
0.0
 42
-0.1163198006807942
  0
VERTEX
  5
33C
  8
DEFAULT
 62
     5
 10
22.57247863017298
 20
79.90012025725889
 30
0.0
 42
-0.0904152380777659
  0
VERTEX
  5
33D
  8
DEFAULT
 62
     5
 10
21.96715436182894
 20
80.3862317215881
 30
0.0
  0
VERTEX
  5
33E
  8
DEFAULT
 62
     5
 10
21.96715436182894
 20
78.20278210885643
 30
0.0
  0
VERTEX
  5
33F
  8
DEFAULT
 62
     5
 10
20.8190062136808
 20
78.20278210885643
 30
0.0
  0
SEQEND
  5
340
  8
DEFAULT
 62
     5
  0
POLYLINE
  5
341
  8
DEFAULT
 62
     5
 66
     1
 10
0.0
 20
0.0
 30
0.0
 70
     1
  0
VERTEX
  5
342
  8
DEFAULT
 62
     5
 10
15.78196917664376
 20
81.09167099774533
 30
0.0
  0
VERTEX
  5
343
  8
DEFAULT
 62
     5
 10
16.9301173247919
 20
81.23981914589346
 30
0.0
 42
0.1817134537413072
  0
VERTEX
  5
344
  8
DEFAULT
 62
     5
 10
17.22728197246391
 20
80.74271270856424
 30
0.0
 42
0.1637490318832717
  0
VERTEX
  5
345
  8
DEFAULT
 62
     5
 10
17.85315025319601
 20
80.5731524792268
 30
0.0
 42
0.1581548590315978
  0
VERTEX
  5
346
  8
DEFAULT
 62
     5
 10
18.52039563239683
 20
80.73924071593379
 30
0.0
 42
0.2454173628752769
  0
VERTEX
  5
347
  8
DEFAULT
 62
     5
 10
18.67085806553264
 20
81.05058353811815
 30
0.0
  0
VERTEX
  5
348
  8
DEFAULT
 62
     5
 10
18.5892612936635
 20
81.27049091020375
 30
0.0
  0
VERTEX
  5
349
  8
DEFAULT
 62
     5
 10
18.20500182247339
 20
81.4238474711593
 30
0.0
 42
-0.0750101977649357
  0
VERTEX
  5
34A
  8
DEFAULT
 62
     5
 10
16.44458542072029
 20
81.99039799971486
 30
0.0
 42
-0.263057537723724
  0
VERTEX
  5
34B
  8
DEFAULT
 62
     5
 10
15.9301173247919
 20
82.97303718883913
 30
0.0
 42
-0.2278055359033985
  0
VERTEX
  5
34C
  8
DEFAULT
 62
     5
 10
16.37485112550343
 20
83.92731918121528
 30
0.0
 42
-0.1789409577799076
  0
VERTEX
  5
34D
  8
DEFAULT
 62
     5
 10
17.75361282761907
 20
84.31389321996754
 30
0.0
 42
-0.1478680227512778
  0
VERTEX
  5
34E
  8
DEFAULT
 62
     5
 10
19.07537219284375
 20
84.01441428730786
 30
0.0
 42
-0.1798681362132249
  0
VERTEX
  5
34F
  8
DEFAULT
 62
     5
 10
19.67085806553265
 20
83.12870803478235
 30
0.0
  0
VERTEX
  5
350
  8
DEFAULT
 62
     5
 10
18.59678399145857
 20
82.94352284959717
 30
0.0
 42
0.1762609448244337
  0
VERTEX
  5
351
  8
DEFAULT
 62
     5
 10
18.33405273956885
 20
83.35584931354492
 30
0.0
 42
0.1598214678236428
  0
VERTEX
  5
352
  8
DEFAULT
 62
     5
 10
17.78196917664376
 20
83.49907840515273
 30
0.0
 42
0.137185548785733
  0
VERTEX
  5
353
  8
DEFAULT
 62
     5
 10
17.13440002360425
 20
83.37060648316589
 30
0.0
 42
0.5297885667389423
  0
VERTEX
  5
354
  8
DEFAULT
 62
     5
 10
17.11819607264786
 20
82.92211105098232
 30
0.0
 42
0.0664798749578486
  0
VERTEX
  5
355
  8
DEFAULT
 62
     5
 10
18.18590459142071
 20
82.5942754867235
 30
0.0
 42
-0.1095214193377285
  0
VERTEX
  5
356
  8
DEFAULT
 62
     5
 10
19.46078880652771
 20
82.07893988714285
 30
0.0
 42
-0.228411495879776
  0
VERTEX
  5
357
  8
DEFAULT
 62
     5
 10
19.81900621368077
 20
81.22072219741527
 30
0.0
 42
-0.2276229810650929
  0
VERTEX
  5
358
  8
DEFAULT
 62
     5
 10
19.32247848888573
 20
80.18947200314531
 30
0.0
 42
-0.1809722242825362
  0
VERTEX
  5
359
  8
DEFAULT
 62
     5
 10
17.85315025319601
 20
79.75833766441197
 30
0.0
 42
-0.1534212868271779
  0
VERTEX
  5
35A
  8
DEFAULT
 62
     5
 10
16.45529103745322
 20
80.11713406667371
 30
0.0
 42
-0.1853542620166054
  0
SEQEND
  5
35B
  8
DEFAULT
 62
     5
  0
POLYLINE
  5
35C
  8
DEFAULT
 62
     5
 66
     1
 10
0.0
 20
0.0
 30
0.0
 70
     1
  0
VERTEX
  5
35D
  8
DEFAULT
 62
     5
 10
15.04122843590302
 20
79.8694487755231
 30
0.0
  0
VERTEX
  5
35E
  8
DEFAULT
 62
     5
 10
13.89308028775487
 20
79.8694487755231
 30
0.0
  0
VERTEX
  5
35F
  8
DEFAULT
 62
     5
 10
13.89308028775486
 20
82.08183344981362
 30
0.0
 42
0.0659043403442057
  0
VERTEX
  5
360
  8
DEFAULT
 62
     5
 10
13.82074235128326
 20
82.99039828228933
 30
0.0
 42
0.1600130695765586
  0
VERTEX
  5
361
  8
DEFAULT
 62
     5
 10
13.58578873588409
 20
83.31071058360418
 30
0.0
 42
0.157514917629802
  0
VERTEX
  5
362
  8
DEFAULT
 62
     5
 10
13.19458499685857
 20
83.42500433107865
 30
0.0
 42
0.1576987046344962
  0
VERTEX
  5
363
  8
DEFAULT
 62
     5
 10
12.66883285423757
 20
83.26180993961694
 30
0.0
 42
0.1684371822617503
  0
VERTEX
  5
364
  8
DEFAULT
 62
     5
 10
12.34967769541661
 20
82.82922910212268
 30
0.0
 42
0.0659809918576755
  0
VERTEX
  5
365
  8
DEFAULT
 62
     5
 10
12.26345065812524
 20
81.83299045102022
 30
0.0
  0
VERTEX
  5
366
  8
DEFAULT
 62
     5
 10
12.26345065812524
 20
79.8694487755231
 30
0.0
  0
VERTEX
  5
367
  8
DEFAULT
 62
     5
 10
11.11530250997709
 20
79.8694487755231
 30
0.0
  0
VERTEX
  5
368
  8
DEFAULT
 62
     5
 10
11.11530250997709
 20
84.20278210885643
 30
0.0
  0
VERTEX
  5
369
  8
DEFAULT
 62
     5
 10
12.18937658405117
 20
84.20278210885643
 30
0.0
  0
VERTEX
  5
36A
  8
DEFAULT
 62
     5
 10
12.18937658405117
 20
83.57083819423913
 30
0.0
 42
-0.2486296121988489
  0
VERTEX
  5
36B
  8
DEFAULT
 62
     5
 10
13.60141369173182
 20
84.31389321996754
 30
0.0
 42
-0.105316401560785
  0
VERTEX
  5
36C
  8
DEFAULT
 62
     5
 10
14.28688823318409
 20
84.17674060996838
 30
0.0
 42
-0.1292191717088675
  0
VERTEX
  5
36D
  8
DEFAULT
 62
     5
 10
14.75679574655693
 20
83.82691425198605
 30
0.0
 42
-0.1054932374261942
  0
VERTEX
  5
36E
  8
DEFAULT
 62
     5
 10
14.97872861251207
 20
83.34398598916918
 30
0.0
  0
VERTEX
  5
36F
  8
DEFAULT
 62
     5
 10
15.04122843590302
 20
82.57025948170498
 30
0.0
  0
SEQEND
  5
370
  8
DEFAULT
 62
     5
  0
POLYLINE
  5
371
  8
DEFAULT
 62
     5
 66
     1
 10
0.0
 20
0.0
 30
0.0
 70
     1
  0
VERTEX
  5
372
  8
DEFAULT
 62
     5
 10
8.781969176643756
 20
81.94352284959717
 30
0.0
  0
VERTEX
  5
373
  8
DEFAULT
 62
     5
 10
8.113566654949103
 20
81.76817577749264
 30
0.0
  0
VERTEX
  5
374
  8
DEFAULT
 62
     5
 10
7.515765932123589
 20
81.5685233441025
 30
0.0
 42
0.2517191883486153
  0
VERTEX
  5
375
  8
DEFAULT
 62
     5
 10
7.300487695162275
 20
81.16458821190004
 30
0.0
 42
0.4298150945544806
  0
VERTEX
  5
376
  8
DEFAULT
 62
     5
 10
7.910441663779559
 20
80.5731524792268
 30
0.0
 42
0.1670482644845536
  0
VERTEX
  5
377
  8
DEFAULT
 62
     5
 10
8.476992757484073
 20
80.77685646550499
 30
0.0
 42
0.1651612454991559
  0
VERTEX
  5
378
  8
DEFAULT
 62
     5
 10
8.739145579414117
 20
81.15648623642186
 30
0.0
  0
VERTEX
  5
379
  8
DEFAULT
 62
     5
 10
8.781969176643756
 20
81.71493535464819
 30
0.0
  0
SEQEND
  5
37A
  8
DEFAULT
 62
     5
  0
POLYLINE
  5
37B
  8
DEFAULT
 62
     5
 66
     1
 10
0.0
 20
0.0
 30
0.0
 70
     1
  0
VERTEX
  5
37C
  8
DEFAULT
 62
     5
 10
7.337524732199313
 20
82.8694487755231
 30
0.0
  0
VERTEX
  5
37D
  8
DEFAULT
 62
     5
 10
6.300487695162278
 20
83.01759692367125
 30
0.0
 42
-0.1714833175990159
  0
VERTEX
  5
37E
  8
DEFAULT
 62
     5
 10
6.892791214062273
 20
83.99618512505641
 30
0.0
 42
-0.1608829132837498
  0
VERTEX
  5
37F
  8
DEFAULT
 62
     5
 10
8.14134457401412
 20
84.31389321996754
 30
0.0
 42
-0.1088364278880706
  0
VERTEX
  5
380
  8
DEFAULT
 62
     5
 10
9.26171480309725
 20
84.13189095372023
 30
0.0
 42
-0.1580303644335216
  0
VERTEX
  5
381
  8
DEFAULT
 62
     5
 10
9.779943965348698
 20
83.6695067032914
 30
0.0
 42
-0.1088017057953456
  0
VERTEX
  5
382
  8
DEFAULT
 62
     5
 10
9.930117324791912
 20
82.64028256803996
 30
0.0
  0
VERTEX
  5
383
  8
DEFAULT
 62
     5
 10
9.930117324791908
 20
81.29768983416012
 30
0.0
  0
VERTEX
  5
384
  8
DEFAULT
 62
     5
 10
9.992617430757335
 20
80.4524928938766
 30
0.0
  0
VERTEX
  5
385
  8
DEFAULT
 62
     5
 10
10.22641362108821
 20
79.8694487755231
 30
0.0
  0
VERTEX
  5
386
  8
DEFAULT
 62
     5
 10
9.078265472940053
 20
79.8694487755231
 30
0.0
  0
VERTEX
  5
387
  8
DEFAULT
 62
     5
 10
8.968311786897253
 20
80.20509695899305
 30
0.0
  0
VERTEX
  5
388
  8
DEFAULT
 62
     5
 10
8.927803039804237
 20
80.33877785893625
 30
0.0
 42
-0.0933244186738279
  0
VERTEX
  5
389
  8
DEFAULT
 62
     5
 10
8.301066407696432
 20
79.90359253246382
 30
0.0
 42
-0.1040133466925846
  0
VERTEX
  5
38A
  8
DEFAULT
 62
     5
 10
7.588682581129348
 20
79.75833766441198
 30
0.0
 42
-0.1965430357596545
  0
VERTEX
  5
38B
  8
DEFAULT
 62
     5
 10
6.536888374471324
 20
80.12147441067988
 30
0.0
 42
-0.2154369487651209
  0
VERTEX
  5
38C
  8
DEFAULT
 62
     5
 10
6.152339547014129
 20
81.03958799996919
 30
0.0
 42
-0.1373780248024409
  0
VERTEX
  5
38D
  8
DEFAULT
 62
     5
 10
6.323635913954037
 20
81.69468041595272
 30
0.0
 42
-0.1473783213971063
  0
VERTEX
  5
38E
  8
DEFAULT
 62
     5
 10
6.803670896674618
 20
82.13536322892516
 30
0.0
 42
-0.0634404934847211
  0
VERTEX
  5
38F
  8
DEFAULT
 62
     5
 10
7.694006566898892
 20
82.40243510739552
 30
0.0
 42
0.0472009877729096
  0
VERTEX
  5
390
  8
DEFAULT
 62
     5
 10
8.781969176643756
 20
82.6842635903379
 30
0.0
  0
VERTEX
  5
391
  8
DEFAULT
 62
     5
 10
8.78196917664376
 20
82.80058311425643
 30
0.0
 42
0.2070921599656181
  0
VERTEX
  5
392
  8
DEFAULT
 62
     5
 10
8.628323541995615
 20
83.28148588320377
 30
0.0
 42
0.177788743270785
  0
VERTEX
  5
393
  8
DEFAULT
 62
     5
 10
8.048172986312892
 20
83.42500433107865
 30
0.0
 42
0.1651091138038817
  0
VERTEX
  5
394
  8
DEFAULT
 62
     5
 10
7.598809767902606
 20
83.30174053932474
 30
0.0
 42
0.1491587679877855
  0
SEQEND
  5
395
  8
DEFAULT
 62
     5
  0
POLYLINE
  5
396
  8
DEFAULT
 62
     5
 66
     1
 10
0.0
 20
0.0
 30
0.0
 70
     1
  0
VERTEX
  5
397
  8
DEFAULT
 62
     5
 10
-0.9958086011340157
 20
84.20278210885643
 30
0.0
  0
VERTEX
  5
398
  8
DEFAULT
 62
     5
 10
0.0412284359030153
 20
84.20278210885643
 30
0.0
  0
VERTEX
  5
399
  8
DEFAULT
 62
     5
 10
0.0412284359030155
 20
83.61539792907124
 30
0.0
 42
-0.2373869490350024
  0
VERTEX
  5
39A
  8
DEFAULT
 62
     5
 10
1.389029582590254
 20
84.31389321996754
 30
0.0
 42
-0.1315120310734691
  0
VERTEX
  5
39B
  8
DEFAULT
 62
     5
 10
2.109226310942931
 20
84.14028228546547
 30
0.0
 42
-0.1393853272245086
  0
VERTEX
  5
39C
  8
DEFAULT
 62
     5
 10
2.610094379744155
 20
83.61539792907124
 30
0.0
 42
-0.1018343532165829
  0
VERTEX
  5
39D
  8
DEFAULT
 62
     5
 10
3.222941628457745
 20
84.14028228546547
 30
0.0
 42
-0.1239296679571234
  0
VERTEX
  5
39E
  8
DEFAULT
 62
     5
 10
3.924909477133461
 20
84.31389321996754
 30
0.0
 42
-0.1355305589141657
  0
VERTEX
  5
39F
  8
DEFAULT
 62
     5
 10
4.728728753799309
 20
84.11944891681033
 30
0.0
 42
-0.1623661969580411
  0
VERTEX
  5
3A0
  8
DEFAULT
 62
     5
 10
5.220048348361452
 20
83.5488471179412
 30
0.0
 42
-0.0915442810314389
  0
VERTEX
  5
3A1
  8
DEFAULT
 62
     5
 10
5.33752473219932
 20
82.64838397836918
 30
0.0
  0
VERTEX
  5
3A2
  8
DEFAULT
 62
     5
 10
5.337524732199313
 20
79.8694487755231
 30
0.0
  0
VERTEX
  5
3A3
  8
DEFAULT
 62
     5
 10
4.189376584051168
 20
79.8694487755231
 30
0.0
  0
VERTEX
  5
3A4
  8
DEFAULT
 62
     5
 10
4.189376584051157
 20
82.3474585469486
 30
0.0
 42
0.1141470137910762
  0
VERTEX
  5
3A5
  8
DEFAULT
 62
     5
 10
4.072478912747448
 20
83.18021288517329
 30
0.0
 42
0.272100060653376
  0
VERTEX
  5
3A6
  8
DEFAULT
 62
     5
 10
3.588103868595191
 20
83.42500433107864
 30
0.0
 42
0.1575639071467085
  0
VERTEX
  5
3A7
  8
DEFAULT
 62
     5
 10
3.140476222638408
 20
83.27801360799882
 30
0.0
 42
0.1657627374473916
  0
VERTEX
  5
3A8
  8
DEFAULT
 62
     5
 10
2.83781408846639
 20
82.84745826437413
 30
0.0
 42
0.0723437487254972
  0
VERTEX
  5
3A9
  8
DEFAULT
 62
     5
 10
2.744932139606723
 20
81.95162482507536
 30
0.0
  0
VERTEX
  5
3AA
  8
DEFAULT
 62
     5
 10
2.744932139606725
 20
79.8694487755231
 30
0.0
  0
VERTEX
  5
3AB
  8
DEFAULT
 62
     5
 10
1.596783991458572
 20
79.8694487755231
 30
0.0
  0
VERTEX
  5
3AC
  8
DEFAULT
 62
     5
 10
1.596783991458572
 20
82.24502755870087
 30
0.0
  0
VERTEX
  5
3AD
  8
DEFAULT
 62
     5
 10
1.536888374471333
 20
83.06186786738523
 30
0.0
 42
0.1633931196985064
  0
VERTEX
  5
3AE
  8
DEFAULT
 62
     5
 10
1.350835403059389
 20
83.33530530115684
 30
0.0
 42
0.1561218014296507
  0
VERTEX
  5
3AF
  8
DEFAULT
 62
     5
 10
1.008821099139233
 20
83.42500433107865
 30
0.0
 42
0.1551837175468175
  0
VERTEX
  5
3B0
  8
DEFAULT
 62
     5
 10
0.5403606496762634
 20
83.2820645957379
 30
0.0
 42
0.1670025847935268
  0
VERTEX
  5
3B1
  8
DEFAULT
 62
     5
 10
0.2423282157774899
 20
82.86973841436465
 30
0.0
 42
0.0722698594962471
  0
VERTEX
  5
3B2
  8
DEFAULT
 62
     5
 10
0.1523395470141291
 20
81.97593075150992
 30
0.0
  0
VERTEX
  5
3B3
  8
DEFAULT
 62
     5
 10
0.1523395470141296
 20
79.8694487755231
 30
0.0
  0
VERTEX
  5
3B4
  8
DEFAULT
 62
     5
 10
-0.9958086011340157
 20
79.8694487755231
 30
0.0
  0
SEQEND
  5
3B5
  8
DEFAULT
 62
     5
  0
POLYLINE
  5
3B6
  8
DEFAULT
 62
     5
 66
     1
 10
0.0
 20
0.0
 30
0.0
 70
     1
  0
VERTEX
  5
3B7
  8
DEFAULT
 62
     5
 10
-5.921734527059947
 20
81.09167099774533
 30
0.0
  0
VERTEX
  5
3B8
  8
DEFAULT
 62
     5
 10
-4.7735863789118
 20
81.23981914589345
 30
0.0
 42
0.1817134537413005
  0
VERTEX
  5
3B9
  8
DEFAULT
 62
     5
 10
-4.476421731239791
 20
80.74271270856424
 30
0.0
 42
0.163749031883271
  0
VERTEX
  5
3BA
  8
DEFAULT
 62
     5
 10
-3.850553450507689
 20
80.5731524792268
 30
0.0
 42
0.1581548590316008
  0
VERTEX
  5
3BB
  8
DEFAULT
 62
     5
 10
-3.183308071306873
 20
80.73924071593379
 30
0.0
 42
0.2454173628753006
  0
VERTEX
  5
3BC
  8
DEFAULT
 62
     5
 10
-3.03284563817105
 20
81.05058353811815
 30
0.0
  0
VERTEX
  5
3BD
  8
DEFAULT
 62
     5
 10
-3.114442410040205
 20
81.27049091020375
 30
0.0
  0
VERTEX
  5
3BE
  8
DEFAULT
 62
     5
 10
-3.498701881230318
 20
81.4238474711593
 30
0.0
 42
-0.0750101977649366
  0
VERTEX
  5
3BF
  8
DEFAULT
 62
     5
 10
-5.259118282983412
 20
81.99039799971487
 30
0.0
 42
-0.2630575377237216
  0
VERTEX
  5
3C0
  8
DEFAULT
 62
     5
 10
-5.773586378911801
 20
82.97303718883913
 30
0.0
 42
-0.2278055359033977
  0
VERTEX
  5
3C1
  8
DEFAULT
 62
     5
 10
-5.328852578200276
 20
83.92731918121528
 30
0.0
 42
-0.1789409577799061
  0
VERTEX
  5
3C2
  8
DEFAULT
 62
     5
 10
-3.950090876084637
 20
84.31389321996754
 30
0.0
 42
-0.1478680227512794
  0
VERTEX
  5
3C3
  8
DEFAULT
 62
     5
 10
-2.628331510859948
 20
84.01441428730786
 30
0.0
 42
-0.1798681362132244
  0
VERTEX
  5
3C4
  8
DEFAULT
 62
     5
 10
-2.032845638171054
 20
83.12870803478235
 30
0.0
  0
VERTEX
  5
3C5
  8
DEFAULT
 62
     5
 10
-3.106919712245131
 20
82.94352284959717
 30
0.0
 42
0.1762609448244094
  0
VERTEX
  5
3C6
  8
DEFAULT
 62
     5
 10
-3.369650964134848
 20
83.35584931354491
 30
0.0
 42
0.1598214678236587
  0
VERTEX
  5
3C7
  8
DEFAULT
 62
     5
 10
-3.921734527059947
 20
83.49907840515273
 30
0.0
 42
0.1371855487857312
  0
VERTEX
  5
3C8
  8
DEFAULT
 62
     5
 10
-4.569303680099461
 20
83.3706064831659
 30
0.0
 42
0.5297885667389552
  0
VERTEX
  5
3C9
  8
DEFAULT
 62
     5
 10
-4.585507631055828
 20
82.92211105098235
 30
0.0
 42
0.066479874957864
  0
VERTEX
  5
3CA
  8
DEFAULT
 62
     5
 10
-3.517799112282992
 20
82.59427548672352
 30
0.0
 42
-0.1095214193377329
  0
VERTEX
  5
3CB
  8
DEFAULT
 62
     5
 10
-2.242914897175998
 20
82.07893988714284
 30
0.0
 42
-0.2284114958797657
  0
VERTEX
  5
3CC
  8
DEFAULT
 62
     5
 10
-1.88469749002292
 20
81.22072219741527
 30
0.0
 42
-0.2276229810650868
  0
VERTEX
  5
3CD
  8
DEFAULT
 62
     5
 10
-2.381225214817965
 20
80.1894720031453
 30
0.0
 42
-0.1809722242825244
  0
VERTEX
  5
3CE
  8
DEFAULT
 62
     5
 10
-3.850553450507689
 20
79.75833766441198
 30
0.0
 42
-0.1534212868271854
  0
VERTEX
  5
3CF
  8
DEFAULT
 62
     5
 10
-5.248412666250486
 20
80.11713406667371
 30
0.0
 42
-0.1853542620166052
  0
SEQEND
  5
3D0
  8
DEFAULT
 62
     5
  0
POLYLINE
  5
3D1
  8
DEFAULT
 62
     5
 66
     1
 10
0.0
 20
0.0
 30
0.0
 70
     1
  0
VERTEX
  5
3D2
  8
DEFAULT
 62
     5
 10
-6.292104897430313
 20
84.20278210885643
 30
0.0
  0
VERTEX
  5
3D3
  8
DEFAULT
 62
     5
 10
-6.292104897430313
 20
83.31389321996754
 30
0.0
  0
VERTEX
  5
3D4
  8
DEFAULT
 62
     5
 10
-7.069882675208092
 20
83.31389321996754
 30
0.0
  0
VERTEX
  5
3D5
  8
DEFAULT
 62
     5
 10
-7.069882675208092
 20
81.5245417566556
 30
0.0
  0
VERTEX
  5
3D6
  8
DEFAULT
 62
     5
 10
-7.047891881484638
 20
80.89115021297947
 30
0.0
  0
VERTEX
  5
3D7
  8
DEFAULT
 62
     5
 10
-6.948644094749248
 20
80.74271270856424
 30
0.0
  0
VERTEX
  5
3D8
  8
DEFAULT
 62
     5
 10
-6.759697278092048
 20
80.6842635903379
 30
0.0
  0
VERTEX
  5
3D9
  8
DEFAULT
 62
     5
 10
-6.310623133374357
 20
80.79363912899551
 30
0.0
  0
VERTEX
  5
3DA
  8
DEFAULT
 62
     5
 10
-6.218030823356244
 20
79.92500461365313
 30
0.0
 42
-0.1009135694950812
  0
VERTEX
  5
3DB
  8
DEFAULT
 62
     5
 10
-7.111548847369421
 20
79.75833766441198
 30
0.0
 42
-0.1023112505794375
  0
VERTEX
  5
3DC
  8
DEFAULT
 62
     5
 10
-7.662764341493288
 20
79.86366193275602
 30
0.0
 42
-0.142732760251352
  0
VERTEX
  5
3DD
  8
DEFAULT
 62
     5
 10
-8.023007525090394
 20
80.13594222403378
 30
0.0
 42
-0.1112474266807675
  0
VERTEX
  5
3DE
  8
DEFAULT
 62
     5
 10
-8.181571933704406
 20
80.58762029258071
 30
0.0
  0
VERTEX
  5
3DF
  8
DEFAULT
 62
     5
 10
-8.218030823356244
 20
81.40417124499798
 30
0.0
  0
VERTEX
  5
3E0
  8
DEFAULT
 62
     5
 10
-8.218030823356244
 20
83.31389321996754
 30
0.0
  0
VERTEX
  5
3E1
  8
DEFAULT
 62
     5
 10
-8.773586378911794
 20
83.31389321996754
 30
0.0
  0
VERTEX
  5
3E2
  8
DEFAULT
 62
     5
 10
-8.773586378911794
 20
84.20278210885643
 30
0.0
  0
VERTEX
  5
3E3
  8
DEFAULT
 62
     5
 10
-8.218030823356244
 20
84.20278210885643
 30
0.0
  0
VERTEX
  5
3E4
  8
DEFAULT
 62
     5
 10
-8.218030823356244
 20
85.01759692367125
 30
0.0
  0
VERTEX
  5
3E5
  8
DEFAULT
 62
     5
 10
-7.069882675208092
 20
85.6842635903379
 30
0.0
  0
VERTEX
  5
3E6
  8
DEFAULT
 62
     5
 10
-7.069882675208092
 20
84.20278210885643
 30
0.0
  0
SEQEND
  5
3E7
  8
DEFAULT
 62
     5
  0
POLYLINE
  5
3E8
  8
DEFAULT
 62
     5
 66
     1
 10
0.0
 20
0.0
 30
0.0
 70
     1
  0
VERTEX
  5
3E9
  8
DEFAULT
 62
     5
 10
-11.51432711965253
 20
84.20278210885643
 30
0.0
  0
VERTEX
  5
3EA
  8
DEFAULT
 62
     5
 10
-10.92173452705995
 20
84.20278210885643
 30
0.0
  0
VERTEX
  5
3EB
  8
DEFAULT
 62
     5
 10
-10.92173452705994
 20
84.52743531932637
 30
0.0
 42
-0.0950504639922843
  0
VERTEX
  5
3EC
  8
DEFAULT
 62
     5
 10
-10.8071511407439
 20
85.33877785893625
 30
0.0
 42
-0.1716707163023869
  0
VERTEX
  5
3ED
  8
DEFAULT
 62
     5
 10
-10.38498656371551
 20
85.77512032790251
 30
0.0
 42
-0.125765899664677
  0
VERTEX
  5
3EE
  8
DEFAULT
 62
     5
 10
-9.606919429670647
 20
85.94352284959717
 30
0.0
 42
-0.0781428993827152
  0
VERTEX
  5
3EF
  8
DEFAULT
 62
     5
 10
-8.662475267800687
 20
85.79537470144902
 30
0.0
  0
VERTEX
  5
3F0
  8
DEFAULT
 62
     5
 10
-8.792104614855837
 20
84.98981928718071
 30
0.0
  0
VERTEX
  5
3F1
  8
DEFAULT
 62
     5
 10
-9.312937983510977
 20
85.05463396070829
 30
0.0
 42
0.2070684672812485
  0
VERTEX
  5
3F2
  8
DEFAULT
 62
     5
 10
-9.66652597296529
 20
84.94062956950086
 30
0.0
 42
0.1773524100532108
  0
VERTEX
  5
3F3
  8
DEFAULT
 62
     5
 10
-9.773586378911789
 20
84.50255068035766
 30
0.0
  0
VERTEX
  5
3F4
  8
DEFAULT
 62
     5
 10
-9.773586378911794
 20
84.20278210885643
 30
0.0
  0
VERTEX
  5
3F5
  8
DEFAULT
 62
     5
 10
-8.958771564096985
 20
84.20278210885643
 30
0.0
  0
VERTEX
  5
3F6
  8
DEFAULT
 62
     5
 10
-8.958771564096985
 20
83.31389321996754
 30
0.0
  0
VERTEX
  5
3F7
  8
DEFAULT
 62
     5
 10
-9.773586378911794
 20
83.31389321996754
 30
0.0
  0
VERTEX
  5
3F8
  8
DEFAULT
 62
     5
 10
-9.773586378911794
 20
79.8694487755231
 30
0.0
  0
VERTEX
  5
3F9
  8
DEFAULT
 62
     5
 10
-10.92173452705995
 20
79.8694487755231
 30
0.0
  0
VERTEX
  5
3FA
  8
DEFAULT
 62
     5
 10
-10.92173452705995
 20
83.31389321996754
 30
0.0
  0
VERTEX
  5
3FB
  8
DEFAULT
 62
     5
 10
-11.51432711965253
 20
83.31389321996754
 30
0.0
  0
SEQEND
  5
3FC
  8
DEFAULT
 62
     5
  0
POLYLINE
  5
3FD
  8
DEFAULT
 62
     5
 66
     1
 10
0.0
 20
0.0
 30
0.0
 70
     1
  0
VERTEX
  5
3FE
  8
DEFAULT
 62
     5
 10
-13.40321600854143
 20
81.94352284959717
 30
0.0
  0
VERTEX
  5
3FF
  8
DEFAULT
 62
     5
 10
-14.07161853023608
 20
81.76817577749264
 30
0.0
  0
VERTEX
  5
400
  8
DEFAULT
 62
     5
 10
-14.6694192530616
 20
81.5685233441025
 30
0.0
 42
0.2517191883486149
  0
VERTEX
  5
401
  8
DEFAULT
 62
     5
 10
-14.88469749002292
 20
81.16458821190004
 30
0.0
 42
0.4298150945544587
  0
VERTEX
  5
402
  8
DEFAULT
 62
     5
 10
-14.27474352140563
 20
80.5731524792268
 30
0.0
 42
0.1670482644845477
  0
VERTEX
  5
403
  8
DEFAULT
 62
     5
 10
-13.70819242770111
 20
80.77685646550499
 30
0.0
 42
0.165161245499165
  0
VERTEX
  5
404
  8
DEFAULT
 62
     5
 10
-13.44603960577106
 20
81.15648623642186
 30
0.0
  0
VERTEX
  5
405
  8
DEFAULT
 62
     5
 10
-13.40321600854143
 20
81.71493535464819
 30
0.0
  0
SEQEND
  5
406
  8
DEFAULT
 62
     5
  0
POLYLINE
  5
407
  8
DEFAULT
 62
     5
 66
     1
 10
0.0
 20
0.0
 30
0.0
 70
     1
  0
VERTEX
  5
408
  8
DEFAULT
 62
     5
 10
-14.84766045298587
 20
82.8694487755231
 30
0.0
  0
VERTEX
  5
409
  8
DEFAULT
 62
     5
 10
-15.88469749002291
 20
83.01759692367125
 30
0.0
 42
-0.1714833175990147
  0
VERTEX
  5
40A
  8
DEFAULT
 62
     5
 10
-15.29239397112291
 20
83.99618512505643
 30
0.0
 42
-0.160882913283749
  0
VERTEX
  5
40B
  8
DEFAULT
 62
     5
 10
-14.04384061117106
 20
84.31389321996754
 30
0.0
 42
-0.1088364278880639
  0
VERTEX
  5
40C
  8
DEFAULT
 62
     5
 10
-12.92347038208793
 20
84.13189095372022
 30
0.0
 42
-0.1580303644335335
  0
VERTEX
  5
40D
  8
DEFAULT
 62
     5
 10
-12.40524121983649
 20
83.6695067032914
 30
0.0
 42
-0.1088017057953455
  0
VERTEX
  5
40E
  8
DEFAULT
 62
     5
 10
-12.25506786039327
 20
82.64028256803996
 30
0.0
  0
VERTEX
  5
40F
  8
DEFAULT
 62
     5
 10
-12.25506786039328
 20
81.29768983416012
 30
0.0
  0
VERTEX
  5
410
  8
DEFAULT
 62
     5
 10
-12.19256775442785
 20
80.4524928938766
 30
0.0
  0
VERTEX
  5
411
  8
DEFAULT
 62
     5
 10
-11.95877156409698
 20
79.8694487755231
 30
0.0
  0
VERTEX
  5
412
  8
DEFAULT
 62
     5
 10
-13.10691971224513
 20
79.8694487755231
 30
0.0
  0
VERTEX
  5
413
  8
DEFAULT
 62
     5
 10
-13.21687339828793
 20
80.20509695899305
 30
0.0
  0
VERTEX
  5
414
  8
DEFAULT
 62
     5
 10
-13.25738214538094
 20
80.33877785893625
 30
0.0
 42
-0.0933244186738163
  0
VERTEX
  5
415
  8
DEFAULT
 62
     5
 10
-13.88411877748875
 20
79.90359253246385
 30
0.0
 42
-0.1040133466926018
  0
VERTEX
  5
416
  8
DEFAULT
 62
     5
 10
-14.59650260405584
 20
79.75833766441198
 30
0.0
 42
-0.1965430357596495
  0
VERTEX
  5
417
  8
DEFAULT
 62
     5
 10
-15.64829681071385
 20
80.12147441067988
 30
0.0
 42
-0.2154369487651294
  0
VERTEX
  5
418
  8
DEFAULT
 62
     5
 10
-16.03284563817106
 20
81.03958799996919
 30
0.0
 42
-0.1373780248024298
  0
VERTEX
  5
419
  8
DEFAULT
 62
     5
 10
-15.86154927123113
 20
81.6946804159527
 30
0.0
 42
-0.1473783213971125
  0
VERTEX
  5
41A
  8
DEFAULT
 62
     5
 10
-15.38151428851057
 20
82.13536322892516
 30
0.0
 42
-0.0634404934847199
  0
VERTEX
  5
41B
  8
DEFAULT
 62
     5
 10
-14.49117861828629
 20
82.40243510739552
 30
0.0
 42
0.0472009877729076
  0
VERTEX
  5
41C
  8
DEFAULT
 62
     5
 10
-13.40321600854143
 20
82.6842635903379
 30
0.0
  0
VERTEX
  5
41D
  8
DEFAULT
 62
     5
 10
-13.40321600854141
 20
82.80058311425643
 30
0.0
 42
0.2070921599656122
  0
VERTEX
  5
41E
  8
DEFAULT
 62
     5
 10
-13.55686164318958
 20
83.28148588320376
 30
0.0
 42
0.1777887432707898
  0
VERTEX
  5
41F
  8
DEFAULT
 62
     5
 10
-14.13701219887229
 20
83.42500433107865
 30
0.0
 42
0.1651091138038715
  0
VERTEX
  5
420
  8
DEFAULT
 62
     5
 10
-14.58637541728259
 20
83.30174053932473
 30
0.0
 42
0.149158767987792
  0
SEQEND
  5
421
  8
DEFAULT
 62
     5
  0
POLYLINE
  5
422
  8
DEFAULT
 62
     5
 66
     1
 10
0.0
 20
0.0
 30
0.0
 70
     1
  0
VERTEX
  5
423
  8
DEFAULT
 62
     5
 10
-17.77358637891179
 20
79.8694487755231
 30
0.0
  0
VERTEX
  5
424
  8
DEFAULT
 62
     5
 10
-18.92173452705994
 20
79.8694487755231
 30
0.0
  0
VERTEX
  5
425
  8
DEFAULT
 62
     5
 10
-18.92173452705994
 20
84.20278210885643
 30
0.0
  0
VERTEX
  5
426
  8
DEFAULT
 62
     5
 10
-17.84766045298587
 20
84.20278210885643
 30
0.0
  0
VERTEX
  5
427
  8
DEFAULT
 62
     5
 10
-17.84766045298587
 20
83.59109256778564
 30
0.0
 42
-0.0977550519460904
  0
VERTEX
  5
428
  8
DEFAULT
 62
     5
 10
-17.37717422707887
 20
84.16921734702433
 30
0.0
 42
-0.156172018507946
  0
VERTEX
  5
429
  8
DEFAULT
 62
     5
 10
-16.90321572596694
 20
84.31389321996754
 30
0.0
 42
-0.1438170981369881
  0
VERTEX
  5
42A
  8
DEFAULT
 62
     5
 10
-16.1809937863192
 20
84.09572198548442
 30
0.0
  0
VERTEX
  5
42B
  8
DEFAULT
 62
     5
 10
-16.53284535559657
 20
83.09051413782598
 30
0.0
 42
0.1496770151887571
  0
VERTEX
  5
42C
  8
DEFAULT
 62
     5
 10
-17.04441932370522
 20
83.2768561829305
 30
0.0
 42
0.1810970994867231
  0
VERTEX
  5
42D
  8
DEFAULT
 62
     5
 10
-17.43244014379287
 20
83.14404391693748
 30
0.0
 42
0.1501348396488305
  0
VERTEX
  5
42E
  8
DEFAULT
 62
     5
 10
-17.68244028508011
 20
82.6640092167914
 30
0.0
 42
0.0509111359642144
  0
VERTEX
  5
42F
  8
DEFAULT
 62
     5
 10
-17.77358637891179
 20
81.20972665926631
 30
0.0
  0
SEQEND
  5
430
  8
DEFAULT
 62
     5
  0
POLYLINE
  5
431
  8
DEFAULT
 62
     5
 66
     1
 10
0.0
 20
0.0
 30
0.0
 70
     1
  0
VERTEX
  5
432
  8
DEFAULT
 62
     5
 10
-19.81062341594883
 20
82.94352284959717
 30
0.0
  0
VERTEX
  5
433
  8
DEFAULT
 62
     5
 10
-20.95877156409698
 20
82.75833766441198
 30
0.0
 42
0.180996809817546
  0
VERTEX
  5
434
  8
DEFAULT
 62
     5
 10
-21.21513697811098
 20
83.25746987818523
 30
0.0
 42
0.180476016766977
  0
VERTEX
  5
435
  8
DEFAULT
 62
     5
 10
-21.73365577920398
 20
83.42500433107865
 30
0.0
 42
0.2329674834671364
  0
VERTEX
  5
436
  8
DEFAULT
 62
     5
 10
-22.41016027637683
 20
83.12407861708358
 30
0.0
 42
0.1695179555120364
  0
VERTEX
  5
437
  8
DEFAULT
 62
     5
 10
-22.66247526780067
 20
82.11713434924819
 30
0.0
 42
0.1610966817175035
  0
VERTEX
  5
438
  8
DEFAULT
 62
     5
 10
-22.40408379476818
 20
81.00804844943215
 30
0.0
 42
0.2405540491094149
  0
VERTEX
  5
439
  8
DEFAULT
 62
     5
 10
-21.71050727783773
 20
80.6842635903379
 30
0.0
 42
0.1883458441869651
  0
VERTEX
  5
43A
  8
DEFAULT
 62
     5
 10
-21.17781058480686
 20
80.86771292049511
 30
0.0
 42
0.1622604489947663
  0
VERTEX
  5
43B
  8
DEFAULT
 62
     5
 10
-20.88469749002291
 20
81.49907840515274
 30
0.0
  0
VERTEX
  5
43C
  8
DEFAULT
 62
     5
 10
-19.73654934187477
 20
81.35093025700458
 30
0.0
 42
-0.172450972143607
  0
VERTEX
  5
43D
  8
DEFAULT
 62
     5
 10
-20.40726671370605
 20
80.16053694158647
 30
0.0
 42
-0.1746967243539394
  0
VERTEX
  5
43E
  8
DEFAULT
 62
     5
 10
-21.73712748925995
 20
79.75833766441198
 30
0.0
 42
-0.2163976905724357
  0
VERTEX
  5
43F
  8
DEFAULT
 62
     5
 10
-23.24754459744924
 20
80.36163643888646
 30
0.0
 42
-0.1943870566321063
  0
VERTEX
  5
440
  8
DEFAULT
 62
     5
 10
-23.81062341594884
 20
82.03206473702515
 30
0.0
 42
-0.1945054615972603
  0
VERTEX
  5
441
  8
DEFAULT
 62
     5
 10
-23.24783395371632
 20
83.71262022193707
 30
0.0
 42
-0.2157801631579943
  0
VERTEX
  5
442
  8
DEFAULT
 62
     5
 10
-21.72555380372579
 20
84.31389321996754
 30
0.0
 42
-0.1599423076957878
  0
VERTEX
  5
443
  8
DEFAULT
 62
     5
 10
-20.47671108750686
 20
83.97535175640128
 30
0.0
 42
-0.1682635697126433
  0
SEQEND
  5
444
  8
DEFAULT
 62
     5
  0
POLYLINE
  5
445
  8
DEFAULT
 62
     5
 66
     1
 10
0.0
 20
0.0
 30
0.0
 70
     1
  0
VERTEX
  5
446
  8
DEFAULT
 62
     5
 10
-25.8846974900229
 20
79.8694487755231
 30
0.0
  0
VERTEX
  5
447
  8
DEFAULT
 62
     5
 10
-25.8846974900229
 20
81.01759692367125
 30
0.0
  0
VERTEX
  5
448
  8
DEFAULT
 62
     5
 10
-24.73654934187476
 20
81.01759692367125
 30
0.0
  0
VERTEX
  5
449
  8
DEFAULT
 62
     5
 10
-24.73654934187476
 20
79.8694487755231
 30
0.0
  0
SEQEND
  5
44A
  8
DEFAULT
 62
     5
  0
POLYLINE
  5
44B
  8
DEFAULT
 62
     5
 66
     1
 10
0.0
 20
0.0
 30
0.0
 70
     1
  0
VERTEX
  5
44C
  8
DEFAULT
 62
     5
 10
-31.46340098179575
 20
79.8694487755231
 30
0.0
  0
VERTEX
  5
44D
  8
DEFAULT
 62
     5
 10
-32.84766045298587
 20
84.20278210885643
 30
0.0
  0
VERTEX
  5
44E
  8
DEFAULT
 62
     5
 10
-31.72323895358917
 20
84.20278210885643
 30
0.0
  0
VERTEX
  5
44F
  8
DEFAULT
 62
     5
 10
-30.90321572596694
 20
81.36308322022185
 30
0.0
  0
VERTEX
  5
450
  8
DEFAULT
 62
     5
 10
-30.13353992366736
 20
84.20278210885643
 30
0.0
  0
VERTEX
  5
451
  8
DEFAULT
 62
     5
 10
-29.02069267495378
 20
84.20278210885643
 30
0.0
  0
VERTEX
  5
452
  8
DEFAULT
 62
     5
 10
-28.31062313337435
 20
81.36308322022185
 30
0.0
  0
VERTEX
  5
453
  8
DEFAULT
 62
     5
 10
-27.48828505561551
 20
84.20278210885643
 30
0.0
  0
VERTEX
  5
454
  8
DEFAULT
 62
     5
 10
-26.36617897150439
 20
84.20278210885643
 30
0.0
  0
VERTEX
  5
455
  8
DEFAULT
 62
     5
 10
-27.74754431487477
 20
79.8694487755231
 30
0.0
  0
VERTEX
  5
456
  8
DEFAULT
 62
     5
 10
-28.83608620230275
 20
79.8694487755231
 30
0.0
  0
VERTEX
  5
457
  8
DEFAULT
 62
     5
 10
-29.56988239263361
 20
82.65648595384738
 30
0.0
  0
VERTEX
  5
458
  8
DEFAULT
 62
     5
 10
-30.32682708433072
 20
79.8694487755231
 30
0.0
  0
SEQEND
  5
459
  8
DEFAULT
 62
     5
  0
POLYLINE
  5
45A
  8
DEFAULT
 62
     5
 66
     1
 10
0.0
 20
0.0
 30
0.0
 70
     1
  0
VERTEX
  5
45B
  8
DEFAULT
 62
     5
 10
-37.90784542624019
 20
79.8694487755231
 30
0.0
  0
VERTEX
  5
45C
  8
DEFAULT
 62
     5
 10
-39.29210489743031
 20
84.20278210885643
 30
0.0
  0
VERTEX
  5
45D
  8
DEFAULT
 62
     5
 10
-38.16768339803361
 20
84.20278210885643
 30
0.0
  0
VERTEX
  5
45E
  8
DEFAULT
 62
     5
 10
-37.34766017041139
 20
81.36308322022185
 30
0.0
  0
VERTEX
  5
45F
  8
DEFAULT
 62
     5
 10
-36.5779843681118
 20
84.20278210885643
 30
0.0
  0
VERTEX
  5
460
  8
DEFAULT
 62
     5
 10
-35.46513711939822
 20
84.20278210885643
 30
0.0
  0
VERTEX
  5
461
  8
DEFAULT
 62
     5
 10
-34.7550675778188
 20
81.36308322022185
 30
0.0
  0
VERTEX
  5
462
  8
DEFAULT
 62
     5
 10
-33.93272950005995
 20
84.20278210885643
 30
0.0
  0
VERTEX
  5
463
  8
DEFAULT
 62
     5
 10
-32.81062341594883
 20
84.20278210885643
 30
0.0
  0
VERTEX
  5
464
  8
DEFAULT
 62
     5
 10
-34.19198875931921
 20
79.8694487755231
 30
0.0
  0
VERTEX
  5
465
  8
DEFAULT
 62
     5
 10
-35.28053064674719
 20
79.8694487755231
 30
0.0
  0
VERTEX
  5
466
  8
DEFAULT
 62
     5
 10
-36.01432683707806
 20
82.65648595384738
 30
0.0
  0
VERTEX
  5
467
  8
DEFAULT
 62
     5
 10
-36.77127152877517
 20
79.8694487755231
 30
0.0
  0
SEQEND
  5
468
  8
DEFAULT
 62
     5
  0
POLYLINE
  5
469
  8
DEFAULT
 62
     5
 66
     1
 10
0.0
 20
0.0
 30
0.0
 70
     1
  0
VERTEX
  5
46A
  8
DEFAULT
 62
     5
 10
-44.35228987068464
 20
79.8694487755231
 30
0.0
  0
VERTEX
  5
46B
  8
DEFAULT
 62
     5
 10
-45.73654934187476
 20
84.20278210885643
 30
0.0
  0
VERTEX
  5
46C
  8
DEFAULT
 62
     5
 10
-44.61212784247805
 20
84.20278210885643
 30
0.0
  0
VERTEX
  5
46D
  8
DEFAULT
 62
     5
 10
-43.79210461485583
 20
81.36308322022185
 30
0.0
  0
VERTEX
  5
46E
  8
DEFAULT
 62
     5
 10
-43.02242881255624
 20
84.20278210885643
 30
0.0
  0
VERTEX
  5
46F
  8
DEFAULT
 62
     5
 10
-41.90958156384266
 20
84.20278210885643
 30
0.0
  0
VERTEX
  5
470
  8
DEFAULT
 62
     5
 10
-41.19951202226324
 20
81.36308322022185
 30
0.0
  0
VERTEX
  5
471
  8
DEFAULT
 62
     5
 10
-40.37717394450439
 20
84.20278210885643
 30
0.0
  0
VERTEX
  5
472
  8
DEFAULT
 62
     5
 10
-39.25506786039328
 20
84.20278210885643
 30
0.0
  0
VERTEX
  5
473
  8
DEFAULT
 62
     5
 10
-40.63643320376366
 20
79.8694487755231
 30
0.0
  0
VERTEX
  5
474
  8
DEFAULT
 62
     5
 10
-41.72497509119163
 20
79.8694487755231
 30
0.0
  0
VERTEX
  5
475
  8
DEFAULT
 62
     5
 10
-42.4587712815225
 20
82.65648595384738
 30
0.0
  0
VERTEX
  5
476
  8
DEFAULT
 62
     5
 10
-43.21571597321962
 20
79.8694487755231
 30
0.0
  0
SEQEND
  5
477
  8
DEFAULT
 62
     5
  0
LINE
  5
479
  8
4
  6
CONTINUOUS
 62
     5
 10
28.59516711551998
 20
2.129061190845022
 30
0.0
 11
1.671327868319992
 21
-21.39978561095498
 31
0.0
  0
LINE
  5
47A
  8
4
  6
CONTINUOUS
 62
     5
 10
60.34516711551998
 20
-52.86355194945497
 30
0.0
 11
28.59516711551998
 21
2.129061190845022
 31
0.0
  0
LINE
  5
47B
  8
4
  6
CONTINUOUS
 62
     5
 10
29.16763443842001
 20
-52.86355194945497
 30
0.0
 11
60.34516711551998
 21
-52.86355194945497
 31
0.0
  0
LINE
  5
47C
  8
4
  6
CONTINUOUS
 62
     5
 10
1.671327868319992
 20
-21.39978561095498
 30
0.0
 11
29.16763443842001
 21
-52.86355194945497
 31
0.0
  0
LINE
  5
47E
  8
3
  6
CONTINUOUS
 62
     5
 10
29.16763443842001
 20
-52.86355194945497
 30
0.0
 11
-34.33236556157999
 21
-52.86355194945497
 31
0.0
  0
LINE
  5
47F
  8
3
  6
CONTINUOUS
 62
     5
 10
1.671327868319992
 20
-21.39978561095498
 30
0.0
 11
29.16763443842001
 21
-52.86355194945497
 31
0.0
  0
LINE
  5
480
  8
3
  6
CONTINUOUS
 62
     5
 10
-34.33236556157999
 20
-52.86355194945497
 30
0.0
 11
1.671327868319992
 21
-21.39978561095498
 31
0.0
  0
LINE
  5
482
  8
2
  6
CONTINUOUS
 62
     5
 10
-3.154832884479987
 20
57.12167433114504
 30
0.0
 11
-34.90483288447999
 21
2.129061190845022
 31
0.0
  0
LINE
  5
483
  8
2
  6
CONTINUOUS
 62
     5
 10
28.59516711551998
 20
2.129061190845022
 30
0.0
 11
-3.154832884479987
 21
57.12167433114504
 31
0.0
  0
LINE
  5
484
  8
2
  6
CONTINUOUS
 62
     5
 10
-7.408526314379998
 20
-29.33470514765497
 30
0.0
 11
28.59516711551998
 21
2.129061190845022
 31
0.0
  0
LINE
  5
485
  8
2
  6
CONTINUOUS
 62
     5
 10
-34.90483288447999
 20
2.129061190845022
 30
0.0
 11
-7.408526314379998
 21
-29.33470514765497
 31
0.0
  0
LINE
  5
487
  8
1
  6
CONTINUOUS
 62
     5
 10
-34.33236556157999
 20
-52.86355194945497
 30
0.0
 11
-66.65483288447999
 21
-52.86355194945497
 31
0.0
  0
LINE
  5
488
  8
1
  6
CONTINUOUS
 62
     5
 10
-7.408526314379998
 20
-29.33470514765497
 30
0.0
 11
-34.33236556157999
 21
-52.86355194945497
 31
0.0
  0
LINE
  5
489
  8
1
  6
CONTINUOUS
 62
     5
 10
-34.90483288447999
 20
2.129061190845022
 30
0.0
 11
-7.408526314379998
 21
-29.33470514765497
 31
0.0
  0
LINE
  5
48A
  8
1
  6
CONTINUOUS
 62
     5
 10
-66.65483288447999
 20
-52.86355194945497
 30
0.0
 11
-34.90483288447999
 21
2.129061190845022
 31
0.0
  0
ENDSEC
  0
EOF
