  0
SECTION
  2
HEADER
  9
$ACADVER
  1
AC1009
  9
$DWGCODEPAGE
  3
ansi_1252
  9
$INSBASE
 10
0.0
 20
0.0
 30
0.0
  9
$EXTMIN
 10
15.247313879987
 20
18.02530251252757
 30
0.0
  9
$EXTMAX
 10
219.408757429407
 20
282.7376478017301
 30
0.0
  9
$LIMMIN
 10
0.0
 20
0.0
  9
$LIMMAX
 10
12.0
 20
9.0
  9
$ORTHOMODE
 70
     0
  9
$REGENMODE
 70
     1
  9
$FILLMODE
 70
     1
  9
$QTEXTMODE
 70
     0
  9
$MIRRTEXT
 70
     1
  9
$DRAGMODE
 70
     2
  9
$LTSCALE
 40
1.0
  9
$OSMODE
 70
    37
  9
$ATTMODE
 70
     1
  9
$TEXTSIZE
 40
0.2
  9
$TRACEWID
 40
0.05
  9
$TEXTSTYLE
  7
STANDARD
  9
$CLAYER
  8
0
  9
$CELTYPE
  6
BYLAYER
  9
$CECOLOR
 62
   256
  9
$DIMSCALE
 40
1.0
  9
$DIMASZ
 40
0.18
  9
$DIMEXO
 40
0.0625
  9
$DIMDLI
 40
0.38
  9
$DIMRND
 40
0.0
  9
$DIMDLE
 40
0.0
  9
$DIMEXE
 40
0.18
  9
$DIMTP
 40
0.0
  9
$DIMTM
 40
0.0
  9
$DIMTXT
 40
0.18
  9
$DIMCEN
 40
0.09
  9
$DIMTSZ
 40
0.0
  9
$DIMTOL
 70
     0
  9
$DIMLIM
 70
     0
  9
$DIMTIH
 70
     1
  9
$DIMTOH
 70
     1
  9
$DIMSE1
 70
     0
  9
$DIMSE2
 70
     0
  9
$DIMTAD
 70
     0
  9
$DIMZIN
 70
     0
  9
$DIMBLK
  1

  9
$DIMASO
 70
     1
  9
$DIMSHO
 70
     1
  9
$DIMPOST
  1

  9
$DIMAPOST
  1

  9
$DIMALT
 70
     0
  9
$DIMALTD
 70
     2
  9
$DIMALTF
 40
25.4
  9
$DIMLFAC
 40
1.0
  9
$DIMTOFL
 70
     0
  9
$DIMTVP
 40
0.0
  9
$DIMTIX
 70
     0
  9
$DIMSOXD
 70
     0
  9
$DIMSAH
 70
     0
  9
$DIMBLK1
  1

  9
$DIMBLK2
  1

  9
$DIMSTYLE
  2
STANDARD
  9
$DIMCLRD
 70
     0
  9
$DIMCLRE
 70
     0
  9
$DIMCLRT
 70
     0
  9
$DIMTFAC
 40
1.0
  9
$DIMGAP
 40
0.09
  9
$LUNITS
 70
     2
  9
$LUPREC
 70
     4
  9
$SKETCHINC
 40
0.1
  9
$FILLETRAD
 40
0.5
  9
$AUNITS
 70
     0
  9
$AUPREC
 70
     0
  9
$MENU
  1
.
  9
$ELEVATION
 40
0.0
  9
$PELEVATION
 40
0.0
  9
$THICKNESS
 40
0.0
  9
$LIMCHECK
 70
     0
  9
$CHAMFERA
 40
0.0
  9
$CHAMFERB
 40
0.0
  9
$SKPOLY
 70
     0
  9
$TDCREATE
 40
2458777.87739257
  9
$TDUPDATE
 40
2458777.877407708
  9
$TDINDWG
 40
0.0000000116
  9
$TDUSRTIMER
 40
0.0000000116
  9
$USRTIMER
 70
     1
  9
$ANGBASE
 50
0.0
  9
$ANGDIR
 70
     0
  9
$PDMODE
 70
     0
  9
$PDSIZE
 40
0.0
  9
$PLINEWID
 40
0.0
  9
$COORDS
 70
     1
  9
$SPLFRAME
 70
     0
  9
$SPLINETYPE
 70
     6
  9
$SPLINESEGS
 70
     8
  9
$ATTDIA
 70
     0
  9
$ATTREQ
 70
     1
  9
$HANDLING
 70
     1
  9
$HANDSEED
  5
E3
  9
$SURFTAB1
 70
     6
  9
$SURFTAB2
 70
     6
  9
$SURFTYPE
 70
     6
  9
$SURFU
 70
     6
  9
$SURFV
 70
     6
  9
$UCSNAME
  2

  9
$UCSORG
 10
0.0
 20
0.0
 30
0.0
  9
$UCSXDIR
 10
1.0
 20
0.0
 30
0.0
  9
$UCSYDIR
 10
0.0
 20
1.0
 30
0.0
  9
$PUCSNAME
  2

  9
$PUCSORG
 10
0.0
 20
0.0
 30
0.0
  9
$PUCSXDIR
 10
1.0
 20
0.0
 30
0.0
  9
$PUCSYDIR
 10
0.0
 20
1.0
 30
0.0
  9
$USERI1
 70
     0
  9
$USERI2
 70
     0
  9
$USERI3
 70
     0
  9
$USERI4
 70
     0
  9
$USERI5
 70
     0
  9
$USERR1
 40
0.0
  9
$USERR2
 40
0.0
  9
$USERR3
 40
0.0
  9
$USERR4
 40
0.0
  9
$USERR5
 40
0.0
  9
$WORLDVIEW
 70
     1
  9
$SHADEDGE
 70
     3
  9
$SHADEDIF
 70
    70
  9
$TILEMODE
 70
     1
  9
$MAXACTVP
 70
    64
  9
$PLIMCHECK
 70
     0
  9
$PEXTMIN
 10
1.000000000000000E+20
 20
1.000000000000000E+20
 30
1.000000000000000E+20
  9
$PEXTMAX
 10
-1.000000000000000E+20
 20
-1.000000000000000E+20
 30
-1.000000000000000E+20
  9
$PLIMMIN
 10
0.0
 20
0.0
  9
$PLIMMAX
 10
12.0
 20
9.0
  9
$UNITMODE
 70
     0
  9
$VISRETAIN
 70
     1
  9
$PLINEGEN
 70
     0
  9
$PSLTSCALE
 70
     1
  0
ENDSEC
  0
SECTION
  2
TABLES
  0
TABLE
  2
VPORT
 70
     1
  0
VPORT
  2
*ACTIVE
 70
     0
 10
0.0
 20
0.0
 11
1.0
 21
1.0
 12
117.328035654697
 22
150.3814751571288
 13
0.0
 23
0.0
 14
0.5
 24
0.5
 15
0.5
 25
0.5
 16
0.0
 26
0.0
 36
1.0
 17
0.0
 27
0.0
 37
0.0
 40
270.0065921949866
 41
0.7712577338483034
 42
50.0
 43
0.0
 44
0.0
 50
0.0
 51
0.0
 71
     0
 72
   100
 73
     1
 74
     3
 75
     0
 76
     0
 77
     0
 78
     0
  0
ENDTAB
  0
TABLE
  2
LTYPE
 70
     1
  0
LTYPE
  2
CONTINUOUS
 70
     0
  3
Solid line
 72
    65
 73
     0
 40
0.0
  0
ENDTAB
  0
TABLE
  2
LAYER
 70
     4
  0
LAYER
  2
0
 70
     0
 62
     7
  6
CONTINUOUS
  0
LAYER
  2
BODY_1_MIR1
 70
     0
 62
     7
  6
CONTINUOUS
  0
LAYER
  2
BODY_2
 70
     0
 62
     7
  6
CONTINUOUS
  0
LAYER
  2
SIDE
 70
     0
 62
     7
  6
CONTINUOUS
  0
ENDTAB
  0
TABLE
  2
STYLE
 70
     1
  0
STYLE
  2
STANDARD
 70
     0
 40
0.0
 41
1.0
 50
0.0
 71
     0
 42
0.2
  3
txt
  4

  0
ENDTAB
  0
TABLE
  2
VIEW
 70
     0
  0
ENDTAB
  0
TABLE
  2
UCS
 70
     0
  0
ENDTAB
  0
TABLE
  2
APPID
 70
     1
  0
APPID
  2
ACAD
 70
     0
  0
ENDTAB
  0
TABLE
  2
DIMSTYLE
 70
     1
  0
DIMSTYLE
  2
STANDARD
 70
     0
  3

  4

  5

  6

  7

 40
1.0
 41
0.18
 42
0.0625
 43
0.38
 44
0.18
 45
0.0
 46
0.0
 47
0.0
 48
0.0
140
0.18
141
0.09
142
0.0
143
25.4
144
1.0
145
0.0
146
1.0
147
0.09
 71
     0
 72
     0
 73
     1
 74
     1
 75
     0
 76
     0
 77
     0
 78
     0
170
     0
171
     2
172
     0
173
     0
174
     0
175
     0
176
     0
177
     0
178
     0
  0
ENDTAB
  0
ENDSEC
  0
SECTION
  2
BLOCKS
  0
BLOCK
  8
0
  2
$MODEL_SPACE
 70
     0
 10
0.0
 20
0.0
 30
0.0
  3
$MODEL_SPACE
  1

  0
ENDBLK
  5
21
  8
0
  0
BLOCK
 67
     1
  8
0
  2
$PAPER_SPACE
 70
     0
 10
0.0
 20
0.0
 30
0.0
  3
$PAPER_SPACE
  1

  0
ENDBLK
  5
1D
 67
     1
  8
0
  0
BLOCK
  8
0
  2
SE
 70
     0
 10
0.0
 20
0.0
 30
0.0
  3
SE
  1

  0
LINE
  5
A3
  8
BODY_1_MIR1
  6
CONTINUOUS
 62
     7
 10
19.69439960937189
 20
221.1089451085168
 30
0.0
 11
35.11175981244774
 21
216.9778758926829
 31
0.0
  0
ARC
  5
A4
  8
BODY_1_MIR1
  6
CONTINUOUS
 62
     7
 10
21.247313879987
 20
226.9045000662512
 30
0.0
 40
6.000000000000002
 50
83.28994348730744
 51
255.0000000000001
  0
ARC
  5
A5
  8
BODY_1_MIR1
  6
CONTINUOUS
 62
     7
 10
67.22212573947219
 20
281.7061175585553
 30
0.0
 40
30.23999999999999
 50
259.6334876358754
 51
315.4710431989762
  0
ARC
  5
A6
  8
BODY_1_MIR1
  6
CONTINUOUS
 62
     7
 10
142.247313879987
 20
207.9045000662512
 30
0.0
 40
75.0
 50
0.0
 51
30.77086110836596
  0
LINE
  5
A7
  8
BODY_1_MIR1
  6
CONTINUOUS
 62
     7
 10
67.247313879987
 20
207.9045000662512
 30
0.0
 11
217.247313879987
 21
207.9045000662512
 31
0.0
  0
ARC
  5
A8
  8
BODY_1_MIR1
  6
CONTINUOUS
 62
     7
 10
67.247313879987
 20
274.6164324511136
 30
0.0
 40
66.71193238486237
 50
244.9263780341371
 51
270.0
  0
ARC
  5
A9
  8
BODY_1_MIR1
  6
CONTINUOUS
 62
     7
 10
142.247313879987
 20
207.9045000662512
 30
0.0
 40
75.00000000000001
 50
93.82255372927438
 51
104.9370218850814
  0
LINE
  5
AA
  8
BODY_1_MIR1
  6
CONTINUOUS
 62
     7
 10
147.247313879987
 20
239.6588102280493
 30
0.0
 11
147.247313879987
 21
282.73764780173
 31
0.0
  0
LINE
  5
AB
  8
BODY_1_MIR1
  6
CONTINUOUS
 62
     7
 10
137.247313879987
 20
239.6588102280493
 30
0.0
 11
147.247313879987
 21
239.6588102280493
 31
0.0
  0
LINE
  5
AC
  8
BODY_1_MIR1
  6
CONTINUOUS
 62
     7
 10
137.247313879987
 20
282.7376478017301
 30
0.0
 11
137.247313879987
 21
239.6588102280493
 31
0.0
  0
ARC
  5
AD
  8
BODY_1_MIR1
  6
CONTINUOUS
 62
     7
 10
142.247313879987
 20
207.9045000662512
 30
0.0
 40
75.00000000000003
 50
75.06297811491868
 51
86.17744627072568
  0
LINE
  5
AE
  8
BODY_1_MIR1
  6
CONTINUOUS
 62
     7
 10
160.2131251023461
 20
236.6353038215051
 30
0.0
 11
171.067910060048
 21
277.1459127888832
 31
0.0
  0
LINE
  5
AF
  8
BODY_1_MIR1
  6
CONTINUOUS
 62
     7
 10
150.5538668394554
 20
239.2234942725303
 30
0.0
 11
160.2131251023461
 21
236.6353038215051
 31
0.0
  0
LINE
  5
B0
  8
BODY_1_MIR1
  6
CONTINUOUS
 62
     7
 10
161.5791014049171
 20
280.3702298361981
 30
0.0
 11
150.5538668394554
 21
239.2234942725303
 31
0.0
  0
ARC
  5
B1
  8
BODY_1_MIR1
  6
CONTINUOUS
 62
     7
 10
142.247313879987
 20
207.9045000662512
 30
0.0
 40
75.00000000000001
 50
56.56018723248486
 51
67.40128509616397
  0
LINE
  5
B2
  8
BODY_1_MIR1
  6
CONTINUOUS
 62
     7
 10
171.9545959798082
 20
230.3590220179231
 30
0.0
 11
191.5971746755754
 21
264.3809663106618
 31
0.0
  0
LINE
  5
B3
  8
BODY_1_MIR1
  6
CONTINUOUS
 62
     7
 10
163.2943419419638
 20
235.3590220179231
 30
0.0
 11
171.9545959798082
 21
230.3590220179231
 31
0.0
  0
LINE
  5
B4
  8
BODY_1_MIR1
  6
CONTINUOUS
 62
     7
 10
183.5768673374203
 20
270.4893865086597
 30
0.0
 11
163.2943419419638
 21
235.3590220179231
 31
0.0
  0
ARC
  5
B5
  8
BODY_1_MIR1
  6
CONTINUOUS
 62
     7
 10
142.247313879987
 20
207.9045000662512
 30
0.0
 40
75.00000000000001
 50
38.54245010531604
 51
48.85262201388262
  0
LINE
  5
B6
  8
BODY_1_MIR1
  6
CONTINUOUS
 62
     7
 10
181.6715646757725
 20
221.2576830501712
 30
0.0
 11
206.6888285253948
 21
246.2749468997935
 31
0.0
  0
LINE
  5
B7
  8
BODY_1_MIR1
  6
CONTINUOUS
 62
     7
 10
174.600496863907
 20
228.3287508620367
 30
0.0
 11
181.6715646757725
 21
221.2576830501712
 31
0.0
  0
LINE
  5
B8
  8
BODY_1_MIR1
  6
CONTINUOUS
 62
     7
 10
200.9083182304969
 20
254.6365722286266
 30
0.0
 11
174.600496863907
 21
228.3287508620367
 31
0.0
  0
ARC
  5
B9
  8
BODY_1_MIR1
  6
CONTINUOUS
 62
     7
 10
142.247313879987
 20
207.9045000662512
 30
0.0
 40
75.00000000000001
 50
112.5987149038361
 51
123.4398127675152
  0
LINE
  5
BA
  8
BODY_1_MIR1
  6
CONTINUOUS
 62
     7
 10
133.9407609205186
 20
239.2234942725303
 30
0.0
 11
122.9155263550569
 21
280.3702298361981
 31
0.0
  0
LINE
  5
BB
  8
BODY_1_MIR1
  6
CONTINUOUS
 62
     7
 10
124.2815026576279
 20
236.6353038215051
 30
0.0
 11
133.9407609205186
 21
239.2234942725303
 31
0.0
  0
LINE
  5
BC
  8
BODY_1_MIR1
  6
CONTINUOUS
 62
     7
 10
113.426717699926
 20
277.1459127888831
 30
0.0
 11
124.2815026576279
 21
236.6353038215051
 31
0.0
  0
ARC
  5
BD
  8
BODY_1_MIR1
  6
CONTINUOUS
 62
     7
 10
142.247313879987
 20
207.9045000662512
 30
0.0
 40
75.0
 50
131.1473779861174
 51
135.4710431989762
  0
LINE
  5
BE
  8
BODY_1_MIR1
  6
CONTINUOUS
 62
     7
 10
121.2002858180101
 20
235.3590220179231
 30
0.0
 11
100.9177604225537
 21
270.4893865086597
 31
0.0
  0
LINE
  5
BF
  8
BODY_1_MIR1
  6
CONTINUOUS
 62
     7
 10
112.5400317801658
 20
230.3590220179231
 30
0.0
 11
121.2002858180101
 21
235.3590220179231
 31
0.0
  0
LINE
  5
C0
  8
BODY_1_MIR1
  6
CONTINUOUS
 62
     7
 10
92.89745308439862
 20
264.3809663106618
 30
0.0
 11
112.5400317801658
 21
230.3590220179231
 31
0.0
  0
CIRCLE
  5
C1
  8
BODY_1_MIR1
  6
CONTINUOUS
 62
     7
 10
59.64731387998701
 20
232.9045000662512
 30
0.0
 40
3.0
  0
ARC
  5
C2
  8
BODY_1_MIR1
  6
CONTINUOUS
 62
     7
 10
40.24731387998699
 20
216.9084578876854
 30
0.0
 40
3.000000000000001
 50
216.5145134626745
 51
244.9263780341372
  0
ARC
  5
C3
  8
BODY_1_MIR1
  6
CONTINUOUS
 62
     7
 10
33.81766458693514
 20
212.1482467612375
 30
0.0
 40
5.000000000000006
 50
36.51451346267457
 51
75.00000000000001
  0
ARC
  5
C4
  8
BODY_1_MIR1
  6
CONTINUOUS
 62
     7
 10
26.38849633855438
 20
270.6031069425318
 30
0.0
 40
38.0
 50
263.2899434873074
 51
328.2177253076653
  0
ARC
  5
C5
  8
BODY_1_MIR1
  6
CONTINUOUS
 62
     7
 10
61.24077897185846
 20
249.0087003693405
 30
0.0
 40
3.0
 50
79.63348763587524
 51
148.2177253076651
  0
ENDBLK
  5
C7
  8
0
  0
BLOCK
  8
0
  2
SE1
 70
     0
 10
0.0
 20
0.0
 30
0.0
  3
SE1
  1

  0
ARC
  5
C9
  8
BODY_2
  6
CONTINUOUS
 62
     7
 10
42.41664558030767
 20
122.3132741290906
 30
0.0
 40
3.012167781387911
 50
216.5367631947303
 51
244.9289053232488
  0
ARC
  5
CA
  8
BODY_2
  6
CONTINUOUS
 62
     7
 10
35.97915177262392
 20
117.5433840587636
 30
0.0
 40
4.999896734483154
 50
36.53676319473023
 51
75.0
  0
LINE
  5
CB
  8
BODY_2
  6
CONTINUOUS
 62
     7
 10
21.85584315879188
 20
126.5039871900159
 30
0.0
 11
37.27322027105405
 21
122.3729134433792
 31
0.0
  0
ARC
  5
CC
  8
BODY_2
  6
CONTINUOUS
 62
     7
 10
23.40875742940699
 20
132.2995421477504
 30
0.0
 40
5.999999999947969
 50
83.28972172110866
 51
255.0000000000004
  0
ARC
  5
CD
  8
BODY_2
  6
CONTINUOUS
 62
     7
 10
28.55004848640252
 20
175.9976145755424
 30
0.0
 40
37.99948190197109
 50
263.2897217211088
 51
328.2187706875943
  0
ARC
  5
CE
  8
BODY_2
  6
CONTINUOUS
 62
     7
 10
63.40239884384346
 20
154.4031674216879
 30
0.0
 40
3.000597127012217
 50
79.64446198058654
 51
148.2045090612347
  0
ARC
  5
CF
  8
BODY_2
  6
CONTINUOUS
 62
     7
 10
69.38372721687574
 20
187.1008839700747
 30
0.0
 40
30.23969409479861
 50
259.6325350319316
 51
315.4710898970011
  0
ARC
  5
D0
  8
BODY_2
  6
CONTINUOUS
 62
     7
 10
144.408757429407
 20
113.2995421477504
 30
0.0
 40
74.99999999999999
 50
0.0
 51
135.4710898970011
  0
LINE
  5
D1
  8
BODY_2
  6
CONTINUOUS
 62
     7
 10
69.4086920752653
 20
113.2995421477504
 30
0.0
 11
219.408757429407
 21
113.2995421477504
 31
0.0
  0
ARC
  5
D2
  8
BODY_2
  6
CONTINUOUS
 62
     7
 10
69.4086920752653
 20
180.0108795543831
 30
0.0
 40
66.71133893630405
 50
244.9289053232488
 51
270.0
  0
ENDBLK
  5
D4
  8
0
  0
BLOCK
  8
0
  2
SE2
 70
     0
 10
0.0
 20
0.0
 30
0.0
  3
SE2
  1

  0
LINE
  5
D6
  8
SIDE
  6
CONTINUOUS
 62
     7
 10
68.01478994693043
 20
18.0253025125276
 30
0.0
 11
208.0147899469304
 21
18.02530251252757
 31
0.0
  0
LINE
  5
D7
  8
SIDE
  6
CONTINUOUS
 62
     7
 10
213.0147899469304
 20
18.02530251252757
 30
0.0
 11
208.0147899469304
 21
18.02530251252757
 31
0.0
  0
LINE
  5
D8
  8
SIDE
  6
CONTINUOUS
 62
     7
 10
68.01478994693043
 20
18.0253025125276
 30
0.0
 11
63.01478994693043
 21
18.0253025125276
 31
0.0
  0
ARC
  5
D9
  8
SIDE
  6
CONTINUOUS
 62
     7
 10
138.0147899469304
 20
18.02530251252758
 30
0.0
 40
75.0
 50
0.0
 51
180.0
  0
ENDBLK
  5
DB
  8
0
  0
ENDSEC
  0
SECTION
  2
ENTITIES
  0
ARC
  5
6F
  8
BODY_1_MIR1
  6
CONTINUOUS
 62
     5
 10
61.24077897185846
 20
249.0087003693405
 30
0.0
 40
3.0
 50
79.63348763587524
 51
148.2177253076651
  0
ARC
  5
70
  8
BODY_1_MIR1
  6
CONTINUOUS
 62
     5
 10
26.38849633855438
 20
270.6031069425318
 30
0.0
 40
38.0
 50
263.2899434873074
 51
328.2177253076653
  0
ARC
  5
71
  8
BODY_1_MIR1
  6
CONTINUOUS
 62
     5
 10
33.81766458693514
 20
212.1482467612375
 30
0.0
 40
5.000000000000006
 50
36.51451346267457
 51
75.00000000000001
  0
ARC
  5
72
  8
BODY_1_MIR1
  6
CONTINUOUS
 62
     5
 10
40.24731387998699
 20
216.9084578876854
 30
0.0
 40
3.000000000000001
 50
216.5145134626745
 51
244.9263780341372
  0
CIRCLE
  5
73
  8
BODY_1_MIR1
  6
CONTINUOUS
 62
     5
 10
59.64731387998701
 20
232.9045000662512
 30
0.0
 40
3.0
  0
LINE
  5
74
  8
BODY_1_MIR1
  6
CONTINUOUS
 62
     5
 10
92.89745308439862
 20
264.3809663106618
 30
0.0
 11
112.5400317801658
 21
230.3590220179231
 31
0.0
  0
LINE
  5
75
  8
BODY_1_MIR1
  6
CONTINUOUS
 62
     5
 10
112.5400317801658
 20
230.3590220179231
 30
0.0
 11
121.2002858180101
 21
235.3590220179231
 31
0.0
  0
LINE
  5
76
  8
BODY_1_MIR1
  6
CONTINUOUS
 62
     5
 10
121.2002858180101
 20
235.3590220179231
 30
0.0
 11
100.9177604225537
 21
270.4893865086597
 31
0.0
  0
ARC
  5
77
  8
BODY_1_MIR1
  6
CONTINUOUS
 62
     5
 10
142.247313879987
 20
207.9045000662512
 30
0.0
 40
75.0
 50
131.1473779861174
 51
135.4710431989762
  0
LINE
  5
78
  8
BODY_1_MIR1
  6
CONTINUOUS
 62
     5
 10
113.426717699926
 20
277.1459127888831
 30
0.0
 11
124.2815026576279
 21
236.6353038215051
 31
0.0
  0
LINE
  5
79
  8
BODY_1_MIR1
  6
CONTINUOUS
 62
     5
 10
124.2815026576279
 20
236.6353038215051
 30
0.0
 11
133.9407609205186
 21
239.2234942725303
 31
0.0
  0
LINE
  5
7A
  8
BODY_1_MIR1
  6
CONTINUOUS
 62
     5
 10
133.9407609205186
 20
239.2234942725303
 30
0.0
 11
122.9155263550569
 21
280.3702298361981
 31
0.0
  0
ARC
  5
7B
  8
BODY_1_MIR1
  6
CONTINUOUS
 62
     5
 10
142.247313879987
 20
207.9045000662512
 30
0.0
 40
75.00000000000001
 50
112.5987149038361
 51
123.4398127675152
  0
LINE
  5
7C
  8
BODY_1_MIR1
  6
CONTINUOUS
 62
     5
 10
200.9083182304969
 20
254.6365722286266
 30
0.0
 11
174.600496863907
 21
228.3287508620367
 31
0.0
  0
LINE
  5
7D
  8
BODY_1_MIR1
  6
CONTINUOUS
 62
     5
 10
174.600496863907
 20
228.3287508620367
 30
0.0
 11
181.6715646757725
 21
221.2576830501712
 31
0.0
  0
LINE
  5
7E
  8
BODY_1_MIR1
  6
CONTINUOUS
 62
     5
 10
181.6715646757725
 20
221.2576830501712
 30
0.0
 11
206.6888285253948
 21
246.2749468997935
 31
0.0
  0
ARC
  5
7F
  8
BODY_1_MIR1
  6
CONTINUOUS
 62
     5
 10
142.247313879987
 20
207.9045000662512
 30
0.0
 40
75.00000000000001
 50
38.54245010531604
 51
48.85262201388262
  0
LINE
  5
80
  8
BODY_1_MIR1
  6
CONTINUOUS
 62
     5
 10
183.5768673374203
 20
270.4893865086597
 30
0.0
 11
163.2943419419638
 21
235.3590220179231
 31
0.0
  0
LINE
  5
81
  8
BODY_1_MIR1
  6
CONTINUOUS
 62
     5
 10
163.2943419419638
 20
235.3590220179231
 30
0.0
 11
171.9545959798082
 21
230.3590220179231
 31
0.0
  0
LINE
  5
82
  8
BODY_1_MIR1
  6
CONTINUOUS
 62
     5
 10
171.9545959798082
 20
230.3590220179231
 30
0.0
 11
191.5971746755754
 21
264.3809663106618
 31
0.0
  0
ARC
  5
83
  8
BODY_1_MIR1
  6
CONTINUOUS
 62
     5
 10
142.247313879987
 20
207.9045000662512
 30
0.0
 40
75.00000000000001
 50
56.56018723248486
 51
67.40128509616397
  0
LINE
  5
84
  8
BODY_1_MIR1
  6
CONTINUOUS
 62
     5
 10
161.5791014049171
 20
280.3702298361981
 30
0.0
 11
150.5538668394554
 21
239.2234942725303
 31
0.0
  0
LINE
  5
85
  8
BODY_1_MIR1
  6
CONTINUOUS
 62
     5
 10
150.5538668394554
 20
239.2234942725303
 30
0.0
 11
160.2131251023461
 21
236.6353038215051
 31
0.0
  0
LINE
  5
86
  8
BODY_1_MIR1
  6
CONTINUOUS
 62
     5
 10
160.2131251023461
 20
236.6353038215051
 30
0.0
 11
171.067910060048
 21
277.1459127888832
 31
0.0
  0
ARC
  5
87
  8
BODY_1_MIR1
  6
CONTINUOUS
 62
     5
 10
142.247313879987
 20
207.9045000662512
 30
0.0
 40
75.00000000000003
 50
75.06297811491868
 51
86.17744627072568
  0
LINE
  5
88
  8
BODY_1_MIR1
  6
CONTINUOUS
 62
     5
 10
137.247313879987
 20
282.7376478017301
 30
0.0
 11
137.247313879987
 21
239.6588102280493
 31
0.0
  0
LINE
  5
89
  8
BODY_1_MIR1
  6
CONTINUOUS
 62
     5
 10
137.247313879987
 20
239.6588102280493
 30
0.0
 11
147.247313879987
 21
239.6588102280493
 31
0.0
  0
LINE
  5
8A
  8
BODY_1_MIR1
  6
CONTINUOUS
 62
     5
 10
147.247313879987
 20
239.6588102280493
 30
0.0
 11
147.247313879987
 21
282.73764780173
 31
0.0
  0
ARC
  5
8B
  8
BODY_1_MIR1
  6
CONTINUOUS
 62
     5
 10
142.247313879987
 20
207.9045000662512
 30
0.0
 40
75.00000000000001
 50
93.82255372927438
 51
104.9370218850814
  0
ARC
  5
8C
  8
BODY_1_MIR1
  6
CONTINUOUS
 62
     5
 10
67.247313879987
 20
274.6164324511136
 30
0.0
 40
66.71193238486237
 50
244.9263780341371
 51
270.0
  0
LINE
  5
8D
  8
BODY_1_MIR1
  6
CONTINUOUS
 62
     5
 10
67.247313879987
 20
207.9045000662512
 30
0.0
 11
217.247313879987
 21
207.9045000662512
 31
0.0
  0
ARC
  5
8E
  8
BODY_1_MIR1
  6
CONTINUOUS
 62
     5
 10
142.247313879987
 20
207.9045000662512
 30
0.0
 40
75.0
 50
0.0
 51
30.77086110836596
  0
ARC
  5
8F
  8
BODY_1_MIR1
  6
CONTINUOUS
 62
     5
 10
67.22212573947219
 20
281.7061175585553
 30
0.0
 40
30.23999999999999
 50
259.6334876358754
 51
315.4710431989762
  0
ARC
  5
90
  8
BODY_1_MIR1
  6
CONTINUOUS
 62
     5
 10
21.247313879987
 20
226.9045000662512
 30
0.0
 40
6.000000000000002
 50
83.28994348730744
 51
255.0000000000001
  0
LINE
  5
91
  8
BODY_1_MIR1
  6
CONTINUOUS
 62
     5
 10
19.69439960937189
 20
221.1089451085168
 30
0.0
 11
35.11175981244774
 21
216.9778758926829
 31
0.0
  0
ARC
  5
93
  8
BODY_2
  6
CONTINUOUS
 62
     5
 10
69.4086920752653
 20
180.0108795543831
 30
0.0
 40
66.71133893630405
 50
244.9289053232488
 51
270.0
  0
LINE
  5
94
  8
BODY_2
  6
CONTINUOUS
 62
     5
 10
69.4086920752653
 20
113.2995421477504
 30
0.0
 11
219.408757429407
 21
113.2995421477504
 31
0.0
  0
ARC
  5
95
  8
BODY_2
  6
CONTINUOUS
 62
     5
 10
144.408757429407
 20
113.2995421477504
 30
0.0
 40
74.99999999999999
 50
0.0
 51
135.4710898970011
  0
ARC
  5
96
  8
BODY_2
  6
CONTINUOUS
 62
     5
 10
69.38372721687574
 20
187.1008839700747
 30
0.0
 40
30.23969409479861
 50
259.6325350319316
 51
315.4710898970011
  0
ARC
  5
97
  8
BODY_2
  6
CONTINUOUS
 62
     5
 10
63.40239884384346
 20
154.4031674216879
 30
0.0
 40
3.000597127012217
 50
79.64446198058654
 51
148.2045090612347
  0
ARC
  5
98
  8
BODY_2
  6
CONTINUOUS
 62
     5
 10
28.55004848640252
 20
175.9976145755424
 30
0.0
 40
37.99948190197109
 50
263.2897217211088
 51
328.2187706875943
  0
ARC
  5
99
  8
BODY_2
  6
CONTINUOUS
 62
     5
 10
23.40875742940699
 20
132.2995421477504
 30
0.0
 40
5.999999999947969
 50
83.28972172110866
 51
255.0000000000004
  0
LINE
  5
9A
  8
BODY_2
  6
CONTINUOUS
 62
     5
 10
21.85584315879188
 20
126.5039871900159
 30
0.0
 11
37.27322027105405
 21
122.3729134433792
 31
0.0
  0
ARC
  5
9B
  8
BODY_2
  6
CONTINUOUS
 62
     5
 10
35.97915177262392
 20
117.5433840587636
 30
0.0
 40
4.999896734483154
 50
36.53676319473023
 51
75.0
  0
ARC
  5
9C
  8
BODY_2
  6
CONTINUOUS
 62
     5
 10
42.41664558030767
 20
122.3132741290906
 30
0.0
 40
3.012167781387911
 50
216.5367631947303
 51
244.9289053232488
  0
ARC
  5
9E
  8
SIDE
  6
CONTINUOUS
 62
     5
 10
138.0147899469304
 20
18.02530251252758
 30
0.0
 40
75.0
 50
0.0
 51
180.0
  0
LINE
  5
9F
  8
SIDE
  6
CONTINUOUS
 62
     5
 10
68.01478994693043
 20
18.0253025125276
 30
0.0
 11
63.01478994693043
 21
18.0253025125276
 31
0.0
  0
LINE
  5
A0
  8
SIDE
  6
CONTINUOUS
 62
     5
 10
213.0147899469304
 20
18.02530251252757
 30
0.0
 11
208.0147899469304
 21
18.02530251252757
 31
0.0
  0
LINE
  5
A1
  8
SIDE
  6
CONTINUOUS
 62
     5
 10
68.01478994693043
 20
18.0253025125276
 30
0.0
 11
208.0147899469304
 21
18.02530251252757
 31
0.0
  0
ENDSEC
  0
EOF
