  0
SECTION
  2
HEADER
  9
$ACADVER
  1
AC1009
  9
$DWGCODEPAGE
  3
ansi_1252
  9
$INSBASE
 10
0.0
 20
0.0
 30
0.0
  9
$EXTMIN
 10
-112.2795335164123
 20
-113.0349948155935
 30
0.0
  9
$EXTMAX
 10
90.92046648358766
 20
130.2411108037639
 30
0.0
  9
$LIMMIN
 10
0.0
 20
0.0
  9
$LIMMAX
 10
12.0
 20
9.0
  9
$ORTHOMODE
 70
     0
  9
$REGENMODE
 70
     1
  9
$FILLMODE
 70
     1
  9
$QTEXTMODE
 70
     0
  9
$MIRRTEXT
 70
     1
  9
$DRAGMODE
 70
     2
  9
$LTSCALE
 40
1.0
  9
$OSMODE
 70
    37
  9
$ATTMODE
 70
     1
  9
$TEXTSIZE
 40
0.2
  9
$TRACEWID
 40
0.05
  9
$TEXTSTYLE
  7
STANDARD
  9
$CLAYER
  8
DEFAULT
  9
$CELTYPE
  6
BYLAYER
  9
$CECOLOR
 62
   256
  9
$DIMSCALE
 40
1.0
  9
$DIMASZ
 40
0.18
  9
$DIMEXO
 40
0.0625
  9
$DIMDLI
 40
0.38
  9
$DIMRND
 40
0.0
  9
$DIMDLE
 40
0.0
  9
$DIMEXE
 40
0.18
  9
$DIMTP
 40
0.0
  9
$DIMTM
 40
0.0
  9
$DIMTXT
 40
0.18
  9
$DIMCEN
 40
0.09
  9
$DIMTSZ
 40
0.0
  9
$DIMTOL
 70
     0
  9
$DIMLIM
 70
     0
  9
$DIMTIH
 70
     1
  9
$DIMTOH
 70
     1
  9
$DIMSE1
 70
     0
  9
$DIMSE2
 70
     0
  9
$DIMTAD
 70
     0
  9
$DIMZIN
 70
     0
  9
$DIMBLK
  1

  9
$DIMASO
 70
     1
  9
$DIMSHO
 70
     1
  9
$DIMPOST
  1

  9
$DIMAPOST
  1

  9
$DIMALT
 70
     0
  9
$DIMALTD
 70
     2
  9
$DIMALTF
 40
25.4
  9
$DIMLFAC
 40
1.0
  9
$DIMTOFL
 70
     0
  9
$DIMTVP
 40
0.0
  9
$DIMTIX
 70
     0
  9
$DIMSOXD
 70
     0
  9
$DIMSAH
 70
     0
  9
$DIMBLK1
  1

  9
$DIMBLK2
  1

  9
$DIMSTYLE
  2
STANDARD
  9
$DIMCLRD
 70
     0
  9
$DIMCLRE
 70
     0
  9
$DIMCLRT
 70
     0
  9
$DIMTFAC
 40
1.0
  9
$DIMGAP
 40
0.09
  9
$LUNITS
 70
     2
  9
$LUPREC
 70
     4
  9
$SKETCHINC
 40
0.1
  9
$FILLETRAD
 40
0.5
  9
$AUNITS
 70
     0
  9
$AUPREC
 70
     0
  9
$MENU
  1
.
  9
$ELEVATION
 40
0.0
  9
$PELEVATION
 40
0.0
  9
$THICKNESS
 40
0.0
  9
$LIMCHECK
 70
     0
  9
$CHAMFERA
 40
0.0
  9
$CHAMFERB
 40
0.0
  9
$SKPOLY
 70
     0
  9
$TDCREATE
 40
2458791.886373137
  9
$TDUPDATE
 40
2458791.886388553
  9
$TDINDWG
 40
0.0000000116
  9
$TDUSRTIMER
 40
0.0000000116
  9
$USRTIMER
 70
     1
  9
$ANGBASE
 50
0.0
  9
$ANGDIR
 70
     0
  9
$PDMODE
 70
     0
  9
$PDSIZE
 40
0.0
  9
$PLINEWID
 40
0.0
  9
$COORDS
 70
     1
  9
$SPLFRAME
 70
     0
  9
$SPLINETYPE
 70
     6
  9
$SPLINESEGS
 70
     8
  9
$ATTDIA
 70
     0
  9
$ATTREQ
 70
     1
  9
$HANDLING
 70
     1
  9
$HANDSEED
  5
487
  9
$SURFTAB1
 70
     6
  9
$SURFTAB2
 70
     6
  9
$SURFTYPE
 70
     6
  9
$SURFU
 70
     6
  9
$SURFV
 70
     6
  9
$UCSNAME
  2

  9
$UCSORG
 10
0.0
 20
0.0
 30
0.0
  9
$UCSXDIR
 10
1.0
 20
0.0
 30
0.0
  9
$UCSYDIR
 10
0.0
 20
1.0
 30
0.0
  9
$PUCSNAME
  2

  9
$PUCSORG
 10
0.0
 20
0.0
 30
0.0
  9
$PUCSXDIR
 10
1.0
 20
0.0
 30
0.0
  9
$PUCSYDIR
 10
0.0
 20
1.0
 30
0.0
  9
$USERI1
 70
     0
  9
$USERI2
 70
     0
  9
$USERI3
 70
     0
  9
$USERI4
 70
     0
  9
$USERI5
 70
     0
  9
$USERR1
 40
0.0
  9
$USERR2
 40
0.0
  9
$USERR3
 40
0.0
  9
$USERR4
 40
0.0
  9
$USERR5
 40
0.0
  9
$WORLDVIEW
 70
     1
  9
$SHADEDGE
 70
     3
  9
$SHADEDIF
 70
    70
  9
$TILEMODE
 70
     1
  9
$MAXACTVP
 70
    64
  9
$PLIMCHECK
 70
     0
  9
$PEXTMIN
 10
1.000000000000000E+20
 20
1.000000000000000E+20
 30
1.000000000000000E+20
  9
$PEXTMAX
 10
-1.000000000000000E+20
 20
-1.000000000000000E+20
 30
-1.000000000000000E+20
  9
$PLIMMIN
 10
0.0
 20
0.0
  9
$PLIMMAX
 10
12.0
 20
9.0
  9
$UNITMODE
 70
     0
  9
$VISRETAIN
 70
     1
  9
$PLINEGEN
 70
     0
  9
$PSLTSCALE
 70
     1
  0
ENDSEC
  0
SECTION
  2
TABLES
  0
TABLE
  2
VPORT
 70
     1
  0
VPORT
  2
*ACTIVE
 70
     0
 10
0.0
 20
0.0
 11
1.0
 21
1.0
 12
-10.67953351641233
 22
8.603057994085205
 13
0.0
 23
0.0
 14
0.5
 24
0.5
 15
0.5
 25
0.5
 16
0.0
 26
0.0
 36
1.0
 17
0.0
 27
0.0
 37
0.0
 40
248.1416277317446
 41
0.8352649327506804
 42
50.0
 43
0.0
 44
0.0
 50
0.0
 51
0.0
 71
     0
 72
   100
 73
     1
 74
     3
 75
     0
 76
     0
 77
     0
 78
     0
  0
ENDTAB
  0
TABLE
  2
LTYPE
 70
     1
  0
LTYPE
  2
CONTINUOUS
 70
     0
  3
Solid line
 72
    65
 73
     0
 40
0.0
  0
ENDTAB
  0
TABLE
  2
LAYER
 70
     4
  0
LAYER
  2
0
 70
     0
 62
     7
  6
CONTINUOUS
  0
LAYER
  2
DEFAULT
 70
     0
 62
     7
  6
CONTINUOUS
  0
LAYER
  2
1
 70
     0
 62
     7
  6
CONTINUOUS
  0
LAYER
  2
2
 70
     0
 62
     7
  6
CONTINUOUS
  0
ENDTAB
  0
TABLE
  2
STYLE
 70
     1
  0
STYLE
  2
STANDARD
 70
     0
 40
0.0
 41
1.0
 50
0.0
 71
     0
 42
0.2
  3
txt
  4

  0
ENDTAB
  0
TABLE
  2
VIEW
 70
     0
  0
ENDTAB
  0
TABLE
  2
UCS
 70
     0
  0
ENDTAB
  0
TABLE
  2
APPID
 70
     1
  0
APPID
  2
ACAD
 70
     0
  0
ENDTAB
  0
TABLE
  2
DIMSTYLE
 70
     1
  0
DIMSTYLE
  2
STANDARD
 70
     0
  3

  4

  5

  6

  7

 40
1.0
 41
0.18
 42
0.0625
 43
0.38
 44
0.18
 45
0.0
 46
0.0
 47
0.0
 48
0.0
140
0.18
141
0.09
142
0.0
143
25.4
144
1.0
145
0.0
146
1.0
147
0.09
 71
     0
 72
     0
 73
     1
 74
     1
 75
     0
 76
     0
 77
     0
 78
     0
170
     0
171
     2
172
     0
173
     0
174
     0
175
     0
176
     0
177
     0
178
     0
  0
ENDTAB
  0
ENDSEC
  0
SECTION
  2
BLOCKS
  0
BLOCK
  8
0
  2
$MODEL_SPACE
 70
     0
 10
0.0
 20
0.0
 30
0.0
  3
$MODEL_SPACE
  1

  0
ENDBLK
  5
21
  8
0
  0
BLOCK
 67
     1
  8
0
  2
$PAPER_SPACE
 70
     0
 10
0.0
 20
0.0
 30
0.0
  3
$PAPER_SPACE
  1

  0
ENDBLK
  5
1D
 67
     1
  8
0
  0
BLOCK
  8
0
  2
SE
 70
     0
 10
0.0
 20
0.0
 30
0.0
  3
SE
  1

  0
LINE
  5
470
  8
1
  6
CONTINUOUS
 62
     7
 10
110.0
 20
196.2
 30
0.0
 11
186.2
 21
196.2
 31
0.0
  0
LINE
  5
471
  8
1
  6
CONTINUOUS
 62
     7
 10
186.2
 20
196.2
 30
0.0
 11
237.0
 21
323.2
 31
0.0
  0
LINE
  5
472
  8
1
  6
CONTINUOUS
 62
     7
 10
237.0
 20
323.2
 30
0.0
 11
110.0
 21
323.2
 31
0.0
  0
LINE
  5
473
  8
1
  6
CONTINUOUS
 62
     7
 10
110.0
 20
323.2
 30
0.0
 11
110.0
 21
196.2
 31
0.0
  0
LINE
  5
474
  8
1
  6
CONTINUOUS
 62
     7
 10
313.2
 20
323.2
 30
0.0
 11
237.0
 21
323.2
 31
0.0
  0
LINE
  5
475
  8
1
  6
CONTINUOUS
 62
     7
 10
237.0
 20
323.2
 30
0.0
 11
186.2
 21
196.2
 31
0.0
  0
LINE
  5
476
  8
1
  6
CONTINUOUS
 62
     7
 10
186.2
 20
196.2
 30
0.0
 11
313.2
 21
196.2
 31
0.0
  0
LINE
  5
477
  8
1
  6
CONTINUOUS
 62
     7
 10
313.2
 20
196.2
 30
0.0
 11
313.2
 21
323.2
 31
0.0
  0
LINE
  5
478
  8
2
  6
CONTINUOUS
 62
     7
 10
110.0
 20
196.2
 30
0.0
 11
313.2
 21
196.2
 31
0.0
  0
LINE
  5
479
  8
2
  6
CONTINUOUS
 62
     7
 10
313.2
 20
196.2
 30
0.0
 11
313.2
 21
120.0
 31
0.0
  0
LINE
  5
47A
  8
2
  6
CONTINUOUS
 62
     7
 10
313.2
 20
120.0
 30
0.0
 11
110.0
 21
196.2
 31
0.0
  0
LINE
  5
47B
  8
2
  6
CONTINUOUS
 62
     7
 10
313.2
 20
120.0
 30
0.0
 11
110.0
 21
120.0
 31
0.0
  0
LINE
  5
47C
  8
2
  6
CONTINUOUS
 62
     7
 10
110.0
 20
120.0
 30
0.0
 11
110.0
 21
196.2
 31
0.0
  0
LINE
  5
47D
  8
2
  6
CONTINUOUS
 62
     7
 10
110.0
 20
196.2
 30
0.0
 11
313.2
 21
120.0
 31
0.0
  0
ENDBLK
  5
47F
  8
0
  0
ENDSEC
  0
SECTION
  2
ENTITIES
  0
POLYLINE
  5
6F
  8
DEFAULT
 62
     5
 66
     1
 10
0.0
 20
0.0
 30
0.0
 70
     1
  0
VERTEX
  5
70
  8
DEFAULT
 62
     5
 10
50.81927126526953
 20
109.0993428963555
 30
0.0
  0
VERTEX
  5
71
  8
DEFAULT
 62
     5
 10
52.54766632699794
 20
109.0993428963555
 30
0.0
  0
VERTEX
  5
72
  8
DEFAULT
 62
     5
 10
52.54766632699795
 20
108.1203692633802
 30
0.0
 42
-0.2373869490350143
  0
VERTEX
  5
73
  8
DEFAULT
 62
     5
 10
54.79400157147667
 20
109.2845280815407
 30
0.0
 42
-0.1315120310734528
  0
VERTEX
  5
74
  8
DEFAULT
 62
     5
 10
55.99432945206446
 20
108.9951765240373
 30
0.0
 42
-0.1393853272245035
  0
VERTEX
  5
75
  8
DEFAULT
 62
     5
 10
56.82910956673318
 20
108.1203692633802
 30
0.0
 42
-0.1018343532165769
  0
VERTEX
  5
76
  8
DEFAULT
 62
     5
 10
57.8505216479225
 20
108.9951765240372
 30
0.0
 42
-0.123929667957114
  0
VERTEX
  5
77
  8
DEFAULT
 62
     5
 10
59.02046806238199
 20
109.2845280815407
 30
0.0
 42
-0.1355305589142095
  0
VERTEX
  5
78
  8
DEFAULT
 62
     5
 10
60.36016685682506
 20
108.9604542429454
 30
0.0
 42
-0.1623661969580674
  0
VERTEX
  5
79
  8
DEFAULT
 62
     5
 10
61.17903284776197
 20
108.0094512448301
 30
0.0
 42
-0.0915442810314505
  0
VERTEX
  5
7A
  8
DEFAULT
 62
     5
 10
61.37482682082511
 20
106.5086793455435
 30
0.0
  0
VERTEX
  5
7B
  8
DEFAULT
 62
     5
 10
61.37482682082511
 20
101.8771206741333
 30
0.0
  0
VERTEX
  5
7C
  8
DEFAULT
 62
     5
 10
59.46124657391151
 20
101.8771206741333
 30
0.0
  0
VERTEX
  5
7D
  8
DEFAULT
 62
     5
 10
59.4612465739115
 20
106.0071369598425
 30
0.0
 42
0.1141470137910664
  0
VERTEX
  5
7E
  8
DEFAULT
 62
     5
 10
59.26641712173866
 20
107.3950608568837
 30
0.0
 42
0.2721000606533522
  0
VERTEX
  5
7F
  8
DEFAULT
 62
     5
 10
58.4591253814849
 20
107.8030466000592
 30
0.0
 42
0.1575639071466261
  0
VERTEX
  5
80
  8
DEFAULT
 62
     5
 10
57.71307930489025
 20
107.5580620615928
 30
0.0
 42
0.1657627374474356
  0
VERTEX
  5
81
  8
DEFAULT
 62
     5
 10
57.20864241460359
 20
106.8404698222184
 30
0.0
 42
0.0723437487255049
  0
VERTEX
  5
82
  8
DEFAULT
 62
     5
 10
57.05383916650412
 20
105.3474140900537
 30
0.0
  0
VERTEX
  5
83
  8
DEFAULT
 62
     5
 10
57.05383916650412
 20
101.8771206741333
 30
0.0
  0
VERTEX
  5
84
  8
DEFAULT
 62
     5
 10
55.14025891959052
 20
101.8771206741333
 30
0.0
  0
VERTEX
  5
85
  8
DEFAULT
 62
     5
 10
55.14025891959052
 20
105.8364186460963
 30
0.0
 42
0.0609892367974929
  0
VERTEX
  5
86
  8
DEFAULT
 62
     5
 10
55.04043289127846
 20
107.1978191605702
 30
0.0
 42
0.1633931196984703
  0
VERTEX
  5
87
  8
DEFAULT
 62
     5
 10
54.7303446055919
 20
107.6535482168562
 30
0.0
 42
0.1561218014296812
  0
VERTEX
  5
88
  8
DEFAULT
 62
     5
 10
54.16032076572496
 20
107.8030466000592
 30
0.0
 42
0.1551837175468301
  0
VERTEX
  5
89
  8
DEFAULT
 62
     5
 10
53.37955334995335
 20
107.5648137078247
 30
0.0
 42
0.167002584793557
  0
VERTEX
  5
8A
  8
DEFAULT
 62
     5
 10
52.88283262678873
 20
106.8776034055359
 30
0.0
 42
0.0722698594962415
  0
VERTEX
  5
8B
  8
DEFAULT
 62
     5
 10
52.73285151218313
 20
105.3879239674447
 30
0.0
  0
VERTEX
  5
8C
  8
DEFAULT
 62
     5
 10
52.73285151218313
 20
101.8771206741333
 30
0.0
  0
VERTEX
  5
8D
  8
DEFAULT
 62
     5
 10
50.81927126526953
 20
101.8771206741333
 30
0.0
  0
SEQEND
  5
8E
  8
DEFAULT
 62
     5
  0
POLYLINE
  5
8F
  8
DEFAULT
 62
     5
 66
     1
 10
0.0
 20
0.0
 30
0.0
 70
     1
  0
VERTEX
  5
90
  8
DEFAULT
 62
     5
 10
44.02914780847941
 20
105.4882322562019
 30
0.0
 42
0.1807696907208287
  0
VERTEX
  5
91
  8
DEFAULT
 62
     5
 10
44.52876209431481
 20
103.8157784641937
 30
0.0
 42
0.4777036397637706
  0
VERTEX
  5
92
  8
DEFAULT
 62
     5
 10
46.98969994017419
 20
103.8157784641937
 30
0.0
 42
0.1794408075869763
  0
VERTEX
  5
93
  8
DEFAULT
 62
     5
 10
47.48593793193621
 20
105.5017355486655
 30
0.0
 42
0.1800932450793858
  0
VERTEX
  5
94
  8
DEFAULT
 62
     5
 10
46.98969994017419
 20
107.1606855772527
 30
0.0
 42
0.4793729384846662
  0
VERTEX
  5
95
  8
DEFAULT
 62
     5
 10
44.52876209431482
 20
107.1606855772526
 30
0.0
 42
0.180769789086854
  0
SEQEND
  5
96
  8
DEFAULT
 62
     5
  0
POLYLINE
  5
97
  8
DEFAULT
 62
     5
 66
     1
 10
0.0
 20
0.0
 30
0.0
 70
     1
  0
VERTEX
  5
98
  8
DEFAULT
 62
     5
 10
42.11556756156584
 20
105.5904695867396
 30
0.0
 42
-0.1222574291832751
  0
VERTEX
  5
99
  8
DEFAULT
 62
     5
 10
42.5819063476447
 20
107.4442509513295
 30
0.0
 42
-0.1509199207836043
  0
VERTEX
  5
9A
  8
DEFAULT
 62
     5
 10
43.90328018708779
 20
108.8124026410777
 30
0.0
 42
-0.1287246067144155
  0
VERTEX
  5
9B
  8
DEFAULT
 62
     5
 10
45.81252056095265
 20
109.2845280815407
 30
0.0
 42
-0.2109274079128365
  0
VERTEX
  5
9C
  8
DEFAULT
 62
     5
 10
48.48227294093621
 20
108.2139263768631
 30
0.0
 42
-0.2026212639801773
  0
VERTEX
  5
9D
  8
DEFAULT
 62
     5
 10
49.52297496897326
 20
105.5084871948974
 30
0.0
 42
-0.202229597332322
  0
VERTEX
  5
9E
  8
DEFAULT
 62
     5
 10
48.47214594254593
 20
102.7760404860894
 30
0.0
 42
-0.2115506096600925
  0
VERTEX
  5
9F
  8
DEFAULT
 62
     5
 10
45.82602291150137
 20
101.6919354889481
 30
0.0
 42
-0.1188796278362405
  0
VERTEX
  5
A0
  8
DEFAULT
 62
     5
 10
43.94378912256379
 20
102.1433246721854
 30
0.0
 42
-0.1582355798320213
  0
VERTEX
  5
A1
  8
DEFAULT
 62
     5
 10
42.5819063476447
 20
103.4671098138541
 30
0.0
 42
-0.1239053267140339
  0
SEQEND
  5
A2
  8
DEFAULT
 62
     5
  0
POLYLINE
  5
A3
  8
DEFAULT
 62
     5
 66
     1
 10
0.0
 20
0.0
 30
0.0
 70
     1
  0
VERTEX
  5
A4
  8
DEFAULT
 62
     5
 10
41.06618484551645
 20
107.0005774642568
 30
0.0
  0
VERTEX
  5
A5
  8
DEFAULT
 62
     5
 10
39.15260459860288
 20
106.6919354889481
 30
0.0
 42
0.1809968098175365
  0
VERTEX
  5
A6
  8
DEFAULT
 62
     5
 10
38.72532890857955
 20
107.5238225119035
 30
0.0
 42
0.1804760167670146
  0
VERTEX
  5
A7
  8
DEFAULT
 62
     5
 10
37.86113090675788
 20
107.8030466000593
 30
0.0
 42
0.2329674834671341
  0
VERTEX
  5
A8
  8
DEFAULT
 62
     5
 10
36.7336234114698
 20
107.3015037434008
 30
0.0
 42
0.1695179555120458
  0
VERTEX
  5
A9
  8
DEFAULT
 62
     5
 10
36.31309842576336
 20
105.6232632970085
 30
0.0
 42
0.1610966817175077
  0
VERTEX
  5
AA
  8
DEFAULT
 62
     5
 10
36.74375088081757
 20
103.7747867973151
 30
0.0
 42
0.2405540491094258
  0
VERTEX
  5
AB
  8
DEFAULT
 62
     5
 10
37.8997117423683
 20
103.2351453654913
 30
0.0
 42
0.1883458441869643
  0
VERTEX
  5
AC
  8
DEFAULT
 62
     5
 10
38.78753956408639
 20
103.5408942490867
 30
0.0
 42
0.1622604489947834
  0
VERTEX
  5
AD
  8
DEFAULT
 62
     5
 10
39.27606138872636
 20
104.5931700568494
 30
0.0
  0
VERTEX
  5
AE
  8
DEFAULT
 62
     5
 10
41.18964163563991
 20
104.3462564766024
 30
0.0
 42
-0.1724509721436081
  0
VERTEX
  5
AF
  8
DEFAULT
 62
     5
 10
40.07177934925444
 20
102.3622676175723
 30
0.0
 42
-0.1746967243539331
  0
VERTEX
  5
B0
  8
DEFAULT
 62
     5
 10
37.85534472333124
 20
101.6919354889481
 30
0.0
 42
-0.2163976905724258
  0
VERTEX
  5
B1
  8
DEFAULT
 62
     5
 10
35.33798287634909
 20
102.6974334464056
 30
0.0
 42
-0.194387056632107
  0
VERTEX
  5
B2
  8
DEFAULT
 62
     5
 10
34.39951817884981
 20
105.4814806099701
 30
0.0
 42
-0.1945054615972556
  0
VERTEX
  5
B3
  8
DEFAULT
 62
     5
 10
35.33750061590398
 20
108.2824064181566
 30
0.0
 42
-0.2157801631579949
  0
VERTEX
  5
B4
  8
DEFAULT
 62
     5
 10
37.87463419922152
 20
109.2845280815407
 30
0.0
 42
-0.1599423076957879
  0
VERTEX
  5
B5
  8
DEFAULT
 62
     5
 10
39.95603872625308
 20
108.7202923089303
 30
0.0
 42
-0.1682635697126323
  0
SEQEND
  5
B6
  8
DEFAULT
 62
     5
  0
POLYLINE
  5
B7
  8
DEFAULT
 62
     5
 66
     1
 10
0.0
 20
0.0
 30
0.0
 70
     1
  0
VERTEX
  5
B8
  8
DEFAULT
 62
     5
 10
30.942728055393
 20
101.8771206741333
 30
0.0
  0
VERTEX
  5
B9
  8
DEFAULT
 62
     5
 10
30.942728055393
 20
103.7907009210469
 30
0.0
  0
VERTEX
  5
BA
  8
DEFAULT
 62
     5
 10
32.85630830230657
 20
103.7907009210469
 30
0.0
  0
VERTEX
  5
BB
  8
DEFAULT
 62
     5
 10
32.85630830230657
 20
101.8771206741333
 30
0.0
  0
SEQEND
  5
BC
  8
DEFAULT
 62
     5
  0
POLYLINE
  5
BD
  8
DEFAULT
 62
     5
 66
     1
 10
0.0
 20
0.0
 30
0.0
 70
     1
  0
VERTEX
  5
BE
  8
DEFAULT
 62
     5
 10
27.60939472205966
 20
106.1363799333926
 30
0.0
 42
0.1931771868552569
  0
VERTEX
  5
BF
  8
DEFAULT
 62
     5
 10
27.17006252090808
 20
107.3781817413041
 30
0.0
 42
0.2094545272841098
  0
VERTEX
  5
C0
  8
DEFAULT
 62
     5
 10
26.1520262628347
 20
107.8030466000592
 30
0.0
 42
0.2175151257022476
  0
VERTEX
  5
C1
  8
DEFAULT
 62
     5
 10
25.09203381699243
 20
107.3545519214076
 30
0.0
 42
0.197485040297644
  0
VERTEX
  5
C2
  8
DEFAULT
 62
     5
 10
24.68018999025581
 20
106.1363799333926
 30
0.0
  0
SEQEND
  5
C3
  8
DEFAULT
 62
     5
  0
POLYLINE
  5
C4
  8
DEFAULT
 62
     5
 66
     1
 10
0.0
 20
0.0
 30
0.0
 70
     1
  0
VERTEX
  5
C5
  8
DEFAULT
 62
     5
 10
27.48593793193622
 20
104.1610712914173
 30
0.0
  0
VERTEX
  5
C6
  8
DEFAULT
 62
     5
 10
29.39951817884977
 20
103.9141577111703
 30
0.0
 42
-0.1601948643917371
  0
VERTEX
  5
C7
  8
DEFAULT
 62
     5
 10
28.23632388157956
 20
102.2600298160771
 30
0.0
 42
-0.159020940581457
  0
VERTEX
  5
C8
  8
DEFAULT
 62
     5
 10
26.24654836816528
 20
101.6919354889481
 30
0.0
 42
-0.2510606897924192
  0
VERTEX
  5
C9
  8
DEFAULT
 62
     5
 10
23.44948017258229
 20
102.9303614737437
 30
0.0
 42
-0.1603231689598248
  0
VERTEX
  5
CA
  8
DEFAULT
 62
     5
 10
22.73285151218313
 20
105.433255507372
 30
0.0
 42
-0.1928988919450609
  0
VERTEX
  5
CB
  8
DEFAULT
 62
     5
 10
23.67758559546911
 20
108.2621519504186
 30
0.0
 42
-0.2186957110499445
  0
VERTEX
  5
CC
  8
DEFAULT
 62
     5
 10
26.06618484551645
 20
109.2845280815407
 30
0.0
 42
-0.224876265082975
  0
VERTEX
  5
CD
  8
DEFAULT
 62
     5
 10
28.62598466975514
 20
108.22116028354
 30
0.0
 42
-0.186685059264735
  0
VERTEX
  5
CE
  8
DEFAULT
 62
     5
 10
29.52297496897325
 20
104.9635404272197
 30
0.0
  0
VERTEX
  5
CF
  8
DEFAULT
 62
     5
 10
24.6464317590967
 20
104.9635404272197
 30
0.0
 42
0.1907233177561324
  0
VERTEX
  5
D0
  8
DEFAULT
 62
     5
 10
25.11855814147459
 20
103.6445783609598
 30
0.0
 42
0.2135192120775192
  0
VERTEX
  5
D1
  8
DEFAULT
 62
     5
 10
26.2436548054945
 20
103.1734169704296
 30
0.0
 42
0.1657236937100992
  0
VERTEX
  5
D2
  8
DEFAULT
 62
     5
 10
27.01381249147325
 20
103.4073099896155
 30
0.0
 42
0.1589948514629106
  0
SEQEND
  5
D3
  8
DEFAULT
 62
     5
  0
POLYLINE
  5
D4
  8
DEFAULT
 62
     5
 66
     1
 10
0.0
 20
0.0
 30
0.0
 70
     1
  0
VERTEX
  5
D5
  8
DEFAULT
 62
     5
 10
21.80692558625721
 20
107.0005774642568
 30
0.0
  0
VERTEX
  5
D6
  8
DEFAULT
 62
     5
 10
19.89334533934361
 20
106.6919354889481
 30
0.0
 42
0.1809968098175422
  0
VERTEX
  5
D7
  8
DEFAULT
 62
     5
 10
19.46606964932029
 20
107.5238225119035
 30
0.0
 42
0.1804760167670158
  0
VERTEX
  5
D8
  8
DEFAULT
 62
     5
 10
18.60187164749861
 20
107.8030466000592
 30
0.0
 42
0.2329674834671353
  0
VERTEX
  5
D9
  8
DEFAULT
 62
     5
 10
17.47436415221054
 20
107.3015037434008
 30
0.0
 42
0.1695179555120413
  0
VERTEX
  5
DA
  8
DEFAULT
 62
     5
 10
17.05383916650413
 20
105.6232632970085
 30
0.0
 42
0.161096681717504
  0
VERTEX
  5
DB
  8
DEFAULT
 62
     5
 10
17.48449162155829
 20
103.774786797315
 30
0.0
 42
0.24055404910941
  0
VERTEX
  5
DC
  8
DEFAULT
 62
     5
 10
18.64045248310903
 20
103.2351453654913
 30
0.0
 42
0.1883458441869741
  0
VERTEX
  5
DD
  8
DEFAULT
 62
     5
 10
19.52828030482713
 20
103.5408942490867
 30
0.0
 42
0.1622604489947745
  0
VERTEX
  5
DE
  8
DEFAULT
 62
     5
 10
20.01680212946708
 20
104.5931700568494
 30
0.0
  0
VERTEX
  5
DF
  8
DEFAULT
 62
     5
 10
21.93038237638065
 20
104.3462564766024
 30
0.0
 42
-0.1724509721436167
  0
VERTEX
  5
E0
  8
DEFAULT
 62
     5
 10
20.81252008999517
 20
102.3622676175723
 30
0.0
 42
-0.1746967243539369
  0
VERTEX
  5
E1
  8
DEFAULT
 62
     5
 10
18.596085464072
 20
101.6919354889481
 30
0.0
 42
-0.2163976905724291
  0
VERTEX
  5
E2
  8
DEFAULT
 62
     5
 10
16.07872361708983
 20
102.6974334464056
 30
0.0
 42
-0.1943870566321044
  0
VERTEX
  5
E3
  8
DEFAULT
 62
     5
 10
15.14025891959053
 20
105.4814806099701
 30
0.0
 42
-0.1945054615972513
  0
VERTEX
  5
E4
  8
DEFAULT
 62
     5
 10
16.07824135664471
 20
108.2824064181566
 30
0.0
 42
-0.2157801631579854
  0
VERTEX
  5
E5
  8
DEFAULT
 62
     5
 10
18.61537493996228
 20
109.2845280815407
 30
0.0
 42
-0.1599423076957935
  0
VERTEX
  5
E6
  8
DEFAULT
 62
     5
 10
20.69677946699382
 20
108.7202923089303
 30
0.0
 42
-0.1682635697126408
  0
SEQEND
  5
E7
  8
DEFAULT
 62
     5
  0
POLYLINE
  5
E8
  8
DEFAULT
 62
     5
 66
     1
 10
0.0
 20
0.0
 30
0.0
 70
     1
  0
VERTEX
  5
E9
  8
DEFAULT
 62
     5
 10
11.68346879613374
 20
105.3339107975901
 30
0.0
  0
VERTEX
  5
EA
  8
DEFAULT
 62
     5
 10
10.56946459330932
 20
105.0416656774159
 30
0.0
 42
0.0811165779561272
  0
VERTEX
  5
EB
  8
DEFAULT
 62
     5
 10
9.573130055266793
 20
104.7089116217657
 30
0.0
 42
0.2517191883486212
  0
VERTEX
  5
EC
  8
DEFAULT
 62
     5
 10
9.214332993664616
 20
104.0356864014282
 30
0.0
 42
0.4298150945544807
  0
VERTEX
  5
ED
  8
DEFAULT
 62
     5
 10
10.23092294136006
 20
103.0499601803061
 30
0.0
 42
0.1670482644845983
  0
VERTEX
  5
EE
  8
DEFAULT
 62
     5
 10
11.17517476420094
 20
103.3894668241031
 30
0.0
 42
0.1651612454991221
  0
VERTEX
  5
EF
  8
DEFAULT
 62
     5
 10
11.61209613408434
 20
104.0221831089646
 30
0.0
 42
0.0593667948163671
  0
VERTEX
  5
F0
  8
DEFAULT
 62
     5
 10
11.68346879613374
 20
104.9529316393418
 30
0.0
  0
SEQEND
  5
F1
  8
DEFAULT
 62
     5
  0
POLYLINE
  5
F2
  8
DEFAULT
 62
     5
 66
     1
 10
0.0
 20
0.0
 30
0.0
 70
     1
  0
VERTEX
  5
F3
  8
DEFAULT
 62
     5
 10
9.276061388726333
 20
106.8771206741333
 30
0.0
  0
VERTEX
  5
F4
  8
DEFAULT
 62
     5
 10
7.547666326997942
 20
107.1240342543802
 30
0.0
 42
-0.1714833175990282
  0
VERTEX
  5
F5
  8
DEFAULT
 62
     5
 10
8.534838858497933
 20
108.7550145900222
 30
0.0
 42
-0.1608829132837502
  0
VERTEX
  5
F6
  8
DEFAULT
 62
     5
 10
10.61576112508435
 20
109.2845280815407
 30
0.0
 42
-0.1088364278880812
  0
VERTEX
  5
F7
  8
DEFAULT
 62
     5
 10
12.48304484022291
 20
108.9811909711285
 30
0.0
 42
-0.1580303644335294
  0
VERTEX
  5
F8
  8
DEFAULT
 62
     5
 10
13.34676011064197
 20
108.2105505537472
 30
0.0
 42
-0.1088017057953462
  0
VERTEX
  5
F9
  8
DEFAULT
 62
     5
 10
13.59704904304732
 20
106.4951769949948
 30
0.0
  0
VERTEX
  5
FA
  8
DEFAULT
 62
     5
 10
13.59704904304733
 20
104.2575224385284
 30
0.0
 42
0.0514080219695331
  0
VERTEX
  5
FB
  8
DEFAULT
 62
     5
 10
13.70121588632304
 20
102.8488608713891
 30
0.0
 42
0.0692287864232418
  0
VERTEX
  5
FC
  8
DEFAULT
 62
     5
 10
14.09087620354114
 20
101.8771206741333
 30
0.0
  0
VERTEX
  5
FD
  8
DEFAULT
 62
     5
 10
12.17729595662757
 20
101.8771206741333
 30
0.0
  0
VERTEX
  5
FE
  8
DEFAULT
 62
     5
 10
11.99403981322291
 20
102.4365343132499
 30
0.0
  0
VERTEX
  5
FF
  8
DEFAULT
 62
     5
 10
11.92652523473454
 20
102.6593358131552
 30
0.0
 42
-0.0933244186738201
  0
VERTEX
  5
100
  8
DEFAULT
 62
     5
 10
10.88196418122153
 20
101.9340269357012
 30
0.0
 42
-0.1040133466925794
  0
VERTEX
  5
101
  8
DEFAULT
 62
     5
 10
9.694657803609715
 20
101.6919354889481
 30
0.0
 42
-0.1965430357596577
  0
VERTEX
  5
102
  8
DEFAULT
 62
     5
 10
7.941667459179678
 20
102.2971633993946
 30
0.0
 42
-0.2154369487651153
  0
VERTEX
  5
103
  8
DEFAULT
 62
     5
 10
7.30075274675102
 20
103.8273527148768
 30
0.0
 42
-0.1373780248024372
  0
VERTEX
  5
104
  8
DEFAULT
 62
     5
 10
7.58624669165088
 20
104.9191734081827
 30
0.0
 42
-0.1473783213971237
  0
VERTEX
  5
105
  8
DEFAULT
 62
     5
 10
8.386304996185174
 20
105.6536447631367
 30
0.0
 42
-0.0634404934847278
  0
VERTEX
  5
106
  8
DEFAULT
 62
     5
 10
9.870197779892308
 20
106.0987645605874
 30
0.0
 42
0.0472009877729233
  0
VERTEX
  5
107
  8
DEFAULT
 62
     5
 10
11.68346879613374
 20
106.5684786988247
 30
0.0
  0
VERTEX
  5
108
  8
DEFAULT
 62
     5
 10
11.68346879613374
 20
106.7623445720222
 30
0.0
 42
0.2070921599656289
  0
VERTEX
  5
109
  8
DEFAULT
 62
     5
 10
11.42739273838683
 20
107.5638491869344
 30
0.0
 42
0.1777887432707993
  0
VERTEX
  5
10A
  8
DEFAULT
 62
     5
 10
10.4604751455823
 20
107.8030466000593
 30
0.0
 42
0.1651091138038858
  0
VERTEX
  5
10B
  8
DEFAULT
 62
     5
 10
9.711536448231811
 20
107.5976069471361
 30
0.0
 42
0.1491587679877764
  0
SEQEND
  5
10C
  8
DEFAULT
 62
     5
  0
POLYLINE
  5
10D
  8
DEFAULT
 62
     5
 66
     1
 10
0.0
 20
0.0
 30
0.0
 70
     1
  0
VERTEX
  5
10E
  8
DEFAULT
 62
     5
 10
1.313098425763371
 20
105.6097600045448
 30
0.0
 42
0.1662127852120594
  0
VERTEX
  5
10F
  8
DEFAULT
 62
     5
 10
1.786671118519192
 20
103.7685174115284
 30
0.0
 42
0.2404461653497498
  0
VERTEX
  5
110
  8
DEFAULT
 62
     5
 10
2.940220677844295
 20
103.1734169704296
 30
0.0
 42
0.2413239634427289
  0
VERTEX
  5
111
  8
DEFAULT
 62
     5
 10
4.027701498101488
 20
103.7198100484852
 30
0.0
 42
0.1627449374921738
  0
VERTEX
  5
112
  8
DEFAULT
 62
     5
 10
4.461246573911499
 20
105.5123452784584
 30
0.0
 42
0.1661976731382148
  0
VERTEX
  5
113
  8
DEFAULT
 62
     5
 10
4.014198205637856
 20
107.2392930878939
 30
0.0
 42
0.2412377667960456
  0
VERTEX
  5
114
  8
DEFAULT
 62
     5
 10
2.90742790949038
 20
107.8030466000592
 30
0.0
 42
0.2367422129321907
  0
VERTEX
  5
115
  8
DEFAULT
 62
     5
 10
1.766416650781199
 20
107.2494200862842
 30
0.0
 42
0.1723447809988902
  0
SEQEND
  5
116
  8
DEFAULT
 62
     5
  0
POLYLINE
  5
117
  8
DEFAULT
 62
     5
 66
     1
 10
0.0
 20
0.0
 30
0.0
 70
     1
  0
VERTEX
  5
118
  8
DEFAULT
 62
     5
 10
-0.6004818211502112
 20
109.0993428963555
 30
0.0
  0
VERTEX
  5
119
  8
DEFAULT
 62
     5
 10
1.189641635639916
 20
109.0993428963555
 30
0.0
  0
VERTEX
  5
11A
  8
DEFAULT
 62
     5
 10
1.189641635639918
 20
108.04610303866
 30
0.0
 42
-0.1189653659007581
  0
VERTEX
  5
11B
  8
DEFAULT
 62
     5
 10
2.114121251187912
 20
108.9353771707561
 30
0.0
 42
-0.1382105598910277
  0
VERTEX
  5
11C
  8
DEFAULT
 62
     5
 10
3.407042195325772
 20
109.2845280815407
 30
0.0
 42
-0.227364875885032
  0
VERTEX
  5
11D
  8
DEFAULT
 62
     5
 10
5.510629289960901
 20
108.2925338875043
 30
0.0
 42
-0.1838682188936145
  0
VERTEX
  5
11E
  8
DEFAULT
 62
     5
 10
6.374826820825108
 20
105.5297057125681
 30
0.0
 42
-0.1823656645300203
  0
VERTEX
  5
11F
  8
DEFAULT
 62
     5
 10
5.503395854241422
 20
102.7008092695215
 30
0.0
 42
-0.228559454157482
  0
VERTEX
  5
120
  8
DEFAULT
 62
     5
 10
3.391609861081606
 20
101.6919354889481
 30
0.0
 42
-0.1163198006807792
  0
VERTEX
  5
121
  8
DEFAULT
 62
     5
 10
2.321972206336752
 20
101.9282398103596
 30
0.0
 42
-0.0904152380777657
  0
VERTEX
  5
122
  8
DEFAULT
 62
     5
 10
1.313098425763373
 20
102.7384255842417
 30
0.0
  0
VERTEX
  5
123
  8
DEFAULT
 62
     5
 10
1.313098425763371
 20
99.09934289635554
 30
0.0
  0
VERTEX
  5
124
  8
DEFAULT
 62
     5
 10
-0.6004818211502112
 20
99.09934289635554
 30
0.0
  0
SEQEND
  5
125
  8
DEFAULT
 62
     5
  0
POLYLINE
  5
126
  8
DEFAULT
 62
     5
 66
     1
 10
0.0
 20
0.0
 30
0.0
 70
     1
  0
VERTEX
  5
127
  8
DEFAULT
 62
     5
 10
-8.995543549545275
 20
103.9141577111703
 30
0.0
  0
VERTEX
  5
128
  8
DEFAULT
 62
     5
 10
-7.081963302631698
 20
104.1610712914173
 30
0.0
 42
0.1817134537412995
  0
VERTEX
  5
129
  8
DEFAULT
 62
     5
 10
-6.586688889845008
 20
103.3325605625352
 30
0.0
 42
0.1637490318832789
  0
VERTEX
  5
12A
  8
DEFAULT
 62
     5
 10
-5.543575088624848
 20
103.0499601803061
 30
0.0
 42
0.1581548590316376
  0
VERTEX
  5
12B
  8
DEFAULT
 62
     5
 10
-4.431499456623478
 20
103.3267739081511
 30
0.0
 42
0.2454173628752974
  0
VERTEX
  5
12C
  8
DEFAULT
 62
     5
 10
-4.180728734730447
 20
103.8456786117917
 30
0.0
 42
0.1967133408659713
  0
VERTEX
  5
12D
  8
DEFAULT
 62
     5
 10
-4.316723354512361
 20
104.2121908986011
 30
0.0
 42
0.115248044176272
  0
VERTEX
  5
12E
  8
DEFAULT
 62
     5
 10
-4.957155806495891
 20
104.4677851668603
 30
0.0
 42
-0.0750101977649256
  0
VERTEX
  5
12F
  8
DEFAULT
 62
     5
 10
-7.891183142751052
 20
105.4120360477863
 30
0.0
 42
-0.2630575377237246
  0
VERTEX
  5
130
  8
DEFAULT
 62
     5
 10
-8.748629969298348
 20
107.04976802966
 30
0.0
 42
-0.2278055359033974
  0
VERTEX
  5
131
  8
DEFAULT
 62
     5
 10
-8.0074069681125
 20
108.6402380169536
 30
0.0
 42
-0.1789409577799081
  0
VERTEX
  5
132
  8
DEFAULT
 62
     5
 10
-5.709470797919763
 20
109.2845280815407
 30
0.0
 42
-0.1478680227512949
  0
VERTEX
  5
133
  8
DEFAULT
 62
     5
 10
-3.506538522545281
 20
108.7853965271079
 30
0.0
 42
-0.1798681362132165
  0
VERTEX
  5
134
  8
DEFAULT
 62
     5
 10
-2.514062068063792
 20
107.3092194395654
 30
0.0
  0
VERTEX
  5
135
  8
DEFAULT
 62
     5
 10
-4.304185524853908
 20
107.0005774642568
 30
0.0
 42
0.1762609448243885
  0
VERTEX
  5
136
  8
DEFAULT
 62
     5
 10
-4.742070944670106
 20
107.687788237503
 30
0.0
 42
0.1598214678236461
  0
VERTEX
  5
137
  8
DEFAULT
 62
     5
 10
-5.662210216211932
 20
107.9265033901827
 30
0.0
 42
0.1371855487857655
  0
VERTEX
  5
138
  8
DEFAULT
 62
     5
 10
-6.741492137944459
 20
107.7123835202046
 30
0.0
 42
0.2593740206710697
  0
VERTEX
  5
139
  8
DEFAULT
 62
     5
 10
-6.958506512508225
 20
107.3179001275777
 30
0.0
 42
0.2456185528240403
  0
VERTEX
  5
13A
  8
DEFAULT
 62
     5
 10
-6.768498722871744
 20
106.9648911332321
 30
0.0
 42
0.0664798749578762
  0
VERTEX
  5
13B
  8
DEFAULT
 62
     5
 10
-4.988984524917015
 20
106.418498526134
 30
0.0
 42
-0.1095214193377311
  0
VERTEX
  5
13C
  8
DEFAULT
 62
     5
 10
-2.864177499738695
 20
105.5596058601662
 30
0.0
 42
-0.2284114958797643
  0
VERTEX
  5
13D
  8
DEFAULT
 62
     5
 10
-2.267148487816869
 20
104.1292430439536
 30
0.0
 42
-0.2276229810650796
  0
VERTEX
  5
13E
  8
DEFAULT
 62
     5
 10
-3.094694695808643
 20
102.4104927201704
 30
0.0
 42
-0.1809722242825427
  0
VERTEX
  5
13F
  8
DEFAULT
 62
     5
 10
-5.543575088624848
 20
101.6919354889481
 30
0.0
 42
-0.1534212868271936
  0
VERTEX
  5
140
  8
DEFAULT
 62
     5
 10
-7.873340448196161
 20
102.2899294927177
 30
0.0
 42
-0.1853542620165984
  0
SEQEND
  5
141
  8
DEFAULT
 62
     5
  0
POLYLINE
  5
142
  8
DEFAULT
 62
     5
 66
     1
 10
0.0
 20
0.0
 30
0.0
 70
     1
  0
VERTEX
  5
143
  8
DEFAULT
 62
     5
 10
-10.23011145077983
 20
101.8771206741333
 30
0.0
  0
VERTEX
  5
144
  8
DEFAULT
 62
     5
 10
-12.14369169769341
 20
101.8771206741333
 30
0.0
  0
VERTEX
  5
145
  8
DEFAULT
 62
     5
 10
-12.14369169769341
 20
105.5644284646175
 30
0.0
 42
0.0659043403441984
  0
VERTEX
  5
146
  8
DEFAULT
 62
     5
 10
-12.26425492514609
 20
107.0787031854104
 30
0.0
 42
0.16001306957655
  0
VERTEX
  5
147
  8
DEFAULT
 62
     5
 10
-12.65584428414472
 20
107.6125570209351
 30
0.0
 42
0.1575149176297947
  0
VERTEX
  5
148
  8
DEFAULT
 62
     5
 10
-13.30785051585391
 20
107.8030466000592
 30
0.0
 42
0.1576987046345074
  0
VERTEX
  5
149
  8
DEFAULT
 62
     5
 10
-14.18410408688889
 20
107.531055947623
 30
0.0
 42
0.1684371822617439
  0
VERTEX
  5
14A
  8
DEFAULT
 62
     5
 10
-14.71602935159056
 20
106.8100878851326
 30
0.0
 42
0.0659809918576561
  0
VERTEX
  5
14B
  8
DEFAULT
 62
     5
 10
-14.85974108040946
 20
105.1496901332952
 30
0.0
  0
VERTEX
  5
14C
  8
DEFAULT
 62
     5
 10
-14.85974108040946
 20
101.8771206741333
 30
0.0
  0
VERTEX
  5
14D
  8
DEFAULT
 62
     5
 10
-16.77332132732305
 20
101.8771206741333
 30
0.0
  0
VERTEX
  5
14E
  8
DEFAULT
 62
     5
 10
-16.77332132732305
 20
109.0993428963555
 30
0.0
  0
VERTEX
  5
14F
  8
DEFAULT
 62
     5
 10
-14.98319787053292
 20
109.0993428963555
 30
0.0
  0
VERTEX
  5
150
  8
DEFAULT
 62
     5
 10
-14.98319787053292
 20
108.04610303866
 30
0.0
 42
-0.248629612198849
  0
VERTEX
  5
151
  8
DEFAULT
 62
     5
 10
-12.62980269106517
 20
109.2845280815407
 30
0.0
 42
-0.1053164015607974
  0
VERTEX
  5
152
  8
DEFAULT
 62
     5
 10
-11.48734512197805
 20
109.0559403982087
 30
0.0
 42
-0.1292191717088775
  0
VERTEX
  5
153
  8
DEFAULT
 62
     5
 10
-10.70416593302333
 20
108.4728964682382
 30
0.0
 42
-0.1054932374261864
  0
VERTEX
  5
154
  8
DEFAULT
 62
     5
 10
-10.33427782309809
 20
107.6680160302101
 30
0.0
 42
-0.0533641385177183
  0
VERTEX
  5
155
  8
DEFAULT
 62
     5
 10
-10.23011145077983
 20
106.3784718511031
 30
0.0
  0
SEQEND
  5
156
  8
DEFAULT
 62
     5
  0
POLYLINE
  5
157
  8
DEFAULT
 62
     5
 66
     1
 10
0.0
 20
0.0
 30
0.0
 70
     1
  0
VERTEX
  5
158
  8
DEFAULT
 62
     5
 10
-20.66221021621193
 20
105.3339107975901
 30
0.0
  0
VERTEX
  5
159
  8
DEFAULT
 62
     5
 10
-21.77621441903636
 20
105.0416656774159
 30
0.0
 42
0.081116577956126
  0
VERTEX
  5
15A
  8
DEFAULT
 62
     5
 10
-22.77254895707889
 20
104.7089116217657
 30
0.0
 42
0.25171918834861
  0
VERTEX
  5
15B
  8
DEFAULT
 62
     5
 10
-23.13134601868108
 20
104.0356864014282
 30
0.0
 42
0.4298150945544558
  0
VERTEX
  5
15C
  8
DEFAULT
 62
     5
 10
-22.11475607098561
 20
103.0499601803062
 30
0.0
 42
0.1670482644846088
  0
VERTEX
  5
15D
  8
DEFAULT
 62
     5
 10
-21.17050424814474
 20
103.3894668241031
 30
0.0
 42
0.1651612454991101
  0
VERTEX
  5
15E
  8
DEFAULT
 62
     5
 10
-20.73358287826132
 20
104.0221831089646
 30
0.0
 42
0.0593667948163673
  0
VERTEX
  5
15F
  8
DEFAULT
 62
     5
 10
-20.66221021621194
 20
104.9529316393418
 30
0.0
  0
SEQEND
  5
160
  8
DEFAULT
 62
     5
  0
POLYLINE
  5
161
  8
DEFAULT
 62
     5
 66
     1
 10
0.0
 20
0.0
 30
0.0
 70
     1
  0
VERTEX
  5
162
  8
DEFAULT
 62
     5
 10
-23.06961762361934
 20
106.8771206741333
 30
0.0
  0
VERTEX
  5
163
  8
DEFAULT
 62
     5
 10
-24.79801268534774
 20
107.1240342543802
 30
0.0
 42
-0.1714833175990198
  0
VERTEX
  5
164
  8
DEFAULT
 62
     5
 10
-23.81084015384775
 20
108.7550145900222
 30
0.0
 42
-0.16088291328375
  0
VERTEX
  5
165
  8
DEFAULT
 62
     5
 10
-21.72991788726134
 20
109.2845280815407
 30
0.0
 42
-0.1088364278880831
  0
VERTEX
  5
166
  8
DEFAULT
 62
     5
 10
-19.86263417212278
 20
108.9811909711285
 30
0.0
 42
-0.1580303644335391
  0
VERTEX
  5
167
  8
DEFAULT
 62
     5
 10
-18.99891890170373
 20
108.2105505537472
 30
0.0
 42
-0.1088017057953546
  0
VERTEX
  5
168
  8
DEFAULT
 62
     5
 10
-18.74862996929835
 20
106.4951769949948
 30
0.0
  0
VERTEX
  5
169
  8
DEFAULT
 62
     5
 10
-18.74862996929834
 20
104.2575224385284
 30
0.0
 42
0.0514080219695216
  0
VERTEX
  5
16A
  8
DEFAULT
 62
     5
 10
-18.64446312602264
 20
102.8488608713891
 30
0.0
 42
0.0692287864232488
  0
VERTEX
  5
16B
  8
DEFAULT
 62
     5
 10
-18.25480280880453
 20
101.8771206741333
 30
0.0
  0
VERTEX
  5
16C
  8
DEFAULT
 62
     5
 10
-20.16838305571811
 20
101.8771206741333
 30
0.0
  0
VERTEX
  5
16D
  8
DEFAULT
 62
     5
 10
-20.35163919912277
 20
102.4365343132499
 30
0.0
  0
VERTEX
  5
16E
  8
DEFAULT
 62
     5
 10
-20.41915377761113
 20
102.6593358131552
 30
0.0
 42
-0.093324418673815
  0
VERTEX
  5
16F
  8
DEFAULT
 62
     5
 10
-21.46371483112415
 20
101.9340269357012
 30
0.0
 42
-0.104013346692582
  0
VERTEX
  5
170
  8
DEFAULT
 62
     5
 10
-22.65102120873595
 20
101.6919354889481
 30
0.0
 42
-0.1965430357596627
  0
VERTEX
  5
171
  8
DEFAULT
 62
     5
 10
-24.40401155316598
 20
102.2971633993946
 30
0.0
 42
-0.2154369487651212
  0
VERTEX
  5
172
  8
DEFAULT
 62
     5
 10
-25.04492626559464
 20
103.8273527148768
 30
0.0
 42
-0.1373780248024515
  0
VERTEX
  5
173
  8
DEFAULT
 62
     5
 10
-24.75943232069479
 20
104.9191734081827
 30
0.0
 42
-0.147378321397122
  0
VERTEX
  5
174
  8
DEFAULT
 62
     5
 10
-23.95937401616051
 20
105.6536447631367
 30
0.0
 42
-0.0634404934847184
  0
VERTEX
  5
175
  8
DEFAULT
 62
     5
 10
-22.47548123245338
 20
106.0987645605873
 30
0.0
 42
0.047200987772915
  0
VERTEX
  5
176
  8
DEFAULT
 62
     5
 10
-20.66221021621193
 20
106.5684786988247
 30
0.0
  0
VERTEX
  5
177
  8
DEFAULT
 62
     5
 10
-20.66221021621193
 20
106.7623445720222
 30
0.0
 42
0.2070921599656412
  0
VERTEX
  5
178
  8
DEFAULT
 62
     5
 10
-20.91828627395886
 20
107.5638491869344
 30
0.0
 42
0.1777887432707906
  0
VERTEX
  5
179
  8
DEFAULT
 62
     5
 10
-21.88520386676338
 20
107.8030466000592
 30
0.0
 42
0.1651091138038772
  0
VERTEX
  5
17A
  8
DEFAULT
 62
     5
 10
-22.63414256411387
 20
107.597606947136
 30
0.0
 42
0.1491587679877866
  0
SEQEND
  5
17B
  8
DEFAULT
 62
     5
  0
POLYLINE
  5
17C
  8
DEFAULT
 62
     5
 66
     1
 10
0.0
 20
0.0
 30
0.0
 70
     1
  0
VERTEX
  5
17D
  8
DEFAULT
 62
     5
 10
-36.95850651250824
 20
109.0993428963555
 30
0.0
  0
VERTEX
  5
17E
  8
DEFAULT
 62
     5
 10
-35.23011145077983
 20
109.0993428963555
 30
0.0
  0
VERTEX
  5
17F
  8
DEFAULT
 62
     5
 10
-35.23011145077983
 20
108.1203692633802
 30
0.0
 42
-0.2373869490350165
  0
VERTEX
  5
180
  8
DEFAULT
 62
     5
 10
-32.9837762063011
 20
109.2845280815407
 30
0.0
 42
-0.1315120310734512
  0
VERTEX
  5
181
  8
DEFAULT
 62
     5
 10
-31.78344832571331
 20
108.9951765240373
 30
0.0
 42
-0.1393853272245035
  0
VERTEX
  5
182
  8
DEFAULT
 62
     5
 10
-30.94866821104459
 20
108.1203692633802
 30
0.0
 42
-0.1018343532165778
  0
VERTEX
  5
183
  8
DEFAULT
 62
     5
 10
-29.92725612985529
 20
108.9951765240373
 30
0.0
 42
-0.1239296679571103
  0
VERTEX
  5
184
  8
DEFAULT
 62
     5
 10
-28.75730971539576
 20
109.2845280815407
 30
0.0
 42
-0.1355305589142012
  0
VERTEX
  5
185
  8
DEFAULT
 62
     5
 10
-27.41761092095268
 20
108.9604542429454
 30
0.0
 42
-0.1623661969580608
  0
VERTEX
  5
186
  8
DEFAULT
 62
     5
 10
-26.5987449300158
 20
108.0094512448301
 30
0.0
 42
-0.0915442810314452
  0
VERTEX
  5
187
  8
DEFAULT
 62
     5
 10
-26.40295095695268
 20
106.5086793455435
 30
0.0
  0
VERTEX
  5
188
  8
DEFAULT
 62
     5
 10
-26.40295095695268
 20
101.8771206741333
 30
0.0
  0
VERTEX
  5
189
  8
DEFAULT
 62
     5
 10
-28.31653120386626
 20
101.8771206741333
 30
0.0
  0
VERTEX
  5
18A
  8
DEFAULT
 62
     5
 10
-28.31653120386626
 20
106.0071369598425
 30
0.0
 42
0.1141470137910661
  0
VERTEX
  5
18B
  8
DEFAULT
 62
     5
 10
-28.51136065603912
 20
107.3950608568836
 30
0.0
 42
0.2721000606533662
  0
VERTEX
  5
18C
  8
DEFAULT
 62
     5
 10
-29.31865239629288
 20
107.8030466000592
 30
0.0
 42
0.157563907146628
  0
VERTEX
  5
18D
  8
DEFAULT
 62
     5
 10
-30.06469847288752
 20
107.5580620615928
 30
0.0
 42
0.1657627374474092
  0
VERTEX
  5
18E
  8
DEFAULT
 62
     5
 10
-30.5691353631742
 20
106.8404698222184
 30
0.0
 42
0.0723437487255052
  0
VERTEX
  5
18F
  8
DEFAULT
 62
     5
 10
-30.72393861127367
 20
105.3474140900537
 30
0.0
  0
VERTEX
  5
190
  8
DEFAULT
 62
     5
 10
-30.72393861127367
 20
101.8771206741333
 30
0.0
  0
VERTEX
  5
191
  8
DEFAULT
 62
     5
 10
-32.63751885818725
 20
101.8771206741333
 30
0.0
  0
VERTEX
  5
192
  8
DEFAULT
 62
     5
 10
-32.63751885818725
 20
105.8364186460963
 30
0.0
 42
0.060989236797493
  0
VERTEX
  5
193
  8
DEFAULT
 62
     5
 10
-32.73734488649932
 20
107.1978191605702
 30
0.0
 42
0.1633931196985002
  0
VERTEX
  5
194
  8
DEFAULT
 62
     5
 10
-33.04743317218588
 20
107.6535482168562
 30
0.0
 42
0.1561218014296786
  0
VERTEX
  5
195
  8
DEFAULT
 62
     5
 10
-33.61745701205281
 20
107.8030466000592
 30
0.0
 42
0.155183717546836
  0
VERTEX
  5
196
  8
DEFAULT
 62
     5
 10
-34.39822442782444
 20
107.5648137078247
 30
0.0
 42
0.1670025847935413
  0
VERTEX
  5
197
  8
DEFAULT
 62
     5
 10
-34.89494515098903
 20
106.8776034055359
 30
0.0
 42
0.0722698594962565
  0
VERTEX
  5
198
  8
DEFAULT
 62
     5
 10
-35.04492626559465
 20
105.3879239674447
 30
0.0
  0
VERTEX
  5
199
  8
DEFAULT
 62
     5
 10
-35.04492626559465
 20
101.8771206741333
 30
0.0
  0
VERTEX
  5
19A
  8
DEFAULT
 62
     5
 10
-36.95850651250824
 20
101.8771206741333
 30
0.0
  0
SEQEND
  5
19B
  8
DEFAULT
 62
     5
  0
POLYLINE
  5
19C
  8
DEFAULT
 62
     5
 66
     1
 10
0.0
 20
0.0
 30
0.0
 70
     1
  0
VERTEX
  5
19D
  8
DEFAULT
 62
     5
 10
-45.16838305571811
 20
103.9141577111703
 30
0.0
  0
VERTEX
  5
19E
  8
DEFAULT
 62
     5
 10
-43.25480280880453
 20
104.1610712914173
 30
0.0
 42
0.1817134537412951
  0
VERTEX
  5
19F
  8
DEFAULT
 62
     5
 10
-42.75952839601784
 20
103.3325605625352
 30
0.0
 42
0.1637490318832773
  0
VERTEX
  5
1A0
  8
DEFAULT
 62
     5
 10
-41.71641459479768
 20
103.0499601803061
 30
0.0
 42
0.1581548590316444
  0
VERTEX
  5
1A1
  8
DEFAULT
 62
     5
 10
-40.60433896279632
 20
103.3267739081511
 30
0.0
 42
0.24541736287529
  0
VERTEX
  5
1A2
  8
DEFAULT
 62
     5
 10
-40.35356824090327
 20
103.8456786117917
 30
0.0
 42
0.1967133408659561
  0
VERTEX
  5
1A3
  8
DEFAULT
 62
     5
 10
-40.48956286068518
 20
104.2121908986011
 30
0.0
 42
0.1152480441762534
  0
VERTEX
  5
1A4
  8
DEFAULT
 62
     5
 10
-41.12999531266873
 20
104.4677851668603
 30
0.0
 42
-0.0750101977649271
  0
VERTEX
  5
1A5
  8
DEFAULT
 62
     5
 10
-44.06402264892389
 20
105.4120360477862
 30
0.0
 42
-0.263057537723727
  0
VERTEX
  5
1A6
  8
DEFAULT
 62
     5
 10
-44.92146947547122
 20
107.04976802966
 30
0.0
 42
-0.2278055359034045
  0
VERTEX
  5
1A7
  8
DEFAULT
 62
     5
 10
-44.18024647428533
 20
108.6402380169536
 30
0.0
 42
-0.1789409577799111
  0
VERTEX
  5
1A8
  8
DEFAULT
 62
     5
 10
-41.8823103040926
 20
109.2845280815407
 30
0.0
 42
-0.1478680227512941
  0
VERTEX
  5
1A9
  8
DEFAULT
 62
     5
 10
-39.67937802871811
 20
108.7853965271079
 30
0.0
 42
-0.1798681362132132
  0
VERTEX
  5
1AA
  8
DEFAULT
 62
     5
 10
-38.68690157423662
 20
107.3092194395654
 30
0.0
  0
VERTEX
  5
1AB
  8
DEFAULT
 62
     5
 10
-40.47702503102674
 20
107.0005774642568
 30
0.0
 42
0.1762609448243829
  0
VERTEX
  5
1AC
  8
DEFAULT
 62
     5
 10
-40.91491045084294
 20
107.687788237503
 30
0.0
 42
0.1598214678236432
  0
VERTEX
  5
1AD
  8
DEFAULT
 62
     5
 10
-41.83504972238477
 20
107.9265033901827
 30
0.0
 42
0.1371855487857656
  0
VERTEX
  5
1AE
  8
DEFAULT
 62
     5
 10
-42.9143316441173
 20
107.7123835202046
 30
0.0
 42
0.2593740206710702
  0
VERTEX
  5
1AF
  8
DEFAULT
 62
     5
 10
-43.13134601868108
 20
107.3179001275777
 30
0.0
 42
0.2456185528240199
  0
VERTEX
  5
1B0
  8
DEFAULT
 62
     5
 10
-42.94133822904459
 20
106.9648911332321
 30
0.0
 42
0.0664798749578731
  0
VERTEX
  5
1B1
  8
DEFAULT
 62
     5
 10
-41.16182403108985
 20
106.418498526134
 30
0.0
 42
-0.1095214193377292
  0
VERTEX
  5
1B2
  8
DEFAULT
 62
     5
 10
-39.03701700591152
 20
105.5596058601662
 30
0.0
 42
-0.2284114958797514
  0
VERTEX
  5
1B3
  8
DEFAULT
 62
     5
 10
-38.43998799398971
 20
104.1292430439536
 30
0.0
 42
-0.2276229810650832
  0
VERTEX
  5
1B4
  8
DEFAULT
 62
     5
 10
-39.26753420198148
 20
102.4104927201703
 30
0.0
 42
-0.1809722242825385
  0
VERTEX
  5
1B5
  8
DEFAULT
 62
     5
 10
-41.71641459479768
 20
101.6919354889481
 30
0.0
 42
-0.153421286827195
  0
VERTEX
  5
1B6
  8
DEFAULT
 62
     5
 10
-44.046179954369
 20
102.2899294927176
 30
0.0
 42
-0.1853542620166069
  0
SEQEND
  5
1B7
  8
DEFAULT
 62
     5
  0
POLYLINE
  5
1B8
  8
DEFAULT
 62
     5
 66
     1
 10
0.0
 20
0.0
 30
0.0
 70
     1
  0
VERTEX
  5
1B9
  8
DEFAULT
 62
     5
 10
-45.78566700633539
 20
109.0993428963555
 30
0.0
  0
VERTEX
  5
1BA
  8
DEFAULT
 62
     5
 10
-45.78566700633539
 20
107.6178614148741
 30
0.0
  0
VERTEX
  5
1BB
  8
DEFAULT
 62
     5
 10
-47.08196330263169
 20
107.6178614148741
 30
0.0
  0
VERTEX
  5
1BC
  8
DEFAULT
 62
     5
 10
-47.08196330263169
 20
104.6356089760208
 30
0.0
  0
VERTEX
  5
1BD
  8
DEFAULT
 62
     5
 10
-47.04531197975927
 20
103.5799564032273
 30
0.0
 42
0.1777629698040996
  0
VERTEX
  5
1BE
  8
DEFAULT
 62
     5
 10
-46.87989900186695
 20
103.3325605625352
 30
0.0
 42
0.1671411134724879
  0
VERTEX
  5
1BF
  8
DEFAULT
 62
     5
 10
-46.56498764077161
 20
103.2351453654913
 30
0.0
 42
0.0818670423874934
  0
VERTEX
  5
1C0
  8
DEFAULT
 62
     5
 10
-45.81653073290879
 20
103.4174379299207
 30
0.0
  0
VERTEX
  5
1C1
  8
DEFAULT
 62
     5
 10
-45.66221021621193
 20
101.9697137376833
 30
0.0
 42
-0.1009135694950808
  0
VERTEX
  5
1C2
  8
DEFAULT
 62
     5
 10
-47.15140692290056
 20
101.6919354889481
 30
0.0
 42
-0.1023112505794292
  0
VERTEX
  5
1C3
  8
DEFAULT
 62
     5
 10
-48.07009941310699
 20
101.8674759361882
 30
0.0
 42
-0.142732760251386
  0
VERTEX
  5
1C4
  8
DEFAULT
 62
     5
 10
-48.67050471910218
 20
102.3212764216511
 30
0.0
 42
-0.1112474266807806
  0
VERTEX
  5
1C5
  8
DEFAULT
 62
     5
 10
-48.93477873345887
 20
103.0740732025627
 30
0.0
  0
VERTEX
  5
1C6
  8
DEFAULT
 62
     5
 10
-48.99554354954527
 20
104.4349914565915
 30
0.0
  0
VERTEX
  5
1C7
  8
DEFAULT
 62
     5
 10
-48.99554354954527
 20
107.6178614148741
 30
0.0
  0
VERTEX
  5
1C8
  8
DEFAULT
 62
     5
 10
-49.92146947547119
 20
107.6178614148741
 30
0.0
  0
VERTEX
  5
1C9
  8
DEFAULT
 62
     5
 10
-49.92146947547119
 20
109.0993428963555
 30
0.0
  0
VERTEX
  5
1CA
  8
DEFAULT
 62
     5
 10
-48.99554354954527
 20
109.0993428963555
 30
0.0
  0
VERTEX
  5
1CB
  8
DEFAULT
 62
     5
 10
-48.99554354954527
 20
110.4573675877135
 30
0.0
  0
VERTEX
  5
1CC
  8
DEFAULT
 62
     5
 10
-47.08196330263169
 20
111.5684786988247
 30
0.0
  0
VERTEX
  5
1CD
  8
DEFAULT
 62
     5
 10
-47.08196330263169
 20
109.0993428963555
 30
0.0
  0
SEQEND
  5
1CE
  8
DEFAULT
 62
     5
  0
POLYLINE
  5
1CF
  8
DEFAULT
 62
     5
 66
     1
 10
0.0
 20
0.0
 30
0.0
 70
     1
  0
VERTEX
  5
1D0
  8
DEFAULT
 62
     5
 10
-54.4893707100391
 20
109.0993428963555
 30
0.0
  0
VERTEX
  5
1D1
  8
DEFAULT
 62
     5
 10
-53.50171638905144
 20
109.0993428963555
 30
0.0
  0
VERTEX
  5
1D2
  8
DEFAULT
 62
     5
 10
-53.50171638905145
 20
109.6404315804721
 30
0.0
 42
-0.0950504639922769
  0
VERTEX
  5
1D3
  8
DEFAULT
 62
     5
 10
-53.31074407852469
 20
110.9926691464886
 30
0.0
 42
-0.1716707163023869
  0
VERTEX
  5
1D4
  8
DEFAULT
 62
     5
 10
-52.60713645014404
 20
111.7199065947657
 30
0.0
 42
-0.1257658996646748
  0
VERTEX
  5
1D5
  8
DEFAULT
 62
     5
 10
-51.31035789340262
 20
112.0005774642568
 30
0.0
 42
-0.0781428993827187
  0
VERTEX
  5
1D6
  8
DEFAULT
 62
     5
 10
-49.73628429028601
 20
111.7536638840099
 30
0.0
  0
VERTEX
  5
1D7
  8
DEFAULT
 62
     5
 10
-49.95233320204459
 20
110.411071526896
 30
0.0
 42
0.0588660059482587
  0
VERTEX
  5
1D8
  8
DEFAULT
 62
     5
 10
-50.82038881646983
 20
110.5190959827753
 30
0.0
 42
0.2070684672811955
  0
VERTEX
  5
1D9
  8
DEFAULT
 62
     5
 10
-51.40970213222704
 20
110.3290886640963
 30
0.0
 42
0.1773524100531712
  0
VERTEX
  5
1DA
  8
DEFAULT
 62
     5
 10
-51.58813614213786
 20
109.5989571821909
 30
0.0
  0
VERTEX
  5
1DB
  8
DEFAULT
 62
     5
 10
-51.58813614213786
 20
109.0993428963555
 30
0.0
  0
VERTEX
  5
1DC
  8
DEFAULT
 62
     5
 10
-50.23011145077984
 20
109.0993428963555
 30
0.0
  0
VERTEX
  5
1DD
  8
DEFAULT
 62
     5
 10
-50.23011145077984
 20
107.6178614148741
 30
0.0
  0
VERTEX
  5
1DE
  8
DEFAULT
 62
     5
 10
-51.58813614213786
 20
107.6178614148741
 30
0.0
  0
VERTEX
  5
1DF
  8
DEFAULT
 62
     5
 10
-51.58813614213786
 20
101.8771206741333
 30
0.0
  0
VERTEX
  5
1E0
  8
DEFAULT
 62
     5
 10
-53.50171638905144
 20
101.8771206741333
 30
0.0
  0
VERTEX
  5
1E1
  8
DEFAULT
 62
     5
 10
-53.50171638905144
 20
107.6178614148741
 30
0.0
  0
VERTEX
  5
1E2
  8
DEFAULT
 62
     5
 10
-54.4893707100391
 20
107.6178614148741
 30
0.0
  0
SEQEND
  5
1E3
  8
DEFAULT
 62
     5
  0
POLYLINE
  5
1E4
  8
DEFAULT
 62
     5
 66
     1
 10
0.0
 20
0.0
 30
0.0
 70
     1
  0
VERTEX
  5
1E5
  8
DEFAULT
 62
     5
 10
-57.63751885818724
 20
105.3339107975901
 30
0.0
  0
VERTEX
  5
1E6
  8
DEFAULT
 62
     5
 10
-58.75152306101167
 20
105.0416656774159
 30
0.0
 42
0.081116577956127
  0
VERTEX
  5
1E7
  8
DEFAULT
 62
     5
 10
-59.7478575990542
 20
104.7089116217657
 30
0.0
 42
0.2517191883486254
  0
VERTEX
  5
1E8
  8
DEFAULT
 62
     5
 10
-60.10665466065637
 20
104.0356864014282
 30
0.0
 42
0.4298150945544754
  0
VERTEX
  5
1E9
  8
DEFAULT
 62
     5
 10
-59.09006471296092
 20
103.0499601803062
 30
0.0
 42
0.1670482644846095
  0
VERTEX
  5
1EA
  8
DEFAULT
 62
     5
 10
-58.14581289012003
 20
103.3894668241031
 30
0.0
 42
0.1651612454991105
  0
VERTEX
  5
1EB
  8
DEFAULT
 62
     5
 10
-57.70889152023663
 20
104.0221831089646
 30
0.0
 42
0.0593667948163579
  0
VERTEX
  5
1EC
  8
DEFAULT
 62
     5
 10
-57.63751885818724
 20
104.9529316393418
 30
0.0
  0
SEQEND
  5
1ED
  8
DEFAULT
 62
     5
  0
POLYLINE
  5
1EE
  8
DEFAULT
 62
     5
 66
     1
 10
0.0
 20
0.0
 30
0.0
 70
     1
  0
VERTEX
  5
1EF
  8
DEFAULT
 62
     5
 10
-60.04492626559465
 20
106.8771206741333
 30
0.0
  0
VERTEX
  5
1F0
  8
DEFAULT
 62
     5
 10
-61.77332132732305
 20
107.1240342543802
 30
0.0
 42
-0.171483317599028
  0
VERTEX
  5
1F1
  8
DEFAULT
 62
     5
 10
-60.78614879582305
 20
108.7550145900222
 30
0.0
 42
-0.160882913283752
  0
VERTEX
  5
1F2
  8
DEFAULT
 62
     5
 10
-58.70522652923665
 20
109.2845280815407
 30
0.0
 42
-0.1088364278880811
  0
VERTEX
  5
1F3
  8
DEFAULT
 62
     5
 10
-56.83794281409808
 20
108.9811909711285
 30
0.0
 42
-0.1580303644335383
  0
VERTEX
  5
1F4
  8
DEFAULT
 62
     5
 10
-55.97422754367903
 20
108.2105505537472
 30
0.0
 42
-0.1088017057953466
  0
VERTEX
  5
1F5
  8
DEFAULT
 62
     5
 10
-55.72393861127366
 20
106.4951769949948
 30
0.0
  0
VERTEX
  5
1F6
  8
DEFAULT
 62
     5
 10
-55.72393861127367
 20
104.2575224385284
 30
0.0
 42
0.0514080219695327
  0
VERTEX
  5
1F7
  8
DEFAULT
 62
     5
 10
-55.61977176799795
 20
102.8488608713891
 30
0.0
 42
0.0692287864232413
  0
VERTEX
  5
1F8
  8
DEFAULT
 62
     5
 10
-55.23011145077984
 20
101.8771206741333
 30
0.0
  0
VERTEX
  5
1F9
  8
DEFAULT
 62
     5
 10
-57.14369169769341
 20
101.8771206741333
 30
0.0
  0
VERTEX
  5
1FA
  8
DEFAULT
 62
     5
 10
-57.32694784109808
 20
102.4365343132499
 30
0.0
  0
VERTEX
  5
1FB
  8
DEFAULT
 62
     5
 10
-57.39446241958644
 20
102.6593358131552
 30
0.0
 42
-0.0933244186738146
  0
VERTEX
  5
1FC
  8
DEFAULT
 62
     5
 10
-58.43902347309945
 20
101.9340269357012
 30
0.0
 42
-0.1040133466925856
  0
VERTEX
  5
1FD
  8
DEFAULT
 62
     5
 10
-59.62632985071127
 20
101.6919354889481
 30
0.0
 42
-0.1965430357596577
  0
VERTEX
  5
1FE
  8
DEFAULT
 62
     5
 10
-61.3793201951413
 20
102.2971633993946
 30
0.0
 42
-0.2154369487651161
  0
VERTEX
  5
1FF
  8
DEFAULT
 62
     5
 10
-62.02023490756995
 20
103.8273527148768
 30
0.0
 42
-0.1373780248024445
  0
VERTEX
  5
200
  8
DEFAULT
 62
     5
 10
-61.73474096267011
 20
104.9191734081827
 30
0.0
 42
-0.1473783213971158
  0
VERTEX
  5
201
  8
DEFAULT
 62
     5
 10
-60.93468265813582
 20
105.6536447631367
 30
0.0
 42
-0.0634404934847188
  0
VERTEX
  5
202
  8
DEFAULT
 62
     5
 10
-59.45078987442868
 20
106.0987645605873
 30
0.0
 42
0.0472009877729169
  0
VERTEX
  5
203
  8
DEFAULT
 62
     5
 10
-57.63751885818724
 20
106.5684786988247
 30
0.0
  0
VERTEX
  5
204
  8
DEFAULT
 62
     5
 10
-57.63751885818724
 20
106.7623445720222
 30
0.0
 42
0.207092159965639
  0
VERTEX
  5
205
  8
DEFAULT
 62
     5
 10
-57.89359491593415
 20
107.5638491869344
 30
0.0
 42
0.1777887432707917
  0
VERTEX
  5
206
  8
DEFAULT
 62
     5
 10
-58.86051250873869
 20
107.8030466000592
 30
0.0
 42
0.1651091138038948
  0
VERTEX
  5
207
  8
DEFAULT
 62
     5
 10
-59.60945120608918
 20
107.5976069471361
 30
0.0
 42
0.1491587679877879
  0
SEQEND
  5
208
  8
DEFAULT
 62
     5
  0
POLYLINE
  5
209
  8
DEFAULT
 62
     5
 66
     1
 10
0.0
 20
0.0
 30
0.0
 70
     1
  0
VERTEX
  5
20A
  8
DEFAULT
 62
     5
 10
-64.92146947547118
 20
101.8771206741333
 30
0.0
  0
VERTEX
  5
20B
  8
DEFAULT
 62
     5
 10
-66.83504972238478
 20
101.8771206741333
 30
0.0
  0
VERTEX
  5
20C
  8
DEFAULT
 62
     5
 10
-66.83504972238478
 20
109.0993428963555
 30
0.0
  0
VERTEX
  5
20D
  8
DEFAULT
 62
     5
 10
-65.04492626559465
 20
109.0993428963555
 30
0.0
  0
VERTEX
  5
20E
  8
DEFAULT
 62
     5
 10
-65.04492626559465
 20
108.0798603279042
 30
0.0
 42
-0.0977550519460667
  0
VERTEX
  5
20F
  8
DEFAULT
 62
     5
 10
-64.26078255574966
 20
109.0434016266354
 30
0.0
 42
-0.1561720185079181
  0
VERTEX
  5
210
  8
DEFAULT
 62
     5
 10
-63.47085172056311
 20
109.2845280815407
 30
0.0
 42
-0.1438170981370074
  0
VERTEX
  5
211
  8
DEFAULT
 62
     5
 10
-62.26714848781686
 20
108.9209093574022
 30
0.0
  0
VERTEX
  5
212
  8
DEFAULT
 62
     5
 10
-62.85356776994582
 20
107.2455629446381
 30
0.0
 42
0.1496770151887625
  0
VERTEX
  5
213
  8
DEFAULT
 62
     5
 10
-63.70619105012689
 20
107.5561330198123
 30
0.0
 42
0.1810970994867166
  0
VERTEX
  5
214
  8
DEFAULT
 62
     5
 10
-64.35289241693965
 20
107.3347792431573
 30
0.0
 42
0.1501348396488013
  0
VERTEX
  5
215
  8
DEFAULT
 62
     5
 10
-64.76955931908506
 20
106.5347214095805
 30
0.0
 42
0.050911135964215
  0
VERTEX
  5
216
  8
DEFAULT
 62
     5
 10
-64.92146947547118
 20
104.1109171470386
 30
0.0
  0
SEQEND
  5
217
  8
DEFAULT
 62
     5
  0
POLYLINE
  5
218
  8
DEFAULT
 62
     5
 66
     1
 10
0.0
 20
0.0
 30
0.0
 70
     1
  0
VERTEX
  5
219
  8
DEFAULT
 62
     5
 10
-68.31653120386625
 20
107.0005774642568
 30
0.0
  0
VERTEX
  5
21A
  8
DEFAULT
 62
     5
 10
-70.23011145077984
 20
106.6919354889481
 30
0.0
 42
0.180996809817537
  0
VERTEX
  5
21B
  8
DEFAULT
 62
     5
 10
-70.65738714080317
 20
107.5238225119035
 30
0.0
 42
0.1804760167670141
  0
VERTEX
  5
21C
  8
DEFAULT
 62
     5
 10
-71.52158514262484
 20
107.8030466000592
 30
0.0
 42
0.2329674834671411
  0
VERTEX
  5
21D
  8
DEFAULT
 62
     5
 10
-72.64909263791291
 20
107.3015037434008
 30
0.0
 42
0.1695179555120447
  0
VERTEX
  5
21E
  8
DEFAULT
 62
     5
 10
-73.06961762361935
 20
105.6232632970085
 30
0.0
 42
0.1610966817174891
  0
VERTEX
  5
21F
  8
DEFAULT
 62
     5
 10
-72.63896516856516
 20
103.7747867973151
 30
0.0
 42
0.2405540491094335
  0
VERTEX
  5
220
  8
DEFAULT
 62
     5
 10
-71.48300430701443
 20
103.2351453654913
 30
0.0
 42
0.1883458441869758
  0
VERTEX
  5
221
  8
DEFAULT
 62
     5
 10
-70.5951764852963
 20
103.5408942490867
 30
0.0
 42
0.1622604489947707
  0
VERTEX
  5
222
  8
DEFAULT
 62
     5
 10
-70.10665466065637
 20
104.5931700568494
 30
0.0
  0
VERTEX
  5
223
  8
DEFAULT
 62
     5
 10
-68.19307441374279
 20
104.3462564766024
 30
0.0
 42
-0.1724509721436146
  0
VERTEX
  5
224
  8
DEFAULT
 62
     5
 10
-69.31093670012827
 20
102.3622676175723
 30
0.0
 42
-0.174696724353933
  0
VERTEX
  5
225
  8
DEFAULT
 62
     5
 10
-71.52737132605145
 20
101.6919354889481
 30
0.0
 42
-0.2163976905724368
  0
VERTEX
  5
226
  8
DEFAULT
 62
     5
 10
-74.0447331730336
 20
102.6974334464056
 30
0.0
 42
-0.1943870566321024
  0
VERTEX
  5
227
  8
DEFAULT
 62
     5
 10
-74.98319787053293
 20
105.4814806099701
 30
0.0
 42
-0.1945054615972549
  0
VERTEX
  5
228
  8
DEFAULT
 62
     5
 10
-74.04521543347875
 20
108.2824064181566
 30
0.0
 42
-0.2157801631579921
  0
VERTEX
  5
229
  8
DEFAULT
 62
     5
 10
-71.50808185016118
 20
109.2845280815407
 30
0.0
 42
-0.1599423076957952
  0
VERTEX
  5
22A
  8
DEFAULT
 62
     5
 10
-69.42667732312964
 20
108.7202923089303
 30
0.0
 42
-0.1682635697126402
  0
SEQEND
  5
22B
  8
DEFAULT
 62
     5
  0
POLYLINE
  5
22C
  8
DEFAULT
 62
     5
 66
     1
 10
0.0
 20
0.0
 30
0.0
 70
     1
  0
VERTEX
  5
22D
  8
DEFAULT
 62
     5
 10
-78.43998799398972
 20
101.8771206741333
 30
0.0
  0
VERTEX
  5
22E
  8
DEFAULT
 62
     5
 10
-78.43998799398972
 20
103.7907009210469
 30
0.0
  0
VERTEX
  5
22F
  8
DEFAULT
 62
     5
 10
-76.52640774707612
 20
103.7907009210469
 30
0.0
  0
VERTEX
  5
230
  8
DEFAULT
 62
     5
 10
-76.52640774707612
 20
101.8771206741333
 30
0.0
  0
SEQEND
  5
231
  8
DEFAULT
 62
     5
  0
POLYLINE
  5
232
  8
DEFAULT
 62
     5
 66
     1
 10
0.0
 20
0.0
 30
0.0
 70
     1
  0
VERTEX
  5
233
  8
DEFAULT
 62
     5
 10
-87.73782714694445
 20
101.8771206741333
 30
0.0
  0
VERTEX
  5
234
  8
DEFAULT
 62
     5
 10
-90.04492626559465
 20
109.0993428963555
 30
0.0
  0
VERTEX
  5
235
  8
DEFAULT
 62
     5
 10
-88.1708904332668
 20
109.0993428963555
 30
0.0
  0
VERTEX
  5
236
  8
DEFAULT
 62
     5
 10
-86.80418505389645
 20
104.3665114152979
 30
0.0
  0
VERTEX
  5
237
  8
DEFAULT
 62
     5
 10
-85.52139205006378
 20
109.0993428963555
 30
0.0
  0
VERTEX
  5
238
  8
DEFAULT
 62
     5
 10
-83.66664663554116
 20
109.0993428963555
 30
0.0
  0
VERTEX
  5
239
  8
DEFAULT
 62
     5
 10
-82.48319739957546
 20
104.3665114152979
 30
0.0
  0
VERTEX
  5
23A
  8
DEFAULT
 62
     5
 10
-81.11263393664404
 20
109.0993428963555
 30
0.0
  0
VERTEX
  5
23B
  8
DEFAULT
 62
     5
 10
-79.24245712979217
 20
109.0993428963555
 30
0.0
  0
VERTEX
  5
23C
  8
DEFAULT
 62
     5
 10
-81.54473270207615
 20
101.8771206741333
 30
0.0
  0
VERTEX
  5
23D
  8
DEFAULT
 62
     5
 10
-83.35896918112277
 20
101.8771206741333
 30
0.0
  0
VERTEX
  5
23E
  8
DEFAULT
 62
     5
 10
-84.58196283167422
 20
106.5221826380071
 30
0.0
  0
VERTEX
  5
23F
  8
DEFAULT
 62
     5
 10
-85.84353731783608
 20
101.8771206741333
 30
0.0
  0
SEQEND
  5
240
  8
DEFAULT
 62
     5
  0
POLYLINE
  5
241
  8
DEFAULT
 62
     5
 66
     1
 10
0.0
 20
0.0
 30
0.0
 70
     1
  0
VERTEX
  5
242
  8
DEFAULT
 62
     5
 10
-98.47856788768519
 20
101.8771206741333
 30
0.0
  0
VERTEX
  5
243
  8
DEFAULT
 62
     5
 10
-100.7856670063354
 20
109.0993428963555
 30
0.0
  0
VERTEX
  5
244
  8
DEFAULT
 62
     5
 10
-98.91163117400755
 20
109.0993428963555
 30
0.0
  0
VERTEX
  5
245
  8
DEFAULT
 62
     5
 10
-97.54492579463718
 20
104.3665114152979
 30
0.0
  0
VERTEX
  5
246
  8
DEFAULT
 62
     5
 10
-96.26213279080453
 20
109.0993428963555
 30
0.0
  0
VERTEX
  5
247
  8
DEFAULT
 62
     5
 10
-94.40738737628189
 20
109.0993428963555
 30
0.0
  0
VERTEX
  5
248
  8
DEFAULT
 62
     5
 10
-93.22393814031619
 20
104.3665114152979
 30
0.0
  0
VERTEX
  5
249
  8
DEFAULT
 62
     5
 10
-91.85337467738478
 20
109.0993428963555
 30
0.0
  0
VERTEX
  5
24A
  8
DEFAULT
 62
     5
 10
-89.98319787053292
 20
109.0993428963555
 30
0.0
  0
VERTEX
  5
24B
  8
DEFAULT
 62
     5
 10
-92.28547344281688
 20
101.8771206741333
 30
0.0
  0
VERTEX
  5
24C
  8
DEFAULT
 62
     5
 10
-94.09970992186351
 20
101.8771206741333
 30
0.0
  0
VERTEX
  5
24D
  8
DEFAULT
 62
     5
 10
-95.32270357241495
 20
106.5221826380071
 30
0.0
  0
VERTEX
  5
24E
  8
DEFAULT
 62
     5
 10
-96.58427805857681
 20
101.8771206741333
 30
0.0
  0
SEQEND
  5
24F
  8
DEFAULT
 62
     5
  0
POLYLINE
  5
250
  8
DEFAULT
 62
     5
 66
     1
 10
0.0
 20
0.0
 30
0.0
 70
     1
  0
VERTEX
  5
251
  8
DEFAULT
 62
     5
 10
-109.2193086284259
 20
101.8771206741333
 30
0.0
  0
VERTEX
  5
252
  8
DEFAULT
 62
     5
 10
-111.5264077470761
 20
109.0993428963555
 30
0.0
  0
VERTEX
  5
253
  8
DEFAULT
 62
     5
 10
-109.6523719147483
 20
109.0993428963555
 30
0.0
  0
VERTEX
  5
254
  8
DEFAULT
 62
     5
 10
-108.2856665353779
 20
104.3665114152979
 30
0.0
  0
VERTEX
  5
255
  8
DEFAULT
 62
     5
 10
-107.0028735315453
 20
109.0993428963555
 30
0.0
  0
VERTEX
  5
256
  8
DEFAULT
 62
     5
 10
-105.1481281170226
 20
109.0993428963555
 30
0.0
  0
VERTEX
  5
257
  8
DEFAULT
 62
     5
 10
-103.9646788810569
 20
104.3665114152979
 30
0.0
  0
VERTEX
  5
258
  8
DEFAULT
 62
     5
 10
-102.5941154181255
 20
109.0993428963555
 30
0.0
  0
VERTEX
  5
259
  8
DEFAULT
 62
     5
 10
-100.7239386112737
 20
109.0993428963555
 30
0.0
  0
VERTEX
  5
25A
  8
DEFAULT
 62
     5
 10
-103.0262141835576
 20
101.8771206741333
 30
0.0
  0
VERTEX
  5
25B
  8
DEFAULT
 62
     5
 10
-104.8404506626043
 20
101.8771206741333
 30
0.0
  0
VERTEX
  5
25C
  8
DEFAULT
 62
     5
 10
-106.0634443131557
 20
106.5221826380071
 30
0.0
  0
VERTEX
  5
25D
  8
DEFAULT
 62
     5
 10
-107.3250187993176
 20
101.8771206741333
 30
0.0
  0
SEQEND
  5
25E
  8
DEFAULT
 62
     5
  0
POLYLINE
  5
25F
  8
DEFAULT
 62
     5
 66
     1
 10
0.0
 20
0.0
 30
0.0
 70
     1
  0
VERTEX
  5
260
  8
DEFAULT
 62
     5
 10
72.47081211173669
 20
120.3028391988257
 30
0.0
  0
VERTEX
  5
261
  8
DEFAULT
 62
     5
 10
70.5572318648231
 20
120.3028391988257
 30
0.0
  0
VERTEX
  5
262
  8
DEFAULT
 62
     5
 10
70.5572318648231
 20
123.9901469893099
 30
0.0
 42
0.0659043403441808
  0
VERTEX
  5
263
  8
DEFAULT
 62
     5
 10
70.43666863737043
 20
125.5044217101027
 30
0.0
 42
0.1600130695765451
  0
VERTEX
  5
264
  8
DEFAULT
 62
     5
 10
70.0450792783718
 20
126.0382755456274
 30
0.0
 42
0.1575149176297859
  0
VERTEX
  5
265
  8
DEFAULT
 62
     5
 10
69.39307304666262
 20
126.2287651247516
 30
0.0
 42
0.1576987046344867
  0
VERTEX
  5
266
  8
DEFAULT
 62
     5
 10
68.51681947562763
 20
125.9567744723154
 30
0.0
 42
0.1684371822617288
  0
VERTEX
  5
267
  8
DEFAULT
 62
     5
 10
67.98489421092599
 20
125.235806409825
 30
0.0
 42
0.065980991857656
  0
VERTEX
  5
268
  8
DEFAULT
 62
     5
 10
67.84118248210707
 20
123.5754086579875
 30
0.0
  0
VERTEX
  5
269
  8
DEFAULT
 62
     5
 10
67.84118248210707
 20
120.3028391988257
 30
0.0
  0
VERTEX
  5
26A
  8
DEFAULT
 62
     5
 10
65.92760223519348
 20
120.3028391988257
 30
0.0
  0
VERTEX
  5
26B
  8
DEFAULT
 62
     5
 10
65.92760223519348
 20
127.5250614210479
 30
0.0
  0
VERTEX
  5
26C
  8
DEFAULT
 62
     5
 10
67.7177256919836
 20
127.5250614210479
 30
0.0
  0
VERTEX
  5
26D
  8
DEFAULT
 62
     5
 10
67.71772569198362
 20
126.4718215633524
 30
0.0
 42
-0.248629612198855
  0
VERTEX
  5
26E
  8
DEFAULT
 62
     5
 10
70.07112087145136
 20
127.710246606233
 30
0.0
 42
-0.105316401560808
  0
VERTEX
  5
26F
  8
DEFAULT
 62
     5
 10
71.21357844053846
 20
127.4816589229011
 30
0.0
 42
-0.1292191717089
  0
VERTEX
  5
270
  8
DEFAULT
 62
     5
 10
71.9967576294932
 20
126.8986149929306
 30
0.0
 42
-0.1054932374262094
  0
VERTEX
  5
271
  8
DEFAULT
 62
     5
 10
72.36664573941844
 20
126.0937345549025
 30
0.0
 42
-0.0533641385177021
  0
VERTEX
  5
272
  8
DEFAULT
 62
     5
 10
72.47081211173669
 20
124.8041903757955
 30
0.0
  0
SEQEND
  5
273
  8
DEFAULT
 62
     5
  0
POLYLINE
  5
274
  8
DEFAULT
 62
     5
 66
     1
 10
0.0
 20
0.0
 30
0.0
 70
     1
  0
VERTEX
  5
275
  8
DEFAULT
 62
     5
 10
62.03871334630459
 20
123.7596293222824
 30
0.0
  0
VERTEX
  5
276
  8
DEFAULT
 62
     5
 10
60.92470914348017
 20
123.4673842021082
 30
0.0
 42
0.0811165779561277
  0
VERTEX
  5
277
  8
DEFAULT
 62
     5
 10
59.92837460543764
 20
123.134630146458
 30
0.0
 42
0.2517191883486271
  0
VERTEX
  5
278
  8
DEFAULT
 62
     5
 10
59.56957754383549
 20
122.4614049261206
 30
0.0
 42
0.4298150945545001
  0
VERTEX
  5
279
  8
DEFAULT
 62
     5
 10
60.58616749153093
 20
121.4756787049985
 30
0.0
 42
0.167048264484604
  0
VERTEX
  5
27A
  8
DEFAULT
 62
     5
 10
61.53041931437181
 20
121.8151853487955
 30
0.0
 42
0.1651612454991316
  0
VERTEX
  5
27B
  8
DEFAULT
 62
     5
 10
61.96734068425518
 20
122.4479016336569
 30
0.0
 42
0.0593667948163755
  0
VERTEX
  5
27C
  8
DEFAULT
 62
     5
 10
62.03871334630459
 20
123.3786501640341
 30
0.0
  0
SEQEND
  5
27D
  8
DEFAULT
 62
     5
  0
POLYLINE
  5
27E
  8
DEFAULT
 62
     5
 66
     1
 10
0.0
 20
0.0
 30
0.0
 70
     1
  0
VERTEX
  5
27F
  8
DEFAULT
 62
     5
 10
59.63130593889717
 20
125.3028391988257
 30
0.0
  0
VERTEX
  5
280
  8
DEFAULT
 62
     5
 10
57.90291087716878
 20
125.5497527790726
 30
0.0
 42
-0.1714833175990317
  0
VERTEX
  5
281
  8
DEFAULT
 62
     5
 10
58.89008340866878
 20
127.1807331147145
 30
0.0
 42
-0.160882913283752
  0
VERTEX
  5
282
  8
DEFAULT
 62
     5
 10
60.9710056752552
 20
127.7102466062331
 30
0.0
 42
-0.1088364278880837
  0
VERTEX
  5
283
  8
DEFAULT
 62
     5
 10
62.83828939039374
 20
127.4069094958209
 30
0.0
 42
-0.1580303644335354
  0
VERTEX
  5
284
  8
DEFAULT
 62
     5
 10
63.70200466081282
 20
126.6362690784395
 30
0.0
 42
-0.1088017057953425
  0
VERTEX
  5
285
  8
DEFAULT
 62
     5
 10
63.95229359321817
 20
124.9208955196871
 30
0.0
  0
VERTEX
  5
286
  8
DEFAULT
 62
     5
 10
63.95229359321814
 20
122.6832409632207
 30
0.0
 42
0.0514080219695327
  0
VERTEX
  5
287
  8
DEFAULT
 62
     5
 10
64.05646043649388
 20
121.2745793960815
 30
0.0
 42
0.0692287864232625
  0
VERTEX
  5
288
  8
DEFAULT
 62
     5
 10
64.44612075371201
 20
120.3028391988257
 30
0.0
  0
VERTEX
  5
289
  8
DEFAULT
 62
     5
 10
62.53254050679841
 20
120.3028391988257
 30
0.0
  0
VERTEX
  5
28A
  8
DEFAULT
 62
     5
 10
62.34928436339375
 20
120.8622528379423
 30
0.0
  0
VERTEX
  5
28B
  8
DEFAULT
 62
     5
 10
62.28176978490539
 20
121.0850543378476
 30
0.0
 42
-0.0933244186738134
  0
VERTEX
  5
28C
  8
DEFAULT
 62
     5
 10
61.23720873139239
 20
120.3597454603935
 30
0.0
 42
-0.1040133466925785
  0
VERTEX
  5
28D
  8
DEFAULT
 62
     5
 10
60.04990235378058
 20
120.1176540136405
 30
0.0
 42
-0.1965430357596649
  0
VERTEX
  5
28E
  8
DEFAULT
 62
     5
 10
58.29691200935054
 20
120.7228819240869
 30
0.0
 42
-0.2154369487651211
  0
VERTEX
  5
28F
  8
DEFAULT
 62
     5
 10
57.65599729692188
 20
122.2530712395691
 30
0.0
 42
-0.1373780248024402
  0
VERTEX
  5
290
  8
DEFAULT
 62
     5
 10
57.94149124182173
 20
123.344891932875
 30
0.0
 42
-0.1473783213971232
  0
VERTEX
  5
291
  8
DEFAULT
 62
     5
 10
58.74154954635601
 20
124.0793632878291
 30
0.0
 42
-0.0634404934847225
  0
VERTEX
  5
292
  8
DEFAULT
 62
     5
 10
60.22544233006316
 20
124.5244830852797
 30
0.0
 42
0.047200987772918
  0
VERTEX
  5
293
  8
DEFAULT
 62
     5
 10
62.03871334630459
 20
124.994197223517
 30
0.0
  0
VERTEX
  5
294
  8
DEFAULT
 62
     5
 10
62.03871334630458
 20
125.1880630967145
 30
0.0
 42
0.2070921599656556
  0
VERTEX
  5
295
  8
DEFAULT
 62
     5
 10
61.78263728855767
 20
125.9895677116267
 30
0.0
 42
0.1777887432707894
  0
VERTEX
  5
296
  8
DEFAULT
 62
     5
 10
60.81571969575315
 20
126.2287651247516
 30
0.0
 42
0.1651091138038781
  0
VERTEX
  5
297
  8
DEFAULT
 62
     5
 10
60.06678099840265
 20
126.0233254718284
 30
0.0
 42
0.1491587679877675
  0
SEQEND
  5
298
  8
DEFAULT
 62
     5
  0
POLYLINE
  5
299
  8
DEFAULT
 62
     5
 66
     1
 10
0.0
 20
0.0
 30
0.0
 70
     1
  0
VERTEX
  5
29A
  8
DEFAULT
 62
     5
 10
54.38439235865026
 20
120.3028391988257
 30
0.0
  0
VERTEX
  5
29B
  8
DEFAULT
 62
     5
 10
54.38439235865026
 20
130.2411108037639
 30
0.0
  0
VERTEX
  5
29C
  8
DEFAULT
 62
     5
 10
56.29797260556386
 20
130.2411108037639
 30
0.0
  0
VERTEX
  5
29D
  8
DEFAULT
 62
     5
 10
56.29797260556386
 20
120.3028391988257
 30
0.0
  0
SEQEND
  5
29E
  8
DEFAULT
 62
     5
  0
POLYLINE
  5
29F
  8
DEFAULT
 62
     5
 66
     1
 10
0.0
 20
0.0
 30
0.0
 70
     1
  0
VERTEX
  5
2A0
  8
DEFAULT
 62
     5
 10
47.84118248210707
 20
124.0354785292372
 30
0.0
 42
0.166212785212058
  0
VERTEX
  5
2A1
  8
DEFAULT
 62
     5
 10
48.31475517486289
 20
122.1942359362207
 30
0.0
 42
0.2404461653497491
  0
VERTEX
  5
2A2
  8
DEFAULT
 62
     5
 10
49.46830473418798
 20
121.599135495122
 30
0.0
 42
0.2413239634427237
  0
VERTEX
  5
2A3
  8
DEFAULT
 62
     5
 10
50.55578555444517
 20
122.1455285731775
 30
0.0
 42
0.1627449374921672
  0
VERTEX
  5
2A4
  8
DEFAULT
 62
     5
 10
50.9893306302552
 20
123.9380638031507
 30
0.0
 42
0.1661976731382178
  0
VERTEX
  5
2A5
  8
DEFAULT
 62
     5
 10
50.54228226198153
 20
125.6650116125863
 30
0.0
 42
0.241237766796059
  0
VERTEX
  5
2A6
  8
DEFAULT
 62
     5
 10
49.43551196583407
 20
126.2287651247516
 30
0.0
 42
0.2367422129321973
  0
VERTEX
  5
2A7
  8
DEFAULT
 62
     5
 10
48.2945007071249
 20
125.6751386109765
 30
0.0
 42
0.172344780998899
  0
SEQEND
  5
2A8
  8
DEFAULT
 62
     5
  0
POLYLINE
  5
2A9
  8
DEFAULT
 62
     5
 66
     1
 10
0.0
 20
0.0
 30
0.0
 70
     1
  0
VERTEX
  5
2AA
  8
DEFAULT
 62
     5
 10
45.92760223519348
 20
127.5250614210479
 30
0.0
  0
VERTEX
  5
2AB
  8
DEFAULT
 62
     5
 10
47.7177256919836
 20
127.5250614210479
 30
0.0
  0
VERTEX
  5
2AC
  8
DEFAULT
 62
     5
 10
47.7177256919836
 20
126.4718215633524
 30
0.0
 42
-0.1189653659007562
  0
VERTEX
  5
2AD
  8
DEFAULT
 62
     5
 10
48.6422053075316
 20
127.3610956954484
 30
0.0
 42
-0.1382105598910245
  0
VERTEX
  5
2AE
  8
DEFAULT
 62
     5
 10
49.93512625166944
 20
127.710246606233
 30
0.0
 42
-0.227364875885032
  0
VERTEX
  5
2AF
  8
DEFAULT
 62
     5
 10
52.03871334630458
 20
126.7182524121967
 30
0.0
 42
-0.183868218893615
  0
VERTEX
  5
2B0
  8
DEFAULT
 62
     5
 10
52.90291087716878
 20
123.9554242372605
 30
0.0
 42
-0.1823656645300178
  0
VERTEX
  5
2B1
  8
DEFAULT
 62
     5
 10
52.03147991058511
 20
121.1265277942138
 30
0.0
 42
-0.2285594541574789
  0
VERTEX
  5
2B2
  8
DEFAULT
 62
     5
 10
49.91969391742528
 20
120.1176540136405
 30
0.0
 42
-0.1163198006807845
  0
VERTEX
  5
2B3
  8
DEFAULT
 62
     5
 10
48.85005626268044
 20
120.353958335052
 30
0.0
 42
-0.0904152380777742
  0
VERTEX
  5
2B4
  8
DEFAULT
 62
     5
 10
47.84118248210707
 20
121.164144108934
 30
0.0
  0
VERTEX
  5
2B5
  8
DEFAULT
 62
     5
 10
47.84118248210707
 20
117.5250614210479
 30
0.0
  0
VERTEX
  5
2B6
  8
DEFAULT
 62
     5
 10
45.92760223519348
 20
117.5250614210479
 30
0.0
  0
SEQEND
  5
2B7
  8
DEFAULT
 62
     5
  0
POLYLINE
  5
2B8
  8
DEFAULT
 62
     5
 66
     1
 10
0.0
 20
0.0
 30
0.0
 70
     1
  0
VERTEX
  5
2B9
  8
DEFAULT
 62
     5
 10
38.70538001297125
 20
124.5620984580849
 30
0.0
 42
0.1931771868552839
  0
VERTEX
  5
2BA
  8
DEFAULT
 62
     5
 10
38.26604781181966
 20
125.8039002659964
 30
0.0
 42
0.2094545272841021
  0
VERTEX
  5
2BB
  8
DEFAULT
 62
     5
 10
37.24801155374628
 20
126.2287651247516
 30
0.0
 42
0.217515125702244
  0
VERTEX
  5
2BC
  8
DEFAULT
 62
     5
 10
36.18801910790403
 20
125.7802704461
 30
0.0
 42
0.19748504029765
  0
VERTEX
  5
2BD
  8
DEFAULT
 62
     5
 10
35.77617528116739
 20
124.5620984580849
 30
0.0
  0
SEQEND
  5
2BE
  8
DEFAULT
 62
     5
  0
POLYLINE
  5
2BF
  8
DEFAULT
 62
     5
 66
     1
 10
0.0
 20
0.0
 30
0.0
 70
     1
  0
VERTEX
  5
2C0
  8
DEFAULT
 62
     5
 10
38.58192322284781
 20
122.5867898161096
 30
0.0
  0
VERTEX
  5
2C1
  8
DEFAULT
 62
     5
 10
40.49550346976137
 20
122.3398762358627
 30
0.0
 42
-0.1601948643917342
  0
VERTEX
  5
2C2
  8
DEFAULT
 62
     5
 10
39.33230917249114
 20
120.6857483407694
 30
0.0
 42
-0.1590209405814584
  0
VERTEX
  5
2C3
  8
DEFAULT
 62
     5
 10
37.34253365907686
 20
120.1176540136405
 30
0.0
 42
-0.2510606897924194
  0
VERTEX
  5
2C4
  8
DEFAULT
 62
     5
 10
34.54546546349388
 20
121.3560799984361
 30
0.0
 42
-0.1603231689598223
  0
VERTEX
  5
2C5
  8
DEFAULT
 62
     5
 10
33.82883680309472
 20
123.8589740320643
 30
0.0
 42
-0.1928988919450577
  0
VERTEX
  5
2C6
  8
DEFAULT
 62
     5
 10
34.77357088638071
 20
126.687870475111
 30
0.0
 42
-0.218695711049936
  0
VERTEX
  5
2C7
  8
DEFAULT
 62
     5
 10
37.16217013642806
 20
127.7102466062331
 30
0.0
 42
-0.2248762650829787
  0
VERTEX
  5
2C8
  8
DEFAULT
 62
     5
 10
39.72196996066673
 20
126.6468788082324
 30
0.0
 42
-0.1866850592647342
  0
VERTEX
  5
2C9
  8
DEFAULT
 62
     5
 10
40.61896025988484
 20
123.3892589519121
 30
0.0
  0
VERTEX
  5
2CA
  8
DEFAULT
 62
     5
 10
35.74241705000827
 20
123.3892589519121
 30
0.0
 42
0.190723317756137
  0
VERTEX
  5
2CB
  8
DEFAULT
 62
     5
 10
36.21454343238621
 20
122.0702968856521
 30
0.0
 42
0.2135192120775432
  0
VERTEX
  5
2CC
  8
DEFAULT
 62
     5
 10
37.33964009640609
 20
121.5991354951219
 30
0.0
 42
0.165723693710102
  0
VERTEX
  5
2CD
  8
DEFAULT
 62
     5
 10
38.10979778238483
 20
121.8330285143078
 30
0.0
 42
0.1589948514629553
  0
SEQEND
  5
2CE
  8
DEFAULT
 62
     5
  0
POLYLINE
  5
2CF
  8
DEFAULT
 62
     5
 66
     1
 10
0.0
 20
0.0
 30
0.0
 70
     1
  0
VERTEX
  5
2D0
  8
DEFAULT
 62
     5
 10
30.55723186482312
 20
120.3028391988257
 30
0.0
  0
VERTEX
  5
2D1
  8
DEFAULT
 62
     5
 10
30.55723186482312
 20
130.2411108037639
 30
0.0
  0
VERTEX
  5
2D2
  8
DEFAULT
 62
     5
 10
32.47081211173669
 20
130.2411108037639
 30
0.0
  0
VERTEX
  5
2D3
  8
DEFAULT
 62
     5
 10
32.47081211173669
 20
120.3028391988257
 30
0.0
  0
SEQEND
  5
2D4
  8
DEFAULT
 62
     5
  0
POLYLINE
  5
2D5
  8
DEFAULT
 62
     5
 66
     1
 10
0.0
 20
0.0
 30
0.0
 70
     1
  0
VERTEX
  5
2D6
  8
DEFAULT
 62
     5
 10
22.84118248210707
 20
120.3028391988257
 30
0.0
  0
VERTEX
  5
2D7
  8
DEFAULT
 62
     5
 10
22.84118248210707
 20
121.7843206803071
 30
0.0
  0
VERTEX
  5
2D8
  8
DEFAULT
 62
     5
 10
25.51093580400554
 20
124.9440430791384
 30
0.0
  0
VERTEX
  5
2D9
  8
DEFAULT
 62
     5
 10
26.48315779074905
 20
126.0435799395664
 30
0.0
  0
VERTEX
  5
2DA
  8
DEFAULT
 62
     5
 10
25.61413859734846
 20
126.0021064832001
 30
0.0
  0
VERTEX
  5
2DB
  8
DEFAULT
 62
     5
 10
23.08809606235398
 20
125.9818515445047
 30
0.0
  0
VERTEX
  5
2DC
  8
DEFAULT
 62
     5
 10
23.08809606235398
 20
127.5250614210479
 30
0.0
  0
VERTEX
  5
2DD
  8
DEFAULT
 62
     5
 10
29.01402198827991
 20
127.5250614210479
 30
0.0
  0
VERTEX
  5
2DE
  8
DEFAULT
 62
     5
 10
29.01402198827991
 20
126.1670367296899
 30
0.0
  0
VERTEX
  5
2DF
  8
DEFAULT
 62
     5
 10
26.22949350618522
 20
122.9677699162728
 30
0.0
  0
VERTEX
  5
2E0
  8
DEFAULT
 62
     5
 10
25.24858988951446
 20
121.9077774704306
 30
0.0
  0
VERTEX
  5
2E1
  8
DEFAULT
 62
     5
 10
26.25167654474627
 20
121.9695058654923
 30
0.0
  0
VERTEX
  5
2E2
  8
DEFAULT
 62
     5
 10
29.26093556852682
 20
121.9695058654923
 30
0.0
  0
VERTEX
  5
2E3
  8
DEFAULT
 62
     5
 10
29.26093556852682
 20
120.3028391988257
 30
0.0
  0
SEQEND
  5
2E4
  8
DEFAULT
 62
     5
  0
POLYLINE
  5
2E5
  8
DEFAULT
 62
     5
 66
     1
 10
0.0
 20
0.0
 30
0.0
 70
     1
  0
VERTEX
  5
2E6
  8
DEFAULT
 62
     5
 10
15.92760223519348
 20
120.3028391988257
 30
0.0
  0
VERTEX
  5
2E7
  8
DEFAULT
 62
     5
 10
15.92760223519348
 20
121.7843206803071
 30
0.0
  0
VERTEX
  5
2E8
  8
DEFAULT
 62
     5
 10
18.59735555709197
 20
124.9440430791384
 30
0.0
  0
VERTEX
  5
2E9
  8
DEFAULT
 62
     5
 10
19.56957754383545
 20
126.0435799395664
 30
0.0
  0
VERTEX
  5
2EA
  8
DEFAULT
 62
     5
 10
18.70055835043489
 20
126.0021064832001
 30
0.0
  0
VERTEX
  5
2EB
  8
DEFAULT
 62
     5
 10
16.1745158154404
 20
125.9818515445047
 30
0.0
  0
VERTEX
  5
2EC
  8
DEFAULT
 62
     5
 10
16.1745158154404
 20
127.5250614210479
 30
0.0
  0
VERTEX
  5
2ED
  8
DEFAULT
 62
     5
 10
22.10044174136631
 20
127.5250614210479
 30
0.0
  0
VERTEX
  5
2EE
  8
DEFAULT
 62
     5
 10
22.10044174136631
 20
126.1670367296899
 30
0.0
  0
VERTEX
  5
2EF
  8
DEFAULT
 62
     5
 10
19.31591325927165
 20
122.9677699162728
 30
0.0
  0
VERTEX
  5
2F0
  8
DEFAULT
 62
     5
 10
18.33500964260089
 20
121.9077774704306
 30
0.0
  0
VERTEX
  5
2F1
  8
DEFAULT
 62
     5
 10
19.33809629783271
 20
121.9695058654923
 30
0.0
  0
VERTEX
  5
2F2
  8
DEFAULT
 62
     5
 10
22.34735532161322
 20
121.9695058654923
 30
0.0
  0
VERTEX
  5
2F3
  8
DEFAULT
 62
     5
 10
22.34735532161322
 20
120.3028391988257
 30
0.0
  0
SEQEND
  5
2F4
  8
DEFAULT
 62
     5
  0
POLYLINE
  5
2F5
  8
DEFAULT
 62
     5
 66
     1
 10
0.0
 20
0.0
 30
0.0
 70
     1
  0
VERTEX
  5
2F6
  8
DEFAULT
 62
     5
 10
13.02636766729225
 20
120.3028391988257
 30
0.0
  0
VERTEX
  5
2F7
  8
DEFAULT
 62
     5
 10
13.02636766729225
 20
121.3763349371315
 30
0.0
 42
-0.1223972716446069
  0
VERTEX
  5
2F8
  8
DEFAULT
 62
     5
 10
11.99820441082859
 20
120.4600537491507
 30
0.0
 42
-0.1257588650398448
  0
VERTEX
  5
2F9
  8
DEFAULT
 62
     5
 10
10.65271849104396
 20
120.1176540136405
 30
0.0
 42
-0.1301059334599485
  0
VERTEX
  5
2FA
  8
DEFAULT
 62
     5
 10
9.358833496973306
 20
120.4383525000774
 30
0.0
 42
-0.167000738323224
  0
VERTEX
  5
2FB
  8
DEFAULT
 62
     5
 10
8.529357776243542
 20
121.3387190933689
 30
0.0
 42
-0.1009427833083549
  0
VERTEX
  5
2FC
  8
DEFAULT
 62
     5
 10
8.273281247539165
 20
122.9417287941507
 30
0.0
  0
VERTEX
  5
2FD
  8
DEFAULT
 62
     5
 10
8.27328124753916
 20
127.5250614210479
 30
0.0
  0
VERTEX
  5
2FE
  8
DEFAULT
 62
     5
 10
10.18686149445274
 20
127.5250614210479
 30
0.0
  0
VERTEX
  5
2FF
  8
DEFAULT
 62
     5
 10
10.18686149445274
 20
124.2090894637392
 30
0.0
 42
0.0503730066259765
  0
VERTEX
  5
300
  8
DEFAULT
 62
     5
 10
10.29102833772846
 20
122.3432525299361
 30
0.0
 42
0.1675734251047558
  0
VERTEX
  5
301
  8
DEFAULT
 62
     5
 10
10.67104391700143
 20
121.7997530145513
 30
0.0
 42
0.1610647544742612
  0
VERTEX
  5
302
  8
DEFAULT
 62
     5
 10
11.37031073041844
 20
121.5991354951219
 30
0.0
 42
0.1578518894734176
  0
VERTEX
  5
303
  8
DEFAULT
 62
     5
 10
12.23740182395342
 20
121.8677507953997
 30
0.0
 42
0.1591085904630881
  0
VERTEX
  5
304
  8
DEFAULT
 62
     5
 10
12.76161092153296
 20
122.5337425800177
 30
0.0
 42
0.0627948021468265
  0
VERTEX
  5
305
  8
DEFAULT
 62
     5
 10
12.90291087716879
 20
124.4801160662426
 30
0.0
  0
VERTEX
  5
306
  8
DEFAULT
 62
     5
 10
12.90291087716879
 20
127.5250614210479
 30
0.0
  0
VERTEX
  5
307
  8
DEFAULT
 62
     5
 10
14.81649112408238
 20
127.5250614210479
 30
0.0
  0
VERTEX
  5
308
  8
DEFAULT
 62
     5
 10
14.81649112408238
 20
120.3028391988257
 30
0.0
  0
SEQEND
  5
309
  8
DEFAULT
 62
     5
  0
POLYLINE
  5
30A
  8
DEFAULT
 62
     5
 66
     1
 10
0.0
 20
0.0
 30
0.0
 70
     1
  0
VERTEX
  5
30B
  8
DEFAULT
 62
     5
 10
1.730071370995958
 20
124.0354785292372
 30
0.0
 42
0.1662127852120589
  0
VERTEX
  5
30C
  8
DEFAULT
 62
     5
 10
2.203644063751776
 20
122.1942359362207
 30
0.0
 42
0.2404461653497528
  0
VERTEX
  5
30D
  8
DEFAULT
 62
     5
 10
3.357193623076881
 20
121.5991354951219
 30
0.0
 42
0.241323963442719
  0
VERTEX
  5
30E
  8
DEFAULT
 62
     5
 10
4.444674443334089
 20
122.1455285731775
 30
0.0
 42
0.1627449374921676
  0
VERTEX
  5
30F
  8
DEFAULT
 62
     5
 10
4.878219519144092
 20
123.9380638031507
 30
0.0
 42
0.1661976731382138
  0
VERTEX
  5
310
  8
DEFAULT
 62
     5
 10
4.431171150870426
 20
125.6650116125863
 30
0.0
 42
0.241237766796049
  0
VERTEX
  5
311
  8
DEFAULT
 62
     5
 10
3.324400854722953
 20
126.2287651247516
 30
0.0
 42
0.2367422129321996
  0
VERTEX
  5
312
  8
DEFAULT
 62
     5
 10
2.183389596013804
 20
125.6751386109765
 30
0.0
 42
0.1723447809988973
  0
SEQEND
  5
313
  8
DEFAULT
 62
     5
  0
POLYLINE
  5
314
  8
DEFAULT
 62
     5
 66
     1
 10
0.0
 20
0.0
 30
0.0
 70
     1
  0
VERTEX
  5
315
  8
DEFAULT
 62
     5
 10
-0.1835088759176244
 20
127.5250614210479
 30
0.0
  0
VERTEX
  5
316
  8
DEFAULT
 62
     5
 10
1.606614580872488
 20
127.5250614210479
 30
0.0
  0
VERTEX
  5
317
  8
DEFAULT
 62
     5
 10
1.606614580872484
 20
126.4718215633524
 30
0.0
 42
-0.1189653659007619
  0
VERTEX
  5
318
  8
DEFAULT
 62
     5
 10
2.531094196420499
 20
127.3610956954484
 30
0.0
 42
-0.1382105598910242
  0
VERTEX
  5
319
  8
DEFAULT
 62
     5
 10
3.824015140558344
 20
127.7102466062331
 30
0.0
 42
-0.2273648758850362
  0
VERTEX
  5
31A
  8
DEFAULT
 62
     5
 10
5.927602235193473
 20
126.7182524121967
 30
0.0
 42
-0.1838682188936148
  0
VERTEX
  5
31B
  8
DEFAULT
 62
     5
 10
6.791799766057669
 20
123.9554242372605
 30
0.0
 42
-0.1823656645300193
  0
VERTEX
  5
31C
  8
DEFAULT
 62
     5
 10
5.920368799473991
 20
121.1265277942138
 30
0.0
 42
-0.2285594541574845
  0
VERTEX
  5
31D
  8
DEFAULT
 62
     5
 10
3.808582806314177
 20
120.1176540136405
 30
0.0
 42
-0.1163198006807783
  0
VERTEX
  5
31E
  8
DEFAULT
 62
     5
 10
2.738945151569324
 20
120.353958335052
 30
0.0
 42
-0.0904152380777731
  0
VERTEX
  5
31F
  8
DEFAULT
 62
     5
 10
1.730071370995958
 20
121.164144108934
 30
0.0
  0
VERTEX
  5
320
  8
DEFAULT
 62
     5
 10
1.730071370995958
 20
117.5250614210479
 30
0.0
  0
VERTEX
  5
321
  8
DEFAULT
 62
     5
 10
-0.1835088759176244
 20
117.5250614210479
 30
0.0
  0
SEQEND
  5
322
  8
DEFAULT
 62
     5
  0
POLYLINE
  5
323
  8
DEFAULT
 62
     5
 66
     1
 10
0.0
 20
0.0
 30
0.0
 70
     1
  0
VERTEX
  5
324
  8
DEFAULT
 62
     5
 10
-7.899558258633675
 20
123.7596293222824
 30
0.0
  0
VERTEX
  5
325
  8
DEFAULT
 62
     5
 10
-9.013562461458108
 20
123.4673842021082
 30
0.0
 42
0.0811165779561267
  0
VERTEX
  5
326
  8
DEFAULT
 62
     5
 10
-10.00989699950064
 20
123.134630146458
 30
0.0
 42
0.2517191883486208
  0
VERTEX
  5
327
  8
DEFAULT
 62
     5
 10
-10.36869406110281
 20
122.4614049261206
 30
0.0
 42
0.4298150945544683
  0
VERTEX
  5
328
  8
DEFAULT
 62
     5
 10
-9.35210411340735
 20
121.4756787049985
 30
0.0
 42
0.1670482644846062
  0
VERTEX
  5
329
  8
DEFAULT
 62
     5
 10
-8.407852290566478
 20
121.8151853487955
 30
0.0
 42
0.165161245499111
  0
VERTEX
  5
32A
  8
DEFAULT
 62
     5
 10
-7.97093092068307
 20
122.4479016336569
 30
0.0
 42
0.0593667948163676
  0
VERTEX
  5
32B
  8
DEFAULT
 62
     5
 10
-7.899558258633674
 20
123.3786501640341
 30
0.0
  0
SEQEND
  5
32C
  8
DEFAULT
 62
     5
  0
POLYLINE
  5
32D
  8
DEFAULT
 62
     5
 66
     1
 10
0.0
 20
0.0
 30
0.0
 70
     1
  0
VERTEX
  5
32E
  8
DEFAULT
 62
     5
 10
-10.30696566604108
 20
125.3028391988257
 30
0.0
  0
VERTEX
  5
32F
  8
DEFAULT
 62
     5
 10
-12.0353607277695
 20
125.5497527790726
 30
0.0
 42
-0.1714833175990202
  0
VERTEX
  5
330
  8
DEFAULT
 62
     5
 10
-11.04818819626949
 20
127.1807331147145
 30
0.0
 42
-0.1608829132837495
  0
VERTEX
  5
331
  8
DEFAULT
 62
     5
 10
-8.96726592968308
 20
127.7102466062331
 30
0.0
 42
-0.1088364278880833
  0
VERTEX
  5
332
  8
DEFAULT
 62
     5
 10
-7.099982214544526
 20
127.4069094958209
 30
0.0
 42
-0.1580303644335431
  0
VERTEX
  5
333
  8
DEFAULT
 62
     5
 10
-6.23626694412548
 20
126.6362690784395
 30
0.0
 42
-0.1088017057953531
  0
VERTEX
  5
334
  8
DEFAULT
 62
     5
 10
-5.985978011720086
 20
124.9208955196871
 30
0.0
  0
VERTEX
  5
335
  8
DEFAULT
 62
     5
 10
-5.985978011720099
 20
122.6832409632207
 30
0.0
 42
0.0514080219695225
  0
VERTEX
  5
336
  8
DEFAULT
 62
     5
 10
-5.881811168444384
 20
121.2745793960815
 30
0.0
 42
0.069228786423249
  0
VERTEX
  5
337
  8
DEFAULT
 62
     5
 10
-5.49215085122627
 20
120.3028391988257
 30
0.0
  0
VERTEX
  5
338
  8
DEFAULT
 62
     5
 10
-7.405731098139853
 20
120.3028391988257
 30
0.0
  0
VERTEX
  5
339
  8
DEFAULT
 62
     5
 10
-7.588987241544515
 20
120.8622528379423
 30
0.0
  0
VERTEX
  5
33A
  8
DEFAULT
 62
     5
 10
-7.656501820032875
 20
121.0850543378476
 30
0.0
 42
-0.0933244186738152
  0
VERTEX
  5
33B
  8
DEFAULT
 62
     5
 10
-8.701062873545894
 20
120.3597454603935
 30
0.0
 42
-0.1040133466925813
  0
VERTEX
  5
33C
  8
DEFAULT
 62
     5
 10
-9.888369251157696
 20
120.1176540136405
 30
0.0
 42
-0.1965430357596633
  0
VERTEX
  5
33D
  8
DEFAULT
 62
     5
 10
-11.64135959558773
 20
120.722881924087
 30
0.0
 42
-0.2154369487651168
  0
VERTEX
  5
33E
  8
DEFAULT
 62
     5
 10
-12.28227430801638
 20
122.2530712395691
 30
0.0
 42
-0.137378024802446
  0
VERTEX
  5
33F
  8
DEFAULT
 62
     5
 10
-11.99678036311653
 20
123.344891932875
 30
0.0
 42
-0.147378321397121
  0
VERTEX
  5
340
  8
DEFAULT
 62
     5
 10
-11.19672205858225
 20
124.0793632878291
 30
0.0
 42
-0.0634404934847203
  0
VERTEX
  5
341
  8
DEFAULT
 62
     5
 10
-9.712829274875117
 20
124.5244830852797
 30
0.0
 42
0.047200987772916
  0
VERTEX
  5
342
  8
DEFAULT
 62
     5
 10
-7.899558258633676
 20
124.994197223517
 30
0.0
  0
VERTEX
  5
343
  8
DEFAULT
 62
     5
 10
-7.89955825863367
 20
125.1880630967145
 30
0.0
 42
0.2070921599656395
  0
VERTEX
  5
344
  8
DEFAULT
 62
     5
 10
-8.155634316380597
 20
125.9895677116267
 30
0.0
 42
0.1777887432707905
  0
VERTEX
  5
345
  8
DEFAULT
 62
     5
 10
-9.12255190918512
 20
126.2287651247516
 30
0.0
 42
0.165109113803878
  0
VERTEX
  5
346
  8
DEFAULT
 62
     5
 10
-9.87149060653562
 20
126.0233254718284
 30
0.0
 42
0.1491587679877775
  0
SEQEND
  5
347
  8
DEFAULT
 62
     5
  0
POLYLINE
  5
348
  8
DEFAULT
 62
     5
 66
     1
 10
0.0
 20
0.0
 30
0.0
 70
     1
  0
VERTEX
  5
349
  8
DEFAULT
 62
     5
 10
-15.1217804808559
 20
124.5620984580849
 30
0.0
 42
0.1931771868552624
  0
VERTEX
  5
34A
  8
DEFAULT
 62
     5
 10
-15.56111268200749
 20
125.8039002659964
 30
0.0
 42
0.2094545272841054
  0
VERTEX
  5
34B
  8
DEFAULT
 62
     5
 10
-16.57914894008087
 20
126.2287651247516
 30
0.0
 42
0.2175151257022475
  0
VERTEX
  5
34C
  8
DEFAULT
 62
     5
 10
-17.63914138592312
 20
125.7802704461
 30
0.0
 42
0.1974850402976526
  0
VERTEX
  5
34D
  8
DEFAULT
 62
     5
 10
-18.05098521265976
 20
124.5620984580849
 30
0.0
  0
SEQEND
  5
34E
  8
DEFAULT
 62
     5
  0
POLYLINE
  5
34F
  8
DEFAULT
 62
     5
 66
     1
 10
0.0
 20
0.0
 30
0.0
 70
     1
  0
VERTEX
  5
350
  8
DEFAULT
 62
     5
 10
-15.24523727097936
 20
122.5867898161096
 30
0.0
  0
VERTEX
  5
351
  8
DEFAULT
 62
     5
 10
-13.33165702406578
 20
122.3398762358627
 30
0.0
 42
-0.160194864391745
  0
VERTEX
  5
352
  8
DEFAULT
 62
     5
 10
-14.49485132133602
 20
120.6857483407694
 30
0.0
 42
-0.159020940581457
  0
VERTEX
  5
353
  8
DEFAULT
 62
     5
 10
-16.48462683475029
 20
120.1176540136405
 30
0.0
 42
-0.2510606897924195
  0
VERTEX
  5
354
  8
DEFAULT
 62
     5
 10
-19.28169503033328
 20
121.3560799984361
 30
0.0
 42
-0.1603231689598261
  0
VERTEX
  5
355
  8
DEFAULT
 62
     5
 10
-19.99832369073246
 20
123.8589740320643
 30
0.0
 42
-0.192898891945063
  0
VERTEX
  5
356
  8
DEFAULT
 62
     5
 10
-19.05358960744645
 20
126.687870475111
 30
0.0
 42
-0.2186957110499459
  0
VERTEX
  5
357
  8
DEFAULT
 62
     5
 10
-16.66499035739911
 20
127.7102466062331
 30
0.0
 42
-0.2248762650829747
  0
VERTEX
  5
358
  8
DEFAULT
 62
     5
 10
-14.10519053316044
 20
126.6468788082324
 30
0.0
 42
-0.1866850592647363
  0
VERTEX
  5
359
  8
DEFAULT
 62
     5
 10
-13.20820023394232
 20
123.3892589519121
 30
0.0
  0
VERTEX
  5
35A
  8
DEFAULT
 62
     5
 10
-18.08474344381887
 20
123.3892589519121
 30
0.0
 42
0.1907233177561266
  0
VERTEX
  5
35B
  8
DEFAULT
 62
     5
 10
-17.61261706144095
 20
122.0702968856521
 30
0.0
 42
0.2135192120775296
  0
VERTEX
  5
35C
  8
DEFAULT
 62
     5
 10
-16.48752039742108
 20
121.5991354951219
 30
0.0
 42
0.1657236937101085
  0
VERTEX
  5
35D
  8
DEFAULT
 62
     5
 10
-15.71736271144232
 20
121.8330285143078
 30
0.0
 42
0.1589948514629538
  0
SEQEND
  5
35E
  8
DEFAULT
 62
     5
  0
POLYLINE
  5
35F
  8
DEFAULT
 62
     5
 66
     1
 10
0.0
 20
0.0
 30
0.0
 70
     1
  0
VERTEX
  5
360
  8
DEFAULT
 62
     5
 10
-22.89955825863368
 20
120.3028391988257
 30
0.0
  0
VERTEX
  5
361
  8
DEFAULT
 62
     5
 10
-24.81313850554726
 20
120.3028391988257
 30
0.0
  0
VERTEX
  5
362
  8
DEFAULT
 62
     5
 10
-24.81313850554726
 20
127.5250614210479
 30
0.0
  0
VERTEX
  5
363
  8
DEFAULT
 62
     5
 10
-23.02301504875713
 20
127.5250614210479
 30
0.0
  0
VERTEX
  5
364
  8
DEFAULT
 62
     5
 10
-23.02301504875714
 20
126.5055788525966
 30
0.0
 42
-0.0977550519460747
  0
VERTEX
  5
365
  8
DEFAULT
 62
     5
 10
-22.23887133891215
 20
127.4691201513277
 30
0.0
 42
-0.1561720185079238
  0
VERTEX
  5
366
  8
DEFAULT
 62
     5
 10
-21.44894050372559
 20
127.710246606233
 30
0.0
 42
-0.1438170981369988
  0
VERTEX
  5
367
  8
DEFAULT
 62
     5
 10
-20.24523727097936
 20
127.3466278820945
 30
0.0
  0
VERTEX
  5
368
  8
DEFAULT
 62
     5
 10
-20.83165655310832
 20
125.6712814693304
 30
0.0
 42
0.1496770151887708
  0
VERTEX
  5
369
  8
DEFAULT
 62
     5
 10
-21.68427983328938
 20
125.9818515445047
 30
0.0
 42
0.1810970994866887
  0
VERTEX
  5
36A
  8
DEFAULT
 62
     5
 10
-22.33098120010215
 20
125.7604977678496
 30
0.0
 42
0.1501348396488132
  0
VERTEX
  5
36B
  8
DEFAULT
 62
     5
 10
-22.74764810224754
 20
124.9604399342728
 30
0.0
 42
0.0509111359642217
  0
VERTEX
  5
36C
  8
DEFAULT
 62
     5
 10
-22.89955825863368
 20
122.536635671731
 30
0.0
  0
SEQEND
  5
36D
  8
DEFAULT
 62
     5
  0
POLYLINE
  5
36E
  8
DEFAULT
 62
     5
 66
     1
 10
0.0
 20
0.0
 30
0.0
 70
     1
  0
VERTEX
  5
36F
  8
DEFAULT
 62
     5
 10
-28.70202739443614
 20
123.7596293222824
 30
0.0
  0
VERTEX
  5
370
  8
DEFAULT
 62
     5
 10
-29.81603159726058
 20
123.4673842021082
 30
0.0
 42
0.0811165779561275
  0
VERTEX
  5
371
  8
DEFAULT
 62
     5
 10
-30.8123661353031
 20
123.134630146458
 30
0.0
 42
0.2517191883486212
  0
VERTEX
  5
372
  8
DEFAULT
 62
     5
 10
-31.17116319690529
 20
122.4614049261206
 30
0.0
 42
0.4298150945544699
  0
VERTEX
  5
373
  8
DEFAULT
 62
     5
 10
-30.15457324920982
 20
121.4756787049985
 30
0.0
 42
0.1670482644845976
  0
VERTEX
  5
374
  8
DEFAULT
 62
     5
 10
-29.21032142636895
 20
121.8151853487955
 30
0.0
 42
0.1651612454991108
  0
VERTEX
  5
375
  8
DEFAULT
 62
     5
 10
-28.77340005648554
 20
122.4479016336569
 30
0.0
 42
0.0593667948163669
  0
VERTEX
  5
376
  8
DEFAULT
 62
     5
 10
-28.70202739443614
 20
123.3786501640342
 30
0.0
  0
SEQEND
  5
377
  8
DEFAULT
 62
     5
  0
POLYLINE
  5
378
  8
DEFAULT
 62
     5
 66
     1
 10
0.0
 20
0.0
 30
0.0
 70
     1
  0
VERTEX
  5
379
  8
DEFAULT
 62
     5
 10
-31.10943480184355
 20
125.3028391988257
 30
0.0
  0
VERTEX
  5
37A
  8
DEFAULT
 62
     5
 10
-32.83782986357196
 20
125.5497527790726
 30
0.0
 42
-0.1714833175990238
  0
VERTEX
  5
37B
  8
DEFAULT
 62
     5
 10
-31.85065733207196
 20
127.1807331147145
 30
0.0
 42
-0.1608829132837518
  0
VERTEX
  5
37C
  8
DEFAULT
 62
     5
 10
-29.76973506548554
 20
127.7102466062331
 30
0.0
 42
-0.1088364278880793
  0
VERTEX
  5
37D
  8
DEFAULT
 62
     5
 10
-27.902451350347
 20
127.4069094958209
 30
0.0
 42
-0.1580303644335375
  0
VERTEX
  5
37E
  8
DEFAULT
 62
     5
 10
-27.03873607992793
 20
126.6362690784395
 30
0.0
 42
-0.1088017057953466
  0
VERTEX
  5
37F
  8
DEFAULT
 62
     5
 10
-26.78844714752256
 20
124.9208955196871
 30
0.0
  0
VERTEX
  5
380
  8
DEFAULT
 62
     5
 10
-26.78844714752255
 20
122.6832409632207
 30
0.0
 42
0.0514080219695216
  0
VERTEX
  5
381
  8
DEFAULT
 62
     5
 10
-26.68428030424685
 20
121.2745793960815
 30
0.0
 42
0.0692287864232488
  0
VERTEX
  5
382
  8
DEFAULT
 62
     5
 10
-26.29461998702874
 20
120.3028391988257
 30
0.0
  0
VERTEX
  5
383
  8
DEFAULT
 62
     5
 10
-28.20820023394232
 20
120.3028391988257
 30
0.0
  0
VERTEX
  5
384
  8
DEFAULT
 62
     5
 10
-28.39145637734698
 20
120.8622528379423
 30
0.0
  0
VERTEX
  5
385
  8
DEFAULT
 62
     5
 10
-28.45897095583534
 20
121.0850543378476
 30
0.0
 42
-0.0933244186738141
  0
VERTEX
  5
386
  8
DEFAULT
 62
     5
 10
-29.50353200934834
 20
120.3597454603935
 30
0.0
 42
-0.1040133466925841
  0
VERTEX
  5
387
  8
DEFAULT
 62
     5
 10
-30.69083838696017
 20
120.1176540136404
 30
0.0
 42
-0.1965430357596605
  0
VERTEX
  5
388
  8
DEFAULT
 62
     5
 10
-32.44382873139019
 20
120.722881924087
 30
0.0
 42
-0.215436948765122
  0
VERTEX
  5
389
  8
DEFAULT
 62
     5
 10
-33.08474344381886
 20
122.2530712395691
 30
0.0
 42
-0.1373780248024371
  0
VERTEX
  5
38A
  8
DEFAULT
 62
     5
 10
-32.799249498919
 20
123.344891932875
 30
0.0
 42
-0.1473783213971267
  0
VERTEX
  5
38B
  8
DEFAULT
 62
     5
 10
-31.99919119438472
 20
124.0793632878291
 30
0.0
 42
-0.0634404934847184
  0
VERTEX
  5
38C
  8
DEFAULT
 62
     5
 10
-30.51529841067759
 20
124.5244830852797
 30
0.0
 42
0.0472009877729195
  0
VERTEX
  5
38D
  8
DEFAULT
 62
     5
 10
-28.70202739443614
 20
124.994197223517
 30
0.0
  0
VERTEX
  5
38E
  8
DEFAULT
 62
     5
 10
-28.70202739443614
 20
125.1880630967145
 30
0.0
 42
0.2070921599656466
  0
VERTEX
  5
38F
  8
DEFAULT
 62
     5
 10
-28.95810345218307
 20
125.9895677116267
 30
0.0
 42
0.177788743270787
  0
VERTEX
  5
390
  8
DEFAULT
 62
     5
 10
-29.92502104498759
 20
126.2287651247516
 30
0.0
 42
0.1651091138038746
  0
VERTEX
  5
391
  8
DEFAULT
 62
     5
 10
-30.67395974233809
 20
126.0233254718284
 30
0.0
 42
0.1491587679877871
  0
SEQEND
  5
392
  8
DEFAULT
 62
     5
  0
POLYLINE
  5
393
  8
DEFAULT
 62
     5
 66
     1
 10
0.0
 20
0.0
 30
0.0
 70
     1
  0
VERTEX
  5
394
  8
DEFAULT
 62
     5
 10
-39.75141011048552
 20
124.5620984580849
 30
0.0
 42
0.1931771868552564
  0
VERTEX
  5
395
  8
DEFAULT
 62
     5
 10
-40.19074231163711
 20
125.8039002659964
 30
0.0
 42
0.2094545272840988
  0
VERTEX
  5
396
  8
DEFAULT
 62
     5
 10
-41.2087785697105
 20
126.2287651247516
 30
0.0
 42
0.2175151257022413
  0
VERTEX
  5
397
  8
DEFAULT
 62
     5
 10
-42.26877101555275
 20
125.7802704461
 30
0.0
 42
0.1974850402976688
  0
VERTEX
  5
398
  8
DEFAULT
 62
     5
 10
-42.68061484228937
 20
124.5620984580849
 30
0.0
  0
SEQEND
  5
399
  8
DEFAULT
 62
     5
  0
POLYLINE
  5
39A
  8
DEFAULT
 62
     5
 66
     1
 10
0.0
 20
0.0
 30
0.0
 70
     1
  0
VERTEX
  5
39B
  8
DEFAULT
 62
     5
 10
-39.87486690060898
 20
122.5867898161096
 30
0.0
  0
VERTEX
  5
39C
  8
DEFAULT
 62
     5
 10
-37.96128665369542
 20
122.3398762358627
 30
0.0
 42
-0.1601948643917572
  0
VERTEX
  5
39D
  8
DEFAULT
 62
     5
 10
-39.12448095096565
 20
120.6857483407694
 30
0.0
 42
-0.1590209405814526
  0
VERTEX
  5
39E
  8
DEFAULT
 62
     5
 10
-41.11425646437992
 20
120.1176540136405
 30
0.0
 42
-0.2510606897924206
  0
VERTEX
  5
39F
  8
DEFAULT
 62
     5
 10
-43.9113246599629
 20
121.3560799984361
 30
0.0
 42
-0.1603231689598228
  0
VERTEX
  5
3A0
  8
DEFAULT
 62
     5
 10
-44.62795332036209
 20
123.8589740320643
 30
0.0
 42
-0.1928988919450581
  0
VERTEX
  5
3A1
  8
DEFAULT
 62
     5
 10
-43.68321923707607
 20
126.687870475111
 30
0.0
 42
-0.2186957110499402
  0
VERTEX
  5
3A2
  8
DEFAULT
 62
     5
 10
-41.29461998702874
 20
127.7102466062331
 30
0.0
 42
-0.2248762650829787
  0
VERTEX
  5
3A3
  8
DEFAULT
 62
     5
 10
-38.73482016279006
 20
126.6468788082324
 30
0.0
 42
-0.1866850592647392
  0
VERTEX
  5
3A4
  8
DEFAULT
 62
     5
 10
-37.83782986357194
 20
123.3892589519121
 30
0.0
  0
VERTEX
  5
3A5
  8
DEFAULT
 62
     5
 10
-42.71437307344848
 20
123.3892589519121
 30
0.0
 42
0.190723317756137
  0
VERTEX
  5
3A6
  8
DEFAULT
 62
     5
 10
-42.2422466910706
 20
122.0702968856521
 30
0.0
 42
0.213519212077523
  0
VERTEX
  5
3A7
  8
DEFAULT
 62
     5
 10
-41.1171500270507
 20
121.5991354951219
 30
0.0
 42
0.1657236937101115
  0
VERTEX
  5
3A8
  8
DEFAULT
 62
     5
 10
-40.34699234107195
 20
121.8330285143078
 30
0.0
 42
0.1589948514629387
  0
SEQEND
  5
3A9
  8
DEFAULT
 62
     5
  0
POLYLINE
  5
3AA
  8
DEFAULT
 62
     5
 66
     1
 10
0.0
 20
0.0
 30
0.0
 70
     1
  0
VERTEX
  5
3AB
  8
DEFAULT
 62
     5
 10
-47.89955825863368
 20
120.3028391988257
 30
0.0
  0
VERTEX
  5
3AC
  8
DEFAULT
 62
     5
 10
-47.89955825863368
 20
130.2411108037639
 30
0.0
  0
VERTEX
  5
3AD
  8
DEFAULT
 62
     5
 10
-45.98597801172009
 20
130.2411108037639
 30
0.0
  0
VERTEX
  5
3AE
  8
DEFAULT
 62
     5
 10
-45.98597801172009
 20
120.3028391988257
 30
0.0
  0
SEQEND
  5
3AF
  8
DEFAULT
 62
     5
  0
POLYLINE
  5
3B0
  8
DEFAULT
 62
     5
 66
     1
 10
0.0
 20
0.0
 30
0.0
 70
     1
  0
VERTEX
  5
3B1
  8
DEFAULT
 62
     5
 10
-54.44276813517688
 20
124.0480173008105
 30
0.0
 42
0.1375284068188317
  0
VERTEX
  5
3B2
  8
DEFAULT
 62
     5
 10
-54.09458080336756
 20
122.3697763834608
 30
0.0
 42
0.2740108968145582
  0
VERTEX
  5
3B3
  8
DEFAULT
 62
     5
 10
-52.79539094440049
 20
121.5991354951219
 30
0.0
 42
0.239121506296663
  0
VERTEX
  5
3B4
  8
DEFAULT
 62
     5
 10
-51.73346992773519
 20
122.1460108336226
 30
0.0
 42
0.1664742695868009
  0
VERTEX
  5
3B5
  8
DEFAULT
 62
     5
 10
-51.29461998702875
 20
123.8695837618572
 30
0.0
 42
0.1640109831052017
  0
VERTEX
  5
3B6
  8
DEFAULT
 62
     5
 10
-51.73684575085111
 20
125.6751386109765
 30
0.0
 42
0.2405029912267817
  0
VERTEX
  5
3B7
  8
DEFAULT
 62
     5
 10
-52.86869359014535
 20
126.2287651247516
 30
0.0
 42
0.2344888738737493
  0
VERTEX
  5
3B8
  8
DEFAULT
 62
     5
 10
-53.99379025416523
 20
125.6886419034402
 30
0.0
 42
0.1733692477042054
  0
SEQEND
  5
3B9
  8
DEFAULT
 62
     5
  0
POLYLINE
  5
3BA
  8
DEFAULT
 62
     5
 66
     1
 10
0.0
 20
0.0
 30
0.0
 70
     1
  0
VERTEX
  5
3BB
  8
DEFAULT
 62
     5
 10
-56.35634838209047
 20
120.3028391988257
 30
0.0
  0
VERTEX
  5
3BC
  8
DEFAULT
 62
     5
 10
-56.35634838209047
 20
130.2411108037639
 30
0.0
  0
VERTEX
  5
3BD
  8
DEFAULT
 62
     5
 10
-54.44276813517688
 20
130.2411108037639
 30
0.0
  0
VERTEX
  5
3BE
  8
DEFAULT
 62
     5
 10
-54.44276813517688
 20
126.7110189764772
 30
0.0
 42
-0.2270822596882884
  0
VERTEX
  5
3BF
  8
DEFAULT
 62
     5
 10
-52.38065355499308
 20
127.710246606233
 30
0.0
 42
-0.2252479393351337
  0
VERTEX
  5
3C0
  8
DEFAULT
 62
     5
 10
-50.23125171807056
 20
126.7491166097276
 30
0.0
 42
-0.1849988564296036
  0
VERTEX
  5
3C1
  8
DEFAULT
 62
     5
 10
-49.38103974011517
 20
123.9891824684196
 30
0.0
 42
-0.1811789010422568
  0
VERTEX
  5
3C2
  8
DEFAULT
 62
     5
 10
-50.24620132091214
 20
121.1231519710979
 30
0.0
 42
-0.2291506328684805
  0
VERTEX
  5
3C3
  8
DEFAULT
 62
     5
 10
-52.34785984472423
 20
120.1176540136404
 30
0.0
 42
-0.1258590372260762
  0
VERTEX
  5
3C4
  8
DEFAULT
 62
     5
 10
-53.54722367537923
 20
120.4364234582968
 30
0.0
 42
-0.1164914631293887
  0
VERTEX
  5
3C5
  8
DEFAULT
 62
     5
 10
-54.56622492530034
 20
121.3560799984361
 30
0.0
  0
VERTEX
  5
3C6
  8
DEFAULT
 62
     5
 10
-54.56622492530034
 20
120.3028391988257
 30
0.0
  0
SEQEND
  5
3C7
  8
DEFAULT
 62
     5
  0
POLYLINE
  5
3C8
  8
DEFAULT
 62
     5
 66
     1
 10
0.0
 20
0.0
 30
0.0
 70
     1
  0
VERTEX
  5
3C9
  8
DEFAULT
 62
     5
 10
-60.18350887591762
 20
120.3028391988257
 30
0.0
  0
VERTEX
  5
3CA
  8
DEFAULT
 62
     5
 10
-60.18350887591762
 20
127.5250614210479
 30
0.0
  0
VERTEX
  5
3CB
  8
DEFAULT
 62
     5
 10
-58.26992862900404
 20
127.5250614210479
 30
0.0
  0
VERTEX
  5
3CC
  8
DEFAULT
 62
     5
 10
-58.26992862900404
 20
120.3028391988257
 30
0.0
  0
SEQEND
  5
3CD
  8
DEFAULT
 62
     5
  0
POLYLINE
  5
3CE
  8
DEFAULT
 62
     5
 66
     1
 10
0.0
 20
0.0
 30
0.0
 70
     1
  0
VERTEX
  5
3CF
  8
DEFAULT
 62
     5
 10
-60.18350887591762
 20
128.5744441370973
 30
0.0
  0
VERTEX
  5
3D0
  8
DEFAULT
 62
     5
 10
-60.18350887591762
 20
130.2411108037639
 30
0.0
  0
VERTEX
  5
3D1
  8
DEFAULT
 62
     5
 10
-58.26992862900404
 20
130.2411108037639
 30
0.0
  0
VERTEX
  5
3D2
  8
DEFAULT
 62
     5
 10
-58.26992862900404
 20
128.5744441370973
 30
0.0
  0
SEQEND
  5
3D3
  8
DEFAULT
 62
     5
  0
POLYLINE
  5
3D4
  8
DEFAULT
 62
     5
 66
     1
 10
0.0
 20
0.0
 30
0.0
 70
     1
  0
VERTEX
  5
3D5
  8
DEFAULT
 62
     5
 10
-68.57857060431269
 20
122.3398762358627
 30
0.0
  0
VERTEX
  5
3D6
  8
DEFAULT
 62
     5
 10
-66.6649903573991
 20
122.5867898161096
 30
0.0
 42
0.1817134537413155
  0
VERTEX
  5
3D7
  8
DEFAULT
 62
     5
 10
-66.16971594461242
 20
121.7582790872276
 30
0.0
 42
0.1637490318832823
  0
VERTEX
  5
3D8
  8
DEFAULT
 62
     5
 10
-65.12660214339226
 20
121.4756787049985
 30
0.0
 42
0.1581548590316407
  0
VERTEX
  5
3D9
  8
DEFAULT
 62
     5
 10
-64.0145265113909
 20
121.7524924328435
 30
0.0
 42
0.2454173628753098
  0
VERTEX
  5
3DA
  8
DEFAULT
 62
     5
 10
-63.76375578949786
 20
122.2713971364841
 30
0.0
 42
0.1967133408659282
  0
VERTEX
  5
3DB
  8
DEFAULT
 62
     5
 10
-63.89975040927978
 20
122.6379094232934
 30
0.0
 42
0.1152480441762494
  0
VERTEX
  5
3DC
  8
DEFAULT
 62
     5
 10
-64.5401828612633
 20
122.8935036915527
 30
0.0
 42
-0.0750101977649257
  0
VERTEX
  5
3DD
  8
DEFAULT
 62
     5
 10
-67.47421019751846
 20
123.8377545724786
 30
0.0
 42
-0.263057537723735
  0
VERTEX
  5
3DE
  8
DEFAULT
 62
     5
 10
-68.33165702406579
 20
125.4754865543524
 30
0.0
 42
-0.2278055359034085
  0
VERTEX
  5
3DF
  8
DEFAULT
 62
     5
 10
-67.59043402287989
 20
127.0659565416459
 30
0.0
 42
-0.1789409577799095
  0
VERTEX
  5
3E0
  8
DEFAULT
 62
     5
 10
-65.29249785268718
 20
127.7102466062331
 30
0.0
 42
-0.1478680227512985
  0
VERTEX
  5
3E1
  8
DEFAULT
 62
     5
 10
-63.0895655773127
 20
127.2111150518003
 30
0.0
 42
-0.1798681362132169
  0
VERTEX
  5
3E2
  8
DEFAULT
 62
     5
 10
-62.09708912283121
 20
125.7349379642578
 30
0.0
  0
VERTEX
  5
3E3
  8
DEFAULT
 62
     5
 10
-63.88721257962133
 20
125.4262959889491
 30
0.0
 42
0.1762609448243883
  0
VERTEX
  5
3E4
  8
DEFAULT
 62
     5
 10
-64.32509799943753
 20
126.1135067621953
 30
0.0
 42
0.1598214678236346
  0
VERTEX
  5
3E5
  8
DEFAULT
 62
     5
 10
-65.24523727097935
 20
126.352221914875
 30
0.0
 42
0.1371855487857543
  0
VERTEX
  5
3E6
  8
DEFAULT
 62
     5
 10
-66.32451919271189
 20
126.138102044897
 30
0.0
 42
0.2593740206710682
  0
VERTEX
  5
3E7
  8
DEFAULT
 62
     5
 10
-66.54153356727564
 20
125.7436186522701
 30
0.0
 42
0.2456185528239913
  0
VERTEX
  5
3E8
  8
DEFAULT
 62
     5
 10
-66.35152577763915
 20
125.3906096579244
 30
0.0
 42
0.0664798749578843
  0
VERTEX
  5
3E9
  8
DEFAULT
 62
     5
 10
-64.57201157968444
 20
124.8442170508263
 30
0.0
 42
-0.1095214193377325
  0
VERTEX
  5
3EA
  8
DEFAULT
 62
     5
 10
-62.44720455450612
 20
123.9853243848585
 30
0.0
 42
-0.2284114958797547
  0
VERTEX
  5
3EB
  8
DEFAULT
 62
     5
 10
-61.8501755425843
 20
122.554961568646
 30
0.0
 42
-0.2276229810650839
  0
VERTEX
  5
3EC
  8
DEFAULT
 62
     5
 10
-62.67772175057605
 20
120.8362112448627
 30
0.0
 42
-0.1809722242825388
  0
VERTEX
  5
3ED
  8
DEFAULT
 62
     5
 10
-65.12660214339226
 20
120.1176540136405
 30
0.0
 42
-0.1534212868271966
  0
VERTEX
  5
3EE
  8
DEFAULT
 62
     5
 10
-67.45636750296359
 20
120.71564801741
 30
0.0
 42
-0.185354262016601
  0
SEQEND
  5
3EF
  8
DEFAULT
 62
     5
  0
POLYLINE
  5
3F0
  8
DEFAULT
 62
     5
 66
     1
 10
0.0
 20
0.0
 30
0.0
 70
     1
  0
VERTEX
  5
3F1
  8
DEFAULT
 62
     5
 10
-76.29461998702874
 20
122.3398762358627
 30
0.0
  0
VERTEX
  5
3F2
  8
DEFAULT
 62
     5
 10
-74.38103974011516
 20
122.5867898161096
 30
0.0
 42
0.1817134537413186
  0
VERTEX
  5
3F3
  8
DEFAULT
 62
     5
 10
-73.88576532732849
 20
121.7582790872276
 30
0.0
 42
0.1637490318832742
  0
VERTEX
  5
3F4
  8
DEFAULT
 62
     5
 10
-72.84265152610831
 20
121.4756787049985
 30
0.0
 42
0.1581548590316407
  0
VERTEX
  5
3F5
  8
DEFAULT
 62
     5
 10
-71.73057589410696
 20
121.7524924328435
 30
0.0
 42
0.2454173628753152
  0
VERTEX
  5
3F6
  8
DEFAULT
 62
     5
 10
-71.47980517221391
 20
122.2713971364841
 30
0.0
 42
0.1967133408659733
  0
VERTEX
  5
3F7
  8
DEFAULT
 62
     5
 10
-71.61579979199584
 20
122.6379094232934
 30
0.0
 42
0.1152480441762846
  0
VERTEX
  5
3F8
  8
DEFAULT
 62
     5
 10
-72.25623224397935
 20
122.8935036915526
 30
0.0
 42
-0.0750101977649232
  0
VERTEX
  5
3F9
  8
DEFAULT
 62
     5
 10
-75.19025958023451
 20
123.8377545724786
 30
0.0
 42
-0.2630575377237424
  0
VERTEX
  5
3FA
  8
DEFAULT
 62
     5
 10
-76.04770640678184
 20
125.4754865543524
 30
0.0
 42
-0.2278055359034137
  0
VERTEX
  5
3FB
  8
DEFAULT
 62
     5
 10
-75.30648340559594
 20
127.065956541646
 30
0.0
 42
-0.1789409577799129
  0
VERTEX
  5
3FC
  8
DEFAULT
 62
     5
 10
-73.00854723540323
 20
127.7102466062331
 30
0.0
 42
-0.1478680227512957
  0
VERTEX
  5
3FD
  8
DEFAULT
 62
     5
 10
-70.80561496002875
 20
127.2111150518003
 30
0.0
 42
-0.1798681362132142
  0
VERTEX
  5
3FE
  8
DEFAULT
 62
     5
 10
-69.81313850554726
 20
125.7349379642578
 30
0.0
  0
VERTEX
  5
3FF
  8
DEFAULT
 62
     5
 10
-71.60326196233737
 20
125.4262959889491
 30
0.0
 42
0.1762609448243968
  0
VERTEX
  5
400
  8
DEFAULT
 62
     5
 10
-72.04114738215357
 20
126.1135067621953
 30
0.0
 42
0.159821467823647
  0
VERTEX
  5
401
  8
DEFAULT
 62
     5
 10
-72.9612866536954
 20
126.352221914875
 30
0.0
 42
0.1371855487857551
  0
VERTEX
  5
402
  8
DEFAULT
 62
     5
 10
-74.04056857542793
 20
126.138102044897
 30
0.0
 42
0.2593740206710677
  0
VERTEX
  5
403
  8
DEFAULT
 62
     5
 10
-74.25758294999167
 20
125.7436186522701
 30
0.0
 42
0.2456185528239812
  0
VERTEX
  5
404
  8
DEFAULT
 62
     5
 10
-74.0675751603552
 20
125.3906096579244
 30
0.0
 42
0.0664798749578812
  0
VERTEX
  5
405
  8
DEFAULT
 62
     5
 10
-72.2880609624005
 20
124.8442170508263
 30
0.0
 42
-0.1095214193377338
  0
VERTEX
  5
406
  8
DEFAULT
 62
     5
 10
-70.16325393722215
 20
123.9853243848586
 30
0.0
 42
-0.2284114958797779
  0
VERTEX
  5
407
  8
DEFAULT
 62
     5
 10
-69.56622492530035
 20
122.554961568646
 30
0.0
 42
-0.2276229810650996
  0
VERTEX
  5
408
  8
DEFAULT
 62
     5
 10
-70.39377113329212
 20
120.8362112448627
 30
0.0
 42
-0.1809722242825421
  0
VERTEX
  5
409
  8
DEFAULT
 62
     5
 10
-72.84265152610831
 20
120.1176540136405
 30
0.0
 42
-0.1534212868271901
  0
VERTEX
  5
40A
  8
DEFAULT
 62
     5
 10
-75.17241688567964
 20
120.71564801741
 30
0.0
 42
-0.185354262016601
  0
SEQEND
  5
40B
  8
DEFAULT
 62
     5
  0
POLYLINE
  5
40C
  8
DEFAULT
 62
     5
 66
     1
 10
0.0
 20
0.0
 30
0.0
 70
     1
  0
VERTEX
  5
40D
  8
DEFAULT
 62
     5
 10
-82.59091628332503
 20
123.9139507808942
 30
0.0
 42
0.1807696907208193
  0
VERTEX
  5
40E
  8
DEFAULT
 62
     5
 10
-82.09130199748965
 20
122.241496988886
 30
0.0
 42
0.4777036397637673
  0
VERTEX
  5
40F
  8
DEFAULT
 62
     5
 10
-79.63036415163029
 20
122.241496988886
 30
0.0
 42
0.1794408075869798
  0
VERTEX
  5
410
  8
DEFAULT
 62
     5
 10
-79.13412615986825
 20
123.9274540733579
 30
0.0
 42
0.1800932450793794
  0
VERTEX
  5
411
  8
DEFAULT
 62
     5
 10
-79.63036415163026
 20
125.586404101945
 30
0.0
 42
0.47937293848468
  0
VERTEX
  5
412
  8
DEFAULT
 62
     5
 10
-82.09130199748961
 20
125.586404101945
 30
0.0
 42
0.1807697890868484
  0
SEQEND
  5
413
  8
DEFAULT
 62
     5
  0
POLYLINE
  5
414
  8
DEFAULT
 62
     5
 66
     1
 10
0.0
 20
0.0
 30
0.0
 70
     1
  0
VERTEX
  5
415
  8
DEFAULT
 62
     5
 10
-84.50449653023861
 20
124.016188111432
 30
0.0
 42
-0.1222574291832709
  0
VERTEX
  5
416
  8
DEFAULT
 62
     5
 10
-84.03815774415973
 20
125.8699694760218
 30
0.0
 42
-0.1509199207836097
  0
VERTEX
  5
417
  8
DEFAULT
 62
     5
 10
-82.71678390471668
 20
127.2381211657701
 30
0.0
 42
-0.1287246067144196
  0
VERTEX
  5
418
  8
DEFAULT
 62
     5
 10
-80.8075435308518
 20
127.7102466062331
 30
0.0
 42
-0.2109274079128391
  0
VERTEX
  5
419
  8
DEFAULT
 62
     5
 10
-78.13779115086825
 20
126.6396449015554
 30
0.0
 42
-0.2026212639801748
  0
VERTEX
  5
41A
  8
DEFAULT
 62
     5
 10
-77.0970891228312
 20
123.9342057195897
 30
0.0
 42
-0.2022295973323299
  0
VERTEX
  5
41B
  8
DEFAULT
 62
     5
 10
-78.14791814925852
 20
121.2017590107818
 30
0.0
 42
-0.211550609660092
  0
VERTEX
  5
41C
  8
DEFAULT
 62
     5
 10
-80.79404118030308
 20
120.1176540136404
 30
0.0
 42
-0.1188796278362355
  0
VERTEX
  5
41D
  8
DEFAULT
 62
     5
 10
-82.67627496924068
 20
120.5690431968778
 30
0.0
 42
-0.15823557983202
  0
VERTEX
  5
41E
  8
DEFAULT
 62
     5
 10
-84.03815774415973
 20
121.8928283385465
 30
0.0
 42
-0.123905326714031
  0
SEQEND
  5
41F
  8
DEFAULT
 62
     5
  0
POLYLINE
  5
420
  8
DEFAULT
 62
     5
 66
     1
 10
0.0
 20
0.0
 30
0.0
 70
     1
  0
VERTEX
  5
421
  8
DEFAULT
 62
     5
 10
-90.61560764134973
 20
124.0354785292372
 30
0.0
 42
0.1662127852120502
  0
VERTEX
  5
422
  8
DEFAULT
 62
     5
 10
-90.1420349485939
 20
122.1942359362207
 30
0.0
 42
0.2404461653497537
  0
VERTEX
  5
423
  8
DEFAULT
 62
     5
 10
-88.98848538926879
 20
121.5991354951219
 30
0.0
 42
0.2413239634427231
  0
VERTEX
  5
424
  8
DEFAULT
 62
     5
 10
-87.90100456901162
 20
122.1455285731775
 30
0.0
 42
0.1627449374921851
  0
VERTEX
  5
425
  8
DEFAULT
 62
     5
 10
-87.46745949320159
 20
123.9380638031507
 30
0.0
 42
0.1661976731382214
  0
VERTEX
  5
426
  8
DEFAULT
 62
     5
 10
-87.91450786147526
 20
125.6650116125863
 30
0.0
 42
0.2412377667960429
  0
VERTEX
  5
427
  8
DEFAULT
 62
     5
 10
-89.02127815762272
 20
126.2287651247516
 30
0.0
 42
0.2367422129321942
  0
VERTEX
  5
428
  8
DEFAULT
 62
     5
 10
-90.16228941633192
 20
125.6751386109765
 30
0.0
 42
0.1723447809988843
  0
SEQEND
  5
429
  8
DEFAULT
 62
     5
  0
POLYLINE
  5
42A
  8
DEFAULT
 62
     5
 66
     1
 10
0.0
 20
0.0
 30
0.0
 70
     1
  0
VERTEX
  5
42B
  8
DEFAULT
 62
     5
 10
-92.5291878882633
 20
127.5250614210479
 30
0.0
  0
VERTEX
  5
42C
  8
DEFAULT
 62
     5
 10
-90.73906443147318
 20
127.5250614210479
 30
0.0
  0
VERTEX
  5
42D
  8
DEFAULT
 62
     5
 10
-90.73906443147318
 20
126.4718215633524
 30
0.0
 42
-0.1189653659007504
  0
VERTEX
  5
42E
  8
DEFAULT
 62
     5
 10
-89.81458481592516
 20
127.3610956954484
 30
0.0
 42
-0.1382105598910291
  0
VERTEX
  5
42F
  8
DEFAULT
 62
     5
 10
-88.52166387178733
 20
127.7102466062331
 30
0.0
 42
-0.2273648758850323
  0
VERTEX
  5
430
  8
DEFAULT
 62
     5
 10
-86.41807677715221
 20
126.7182524121967
 30
0.0
 42
-0.1838682188936221
  0
VERTEX
  5
431
  8
DEFAULT
 62
     5
 10
-85.55387924628799
 20
123.9554242372605
 30
0.0
 42
-0.1823656645300242
  0
VERTEX
  5
432
  8
DEFAULT
 62
     5
 10
-86.42531021287168
 20
121.1265277942138
 30
0.0
 42
-0.2285594541574866
  0
VERTEX
  5
433
  8
DEFAULT
 62
     5
 10
-88.53709620603149
 20
120.1176540136405
 30
0.0
 42
-0.1163198006807799
  0
VERTEX
  5
434
  8
DEFAULT
 62
     5
 10
-89.60673386077634
 20
120.353958335052
 30
0.0
 42
-0.0904152380777669
  0
VERTEX
  5
435
  8
DEFAULT
 62
     5
 10
-90.61560764134971
 20
121.164144108934
 30
0.0
  0
VERTEX
  5
436
  8
DEFAULT
 62
     5
 10
-90.61560764134973
 20
117.5250614210479
 30
0.0
  0
VERTEX
  5
437
  8
DEFAULT
 62
     5
 10
-92.5291878882633
 20
117.5250614210479
 30
0.0
  0
SEQEND
  5
438
  8
DEFAULT
 62
     5
  0
POLYLINE
  5
439
  8
DEFAULT
 62
     5
 66
     1
 10
0.0
 20
0.0
 30
0.0
 70
     1
  0
VERTEX
  5
43A
  8
DEFAULT
 62
     5
 10
-104.9983236907324
 20
127.5250614210479
 30
0.0
  0
VERTEX
  5
43B
  8
DEFAULT
 62
     5
 10
-103.269928629004
 20
127.5250614210479
 30
0.0
  0
VERTEX
  5
43C
  8
DEFAULT
 62
     5
 10
-103.269928629004
 20
126.5460877880726
 30
0.0
 42
-0.2373869490350187
  0
VERTEX
  5
43D
  8
DEFAULT
 62
     5
 10
-101.0235933845253
 20
127.7102466062331
 30
0.0
 42
-0.1315120310734531
  0
VERTEX
  5
43E
  8
DEFAULT
 62
     5
 10
-99.82326550393752
 20
127.4208950487296
 30
0.0
 42
-0.1393853272244936
  0
VERTEX
  5
43F
  8
DEFAULT
 62
     5
 10
-98.9884853892688
 20
126.5460877880725
 30
0.0
 42
-0.1018343532165888
  0
VERTEX
  5
440
  8
DEFAULT
 62
     5
 10
-97.96707330807949
 20
127.4208950487296
 30
0.0
 42
-0.1239296679571156
  0
VERTEX
  5
441
  8
DEFAULT
 62
     5
 10
-96.79712689361997
 20
127.7102466062331
 30
0.0
 42
-0.1355305589142026
  0
VERTEX
  5
442
  8
DEFAULT
 62
     5
 10
-95.4574280991769
 20
127.3861727676377
 30
0.0
 42
-0.1623661969580683
  0
VERTEX
  5
443
  8
DEFAULT
 62
     5
 10
-94.63856210824002
 20
126.4351697695225
 30
0.0
 42
-0.0915442810314652
  0
VERTEX
  5
444
  8
DEFAULT
 62
     5
 10
-94.44276813517689
 20
124.9343978702358
 30
0.0
  0
VERTEX
  5
445
  8
DEFAULT
 62
     5
 10
-94.44276813517688
 20
120.3028391988257
 30
0.0
  0
VERTEX
  5
446
  8
DEFAULT
 62
     5
 10
-96.35634838209046
 20
120.3028391988257
 30
0.0
  0
VERTEX
  5
447
  8
DEFAULT
 62
     5
 10
-96.35634838209045
 20
124.4328554845348
 30
0.0
 42
0.1141470137910722
  0
VERTEX
  5
448
  8
DEFAULT
 62
     5
 10
-96.5511778342633
 20
125.820779381576
 30
0.0
 42
0.2721000606533402
  0
VERTEX
  5
449
  8
DEFAULT
 62
     5
 10
-97.35846957451709
 20
126.2287651247516
 30
0.0
 42
0.1575639071466319
  0
VERTEX
  5
44A
  8
DEFAULT
 62
     5
 10
-98.10451565111173
 20
125.9837805862852
 30
0.0
 42
0.1657627374473922
  0
VERTEX
  5
44B
  8
DEFAULT
 62
     5
 10
-98.60895254139844
 20
125.2661883469107
 30
0.0
 42
0.0723437487254851
  0
VERTEX
  5
44C
  8
DEFAULT
 62
     5
 10
-98.76375578949788
 20
123.7731326147461
 30
0.0
  0
VERTEX
  5
44D
  8
DEFAULT
 62
     5
 10
-98.76375578949788
 20
120.3028391988257
 30
0.0
  0
VERTEX
  5
44E
  8
DEFAULT
 62
     5
 10
-100.6773360364114
 20
120.3028391988257
 30
0.0
  0
VERTEX
  5
44F
  8
DEFAULT
 62
     5
 10
-100.6773360364114
 20
124.2621371707886
 30
0.0
 42
0.0609892367975047
  0
VERTEX
  5
450
  8
DEFAULT
 62
     5
 10
-100.7771620647236
 20
125.6235376852625
 30
0.0
 42
0.1633931196985057
  0
VERTEX
  5
451
  8
DEFAULT
 62
     5
 10
-101.0872503504101
 20
126.0792667415486
 30
0.0
 42
0.1561218014296726
  0
VERTEX
  5
452
  8
DEFAULT
 62
     5
 10
-101.657274190277
 20
126.2287651247516
 30
0.0
 42
0.1551837175468442
  0
VERTEX
  5
453
  8
DEFAULT
 62
     5
 10
-102.4380416060486
 20
125.990532232517
 30
0.0
 42
0.1670025847935595
  0
VERTEX
  5
454
  8
DEFAULT
 62
     5
 10
-102.9347623292132
 20
125.3033219302283
 30
0.0
 42
0.072269859496236
  0
VERTEX
  5
455
  8
DEFAULT
 62
     5
 10
-103.0847434438189
 20
123.813642492137
 30
0.0
  0
VERTEX
  5
456
  8
DEFAULT
 62
     5
 10
-103.0847434438189
 20
120.3028391988257
 30
0.0
  0
VERTEX
  5
457
  8
DEFAULT
 62
     5
 10
-104.9983236907324
 20
120.3028391988257
 30
0.0
  0
SEQEND
  5
458
  8
DEFAULT
 62
     5
  0
POLYLINE
  5
459
  8
DEFAULT
 62
     5
 66
     1
 10
0.0
 20
0.0
 30
0.0
 70
     1
  0
VERTEX
  5
45A
  8
DEFAULT
 62
     5
 10
-108.7020273944361
 20
120.3028391988257
 30
0.0
  0
VERTEX
  5
45B
  8
DEFAULT
 62
     5
 10
-108.7020273944361
 20
130.2411108037639
 30
0.0
  0
VERTEX
  5
45C
  8
DEFAULT
 62
     5
 10
-106.6649903573991
 20
130.2411108037639
 30
0.0
  0
VERTEX
  5
45D
  8
DEFAULT
 62
     5
 10
-106.6649903573991
 20
120.3028391988257
 30
0.0
  0
SEQEND
  5
45E
  8
DEFAULT
 62
     5
  0
LINE
  5
460
  8
1
  6
CONTINUOUS
 62
     5
 10
-112.2795335164123
 20
-36.83499481559352
 30
0.0
 11
-36.07953351641234
 21
-36.83499481559352
 31
0.0
  0
LINE
  5
461
  8
1
  6
CONTINUOUS
 62
     5
 10
-36.07953351641234
 20
-36.83499481559352
 30
0.0
 11
14.72046648358767
 21
90.16500518440648
 31
0.0
  0
LINE
  5
462
  8
1
  6
CONTINUOUS
 62
     5
 10
14.72046648358767
 20
90.16500518440648
 30
0.0
 11
-112.2795335164123
 21
90.16500518440648
 31
0.0
  0
LINE
  5
463
  8
1
  6
CONTINUOUS
 62
     5
 10
-112.2795335164123
 20
90.16500518440648
 30
0.0
 11
-112.2795335164123
 21
-36.83499481559352
 31
0.0
  0
LINE
  5
464
  8
1
  6
CONTINUOUS
 62
     5
 10
90.92046648358766
 20
90.16500518440648
 30
0.0
 11
14.72046648358767
 21
90.16500518440648
 31
0.0
  0
LINE
  5
465
  8
1
  6
CONTINUOUS
 62
     5
 10
14.72046648358767
 20
90.16500518440648
 30
0.0
 11
-36.07953351641234
 21
-36.83499481559352
 31
0.0
  0
LINE
  5
466
  8
1
  6
CONTINUOUS
 62
     5
 10
-36.07953351641234
 20
-36.83499481559352
 30
0.0
 11
90.92046648358766
 21
-36.83499481559352
 31
0.0
  0
LINE
  5
467
  8
1
  6
CONTINUOUS
 62
     5
 10
90.92046648358766
 20
-36.83499481559352
 30
0.0
 11
90.92046648358766
 21
90.16500518440648
 31
0.0
  0
LINE
  5
469
  8
2
  6
CONTINUOUS
 62
     5
 10
-112.2795335164123
 20
-36.83499481559352
 30
0.0
 11
90.92046648358766
 21
-36.83499481559352
 31
0.0
  0
LINE
  5
46A
  8
2
  6
CONTINUOUS
 62
     5
 10
90.92046648358766
 20
-36.83499481559352
 30
0.0
 11
90.92046648358766
 21
-113.0349948155935
 31
0.0
  0
LINE
  5
46B
  8
2
  6
CONTINUOUS
 62
     5
 10
90.92046648358766
 20
-113.0349948155935
 30
0.0
 11
-112.2795335164123
 21
-36.83499481559352
 31
0.0
  0
LINE
  5
46C
  8
2
  6
CONTINUOUS
 62
     5
 10
90.92046648358766
 20
-113.0349948155935
 30
0.0
 11
-112.2795335164123
 21
-113.0349948155935
 31
0.0
  0
LINE
  5
46D
  8
2
  6
CONTINUOUS
 62
     5
 10
-112.2795335164123
 20
-113.0349948155935
 30
0.0
 11
-112.2795335164123
 21
-36.83499481559352
 31
0.0
  0
LINE
  5
46E
  8
2
  6
CONTINUOUS
 62
     5
 10
-112.2795335164123
 20
-36.83499481559352
 30
0.0
 11
90.92046648358766
 21
-113.0349948155935
 31
0.0
  0
ENDSEC
  0
EOF
