  0
SECTION
  2
HEADER
  9
$ACADVER
  1
AC1009
  9
$DWGCODEPAGE
  3
ansi_1252
  9
$INSBASE
 10
0.0
 20
0.0
 30
0.0
  9
$EXTMIN
 10
-893.7511282674309
 20
-810.1760215272911
 30
0.0
  9
$EXTMAX
 10
343.9581905073691
 20
327.4616582699073
 30
0.0
  9
$LIMMIN
 10
0.0
 20
0.0
  9
$LIMMAX
 10
12.0
 20
9.0
  9
$ORTHOMODE
 70
     0
  9
$REGENMODE
 70
     1
  9
$FILLMODE
 70
     1
  9
$QTEXTMODE
 70
     0
  9
$MIRRTEXT
 70
     1
  9
$DRAGMODE
 70
     2
  9
$LTSCALE
 40
1.0
  9
$OSMODE
 70
    37
  9
$ATTMODE
 70
     1
  9
$TEXTSIZE
 40
0.2
  9
$TRACEWID
 40
0.05
  9
$TEXTSTYLE
  7
STANDARD
  9
$CLAYER
  8
DEFAULT
  9
$CELTYPE
  6
BYLAYER
  9
$CECOLOR
 62
   256
  9
$DIMSCALE
 40
1.0
  9
$DIMASZ
 40
0.18
  9
$DIMEXO
 40
0.0625
  9
$DIMDLI
 40
0.38
  9
$DIMRND
 40
0.0
  9
$DIMDLE
 40
0.0
  9
$DIMEXE
 40
0.18
  9
$DIMTP
 40
0.0
  9
$DIMTM
 40
0.0
  9
$DIMTXT
 40
0.18
  9
$DIMCEN
 40
0.09
  9
$DIMTSZ
 40
0.0
  9
$DIMTOL
 70
     0
  9
$DIMLIM
 70
     0
  9
$DIMTIH
 70
     1
  9
$DIMTOH
 70
     1
  9
$DIMSE1
 70
     0
  9
$DIMSE2
 70
     0
  9
$DIMTAD
 70
     0
  9
$DIMZIN
 70
     0
  9
$DIMBLK
  1

  9
$DIMASO
 70
     1
  9
$DIMSHO
 70
     1
  9
$DIMPOST
  1

  9
$DIMAPOST
  1

  9
$DIMALT
 70
     0
  9
$DIMALTD
 70
     2
  9
$DIMALTF
 40
25.4
  9
$DIMLFAC
 40
1.0
  9
$DIMTOFL
 70
     0
  9
$DIMTVP
 40
0.0
  9
$DIMTIX
 70
     0
  9
$DIMSOXD
 70
     0
  9
$DIMSAH
 70
     0
  9
$DIMBLK1
  1

  9
$DIMBLK2
  1

  9
$DIMSTYLE
  2
STANDARD
  9
$DIMCLRD
 70
     0
  9
$DIMCLRE
 70
     0
  9
$DIMCLRT
 70
     0
  9
$DIMTFAC
 40
1.0
  9
$DIMGAP
 40
0.09
  9
$LUNITS
 70
     2
  9
$LUPREC
 70
     4
  9
$SKETCHINC
 40
0.1
  9
$FILLETRAD
 40
0.5
  9
$AUNITS
 70
     0
  9
$AUPREC
 70
     0
  9
$MENU
  1
.
  9
$ELEVATION
 40
0.0
  9
$PELEVATION
 40
0.0
  9
$THICKNESS
 40
0.0
  9
$LIMCHECK
 70
     0
  9
$CHAMFERA
 40
0.0
  9
$CHAMFERB
 40
0.0
  9
$SKPOLY
 70
     0
  9
$TDCREATE
 40
2458794.509313009
  9
$TDUPDATE
 40
2458794.509387407
  9
$TDINDWG
 40
0.0000000116
  9
$TDUSRTIMER
 40
0.0000000116
  9
$USRTIMER
 70
     1
  9
$ANGBASE
 50
0.0
  9
$ANGDIR
 70
     0
  9
$PDMODE
 70
     0
  9
$PDSIZE
 40
0.0
  9
$PLINEWID
 40
0.0
  9
$COORDS
 70
     1
  9
$SPLFRAME
 70
     0
  9
$SPLINETYPE
 70
     6
  9
$SPLINESEGS
 70
     8
  9
$ATTDIA
 70
     0
  9
$ATTREQ
 70
     1
  9
$HANDLING
 70
     1
  9
$HANDSEED
  5
732
  9
$SURFTAB1
 70
     6
  9
$SURFTAB2
 70
     6
  9
$SURFTYPE
 70
     6
  9
$SURFU
 70
     6
  9
$SURFV
 70
     6
  9
$UCSNAME
  2

  9
$UCSORG
 10
0.0
 20
0.0
 30
0.0
  9
$UCSXDIR
 10
1.0
 20
0.0
 30
0.0
  9
$UCSYDIR
 10
0.0
 20
1.0
 30
0.0
  9
$PUCSNAME
  2

  9
$PUCSORG
 10
0.0
 20
0.0
 30
0.0
  9
$PUCSXDIR
 10
1.0
 20
0.0
 30
0.0
  9
$PUCSYDIR
 10
0.0
 20
1.0
 30
0.0
  9
$USERI1
 70
     0
  9
$USERI2
 70
     0
  9
$USERI3
 70
     0
  9
$USERI4
 70
     0
  9
$USERI5
 70
     0
  9
$USERR1
 40
0.0
  9
$USERR2
 40
0.0
  9
$USERR3
 40
0.0
  9
$USERR4
 40
0.0
  9
$USERR5
 40
0.0
  9
$WORLDVIEW
 70
     1
  9
$SHADEDGE
 70
     3
  9
$SHADEDIF
 70
    70
  9
$TILEMODE
 70
     1
  9
$MAXACTVP
 70
    64
  9
$PLIMCHECK
 70
     0
  9
$PEXTMIN
 10
1.000000000000000E+20
 20
1.000000000000000E+20
 30
1.000000000000000E+20
  9
$PEXTMAX
 10
-1.000000000000000E+20
 20
-1.000000000000000E+20
 30
-1.000000000000000E+20
  9
$PLIMMIN
 10
0.0
 20
0.0
  9
$PLIMMAX
 10
12.0
 20
9.0
  9
$UNITMODE
 70
     0
  9
$VISRETAIN
 70
     1
  9
$PLINEGEN
 70
     0
  9
$PSLTSCALE
 70
     1
  0
ENDSEC
  0
SECTION
  2
TABLES
  0
TABLE
  2
VPORT
 70
     1
  0
VPORT
  2
*ACTIVE
 70
     0
 10
0.0
 20
0.0
 11
1.0
 21
1.0
 12
-274.8964688800309
 22
-241.3571816286919
 13
0.0
 23
0.0
 14
0.5
 24
0.5
 15
0.5
 25
0.5
 16
0.0
 26
0.0
 36
1.0
 17
0.0
 27
0.0
 37
0.0
 40
1160.390433393142
 41
1.087964420267304
 42
50.0
 43
0.0
 44
0.0
 50
0.0
 51
0.0
 71
     0
 72
   100
 73
     1
 74
     3
 75
     0
 76
     0
 77
     0
 78
     0
  0
ENDTAB
  0
TABLE
  2
LTYPE
 70
     1
  0
LTYPE
  2
CONTINUOUS
 70
     0
  3
Solid line
 72
    65
 73
     0
 40
0.0
  0
ENDTAB
  0
TABLE
  2
LAYER
 70
     5
  0
LAYER
  2
0
 70
     0
 62
     7
  6
CONTINUOUS
  0
LAYER
  2
DEFAULT
 70
     0
 62
     7
  6
CONTINUOUS
  0
LAYER
  2
SEAT
 70
     0
 62
     7
  6
CONTINUOUS
  0
LAYER
  2
LEGS
 70
     0
 62
     7
  6
CONTINUOUS
  0
LAYER
  2
BACK
 70
     0
 62
     7
  6
CONTINUOUS
  0
ENDTAB
  0
TABLE
  2
STYLE
 70
     1
  0
STYLE
  2
STANDARD
 70
     0
 40
0.0
 41
1.0
 50
0.0
 71
     0
 42
0.2
  3
txt
  4

  0
ENDTAB
  0
TABLE
  2
VIEW
 70
     0
  0
ENDTAB
  0
TABLE
  2
UCS
 70
     0
  0
ENDTAB
  0
TABLE
  2
APPID
 70
     1
  0
APPID
  2
ACAD
 70
     0
  0
ENDTAB
  0
TABLE
  2
DIMSTYLE
 70
     1
  0
DIMSTYLE
  2
STANDARD
 70
     0
  3

  4

  5

  6

  7

 40
1.0
 41
0.18
 42
0.0625
 43
0.38
 44
0.18
 45
0.0
 46
0.0
 47
0.0
 48
0.0
140
0.18
141
0.09
142
0.0
143
25.4
144
1.0
145
0.0
146
1.0
147
0.09
 71
     0
 72
     0
 73
     1
 74
     1
 75
     0
 76
     0
 77
     0
 78
     0
170
     0
171
     2
172
     0
173
     0
174
     0
175
     0
176
     0
177
     0
178
     0
  0
ENDTAB
  0
ENDSEC
  0
SECTION
  2
BLOCKS
  0
BLOCK
  8
0
  2
$MODEL_SPACE
 70
     0
 10
0.0
 20
0.0
 30
0.0
  3
$MODEL_SPACE
  1

  0
ENDBLK
  5
21
  8
0
  0
BLOCK
 67
     1
  8
0
  2
$PAPER_SPACE
 70
     0
 10
0.0
 20
0.0
 30
0.0
  3
$PAPER_SPACE
  1

  0
ENDBLK
  5
1D
 67
     1
  8
0
  0
BLOCK
  8
0
  2
SE
 70
     0
 10
0.0
 20
0.0
 30
0.0
  3
SE
  1

  0
LINE
  5
681
  8
BACK
  6
CONTINUOUS
 62
     7
 10
-625.2077810481
 20
199.2977968039
 30
0.0
 11
-632.2077810481
 21
199.2977968039
 31
0.0
  0
LINE
  5
682
  8
BACK
  6
CONTINUOUS
 62
     7
 10
-638.2077810481
 20
193.2977968039
 30
0.0
 11
-638.2077810481
 21
176.7977968039
 31
0.0
  0
LINE
  5
683
  8
BACK
  6
CONTINUOUS
 62
     7
 10
-644.2077810481
 20
170.7977968039
 30
0.0
 11
-651.2077810481
 21
170.7977968039
 31
0.0
  0
LINE
  5
684
  8
BACK
  6
CONTINUOUS
 62
     7
 10
-619.2077810481
 20
91.2977968039
 30
0.0
 11
-619.2077810481
 21
193.2977968039
 31
0.0
  0
LINE
  5
685
  8
BACK
  6
CONTINUOUS
 62
     7
 10
-657.2077810481
 20
176.7977968039
 30
0.0
 11
-657.2077810481
 21
346.7977968039
 31
0.0
  0
ARC
  5
686
  8
BACK
  6
CONTINUOUS
 62
     7
 10
-638.2077810481
 20
91.2977968039
 30
0.0
 40
19.00000000000002
 50
270.0
 51
0.0
  0
ARC
  5
687
  8
BACK
  6
CONTINUOUS
 62
     7
 10
-530.2077810481
 20
346.7977968039
 30
0.0
 40
127.0
 50
90.0
 51
180.0
  0
ARC
  5
688
  8
BACK
  6
CONTINUOUS
 62
     7
 10
-638.2077810481
 20
53.2977968039
 30
0.0
 40
19.00000000000002
 50
90.0
 51
180.0
  0
LINE
  5
689
  8
BACK
  6
CONTINUOUS
 62
     7
 10
-530.2077810481
 20
473.7977968039
 30
0.0
 11
-206.2077810481
 21
473.7977968039
 31
0.0
  0
LINE
  5
68A
  8
BACK
  6
CONTINUOUS
 62
     7
 10
-657.2077810481
 20
-21.7022031961
 30
0.0
 11
-657.2077810481
 21
53.2977968039
 31
0.0
  0
LINE
  5
68B
  8
BACK
  6
CONTINUOUS
 62
     7
 10
-644.2077810481
 20
-27.7022031961
 30
0.0
 11
-651.2077810481
 21
-27.7022031961
 31
0.0
  0
ARC
  5
68C
  8
BACK
  6
CONTINUOUS
 62
     7
 10
-206.2077810481
 20
346.7977968039
 30
0.0
 40
127.0
 50
0.0
 51
90.0
  0
LINE
  5
68D
  8
BACK
  6
CONTINUOUS
 62
     7
 10
-638.2077810481
 20
-8.2022031961
 30
0.0
 11
-638.2077810481
 21
-21.7022031961
 31
0.0
  0
LINE
  5
68E
  8
BACK
  6
CONTINUOUS
 62
     7
 10
-79.2077810481
 20
346.7977968039
 30
0.0
 11
-79.2077810481
 21
176.7977968039
 31
0.0
  0
LINE
  5
68F
  8
BACK
  6
CONTINUOUS
 62
     7
 10
-85.2077810481
 20
170.7977968039
 30
0.0
 11
-92.2077810481
 21
170.7977968039
 31
0.0
  0
LINE
  5
690
  8
BACK
  6
CONTINUOUS
 62
     7
 10
-536.2077810481
 20
-2.2022031961
 30
0.0
 11
-632.2077810481
 21
-2.2022031961
 31
0.0
  0
LINE
  5
691
  8
BACK
  6
CONTINUOUS
 62
     7
 10
-98.2077810481
 20
176.7977968039
 30
0.0
 11
-98.2077810481
 21
193.2977968039
 31
0.0
  0
LINE
  5
692
  8
BACK
  6
CONTINUOUS
 62
     7
 10
-530.2077810481
 20
-47.2022031961
 30
0.0
 11
-530.2077810481
 21
-8.2022031961
 31
0.0
  0
LINE
  5
693
  8
BACK
  6
CONTINUOUS
 62
     7
 10
-104.2077810481
 20
199.2977968039
 30
0.0
 11
-111.2077810481
 21
199.2977968039
 31
0.0
  0
LINE
  5
694
  8
BACK
  6
CONTINUOUS
 62
     7
 10
-212.2077810481
 20
-53.2022031961
 30
0.0
 11
-524.2077810481
 21
-53.2022031961
 31
0.0
  0
LINE
  5
695
  8
BACK
  6
CONTINUOUS
 62
     7
 10
-117.2077810481
 20
193.2977968039
 30
0.0
 11
-117.2077810481
 21
91.2977968039
 31
0.0
  0
LINE
  5
696
  8
BACK
  6
CONTINUOUS
 62
     7
 10
-206.2077810481
 20
-8.2022031961
 30
0.0
 11
-206.2077810481
 21
-47.2022031961
 31
0.0
  0
LINE
  5
697
  8
BACK
  6
CONTINUOUS
 62
     7
 10
-104.2077810481
 20
-2.2022031961
 30
0.0
 11
-200.2077810481
 21
-2.2022031961
 31
0.0
  0
ARC
  5
698
  8
BACK
  6
CONTINUOUS
 62
     7
 10
-98.2077810481
 20
91.2977968039
 30
0.0
 40
19.00000000000002
 50
180.0
 51
270.0
  0
LINE
  5
699
  8
BACK
  6
CONTINUOUS
 62
     7
 10
-98.2077810481
 20
-21.7022031961
 30
0.0
 11
-98.2077810481
 21
-8.2022031961
 31
0.0
  0
ARC
  5
69A
  8
BACK
  6
CONTINUOUS
 62
     7
 10
-98.2077810481
 20
53.2977968039
 30
0.0
 40
18.99999999999999
 50
0.0
 51
90.0
  0
LINE
  5
69B
  8
BACK
  6
CONTINUOUS
 62
     7
 10
-85.2077810481
 20
-27.7022031961
 30
0.0
 11
-92.2077810481
 21
-27.7022031961
 31
0.0
  0
LINE
  5
69C
  8
BACK
  6
CONTINUOUS
 62
     7
 10
-79.2077810481
 20
53.2977968039
 30
0.0
 11
-79.2077810481
 21
-21.7022031961
 31
0.0
  0
ARC
  5
69D
  8
BACK
  6
CONTINUOUS
 62
     7
 10
-92.2077810481
 20
-21.7022031961
 30
0.0
 40
6.000000000000005
 50
180.0
 51
270.0
  0
ARC
  5
69E
  8
BACK
  6
CONTINUOUS
 62
     7
 10
-85.2077810481
 20
-21.7022031961
 30
0.0
 40
6.000000000000005
 50
270.0
 51
0.0
  0
ARC
  5
69F
  8
BACK
  6
CONTINUOUS
 62
     7
 10
-104.2077810481
 20
-8.2022031961
 30
0.0
 40
6.000000000000005
 50
0.0
 51
90.0
  0
ARC
  5
6A0
  8
BACK
  6
CONTINUOUS
 62
     7
 10
-200.2077810481
 20
-8.2022031961
 30
0.0
 40
6.000000000000005
 50
90.0
 51
180.0
  0
ARC
  5
6A1
  8
BACK
  6
CONTINUOUS
 62
     7
 10
-212.2077810481
 20
-47.2022031961
 30
0.0
 40
6.000000000000005
 50
270.0
 51
0.0
  0
ARC
  5
6A2
  8
BACK
  6
CONTINUOUS
 62
     7
 10
-111.2077810481
 20
193.2977968039
 30
0.0
 40
6.000000000000005
 50
90.0
 51
180.0
  0
ARC
  5
6A3
  8
BACK
  6
CONTINUOUS
 62
     7
 10
-524.2077810481
 20
-47.2022031961
 30
0.0
 40
6.000000000000005
 50
180.0
 51
270.0
  0
ARC
  5
6A4
  8
BACK
  6
CONTINUOUS
 62
     7
 10
-104.2077810481
 20
193.2977968039
 30
0.0
 40
6.0
 50
0.0
 51
90.0
  0
ARC
  5
6A5
  8
BACK
  6
CONTINUOUS
 62
     7
 10
-536.2077810481
 20
-8.2022031961
 30
0.0
 40
6.000000000000005
 50
0.0
 51
90.0
  0
ARC
  5
6A6
  8
BACK
  6
CONTINUOUS
 62
     7
 10
-92.2077810481
 20
176.7977968039
 30
0.0
 40
6.000000000000005
 50
180.0
 51
270.0
  0
ARC
  5
6A7
  8
BACK
  6
CONTINUOUS
 62
     7
 10
-632.2077810481
 20
-8.2022031961
 30
0.0
 40
6.000000000000005
 50
90.0
 51
180.0
  0
ARC
  5
6A8
  8
BACK
  6
CONTINUOUS
 62
     7
 10
-85.2077810481
 20
176.7977968039
 30
0.0
 40
5.999999999999998
 50
270.0
 51
0.0
  0
ARC
  5
6A9
  8
BACK
  6
CONTINUOUS
 62
     7
 10
-644.2077810481
 20
-21.7022031961
 30
0.0
 40
6.000000000000005
 50
270.0
 51
0.0
  0
ARC
  5
6AA
  8
BACK
  6
CONTINUOUS
 62
     7
 10
-651.2077810481
 20
-21.7022031961
 30
0.0
 40
6.000000000000005
 50
180.0
 51
270.0
  0
ARC
  5
6AB
  8
BACK
  6
CONTINUOUS
 62
     7
 10
-651.2077810481
 20
176.7977968039
 30
0.0
 40
6.000000000000005
 50
180.0
 51
270.0
  0
ARC
  5
6AC
  8
BACK
  6
CONTINUOUS
 62
     7
 10
-644.2077810481
 20
176.7977968039
 30
0.0
 40
5.999999999999998
 50
270.0
 51
0.0
  0
ARC
  5
6AD
  8
BACK
  6
CONTINUOUS
 62
     7
 10
-625.2077810481
 20
193.2977968039
 30
0.0
 40
6.000000000000004
 50
0.0
 51
90.0
  0
ARC
  5
6AE
  8
BACK
  6
CONTINUOUS
 62
     7
 10
-632.2077810481
 20
193.2977968039
 30
0.0
 40
6.0
 50
90.0
 51
180.0
  0
ENDBLK
  5
6B0
  8
0
  0
BLOCK
  8
0
  2
SE1
 70
     0
 10
0.0
 20
0.0
 30
0.0
  3
SE1
  1

  0
ARC
  5
6B2
  8
LEGS
  6
CONTINUOUS
 62
     7
 10
509.9767463408
 20
1.842427197
 30
0.0
 40
32.0
 50
210.0
 51
269.9999999999999
  0
LINE
  5
6B3
  8
LEGS
  6
CONTINUOUS
 62
     7
 10
548.5015377267
 20
-30.157572803
 30
0.0
 11
509.9767463408
 21
-30.157572803
 31
0.0
  0
LINE
  5
6B4
  8
LEGS
  6
CONTINUOUS
 62
     7
 10
482.2639334197
 20
-14.157572803
 30
0.0
 11
422.6510150905
 21
89.0950305305
 31
0.0
  0
ARC
  5
6B5
  8
LEGS
  6
CONTINUOUS
 62
     7
 10
548.5015377267
 20
1.842427197
 30
0.0
 40
31.99999999999997
 50
270.0
 51
0.0
  0
ARC
  5
6B6
  8
LEGS
  6
CONTINUOUS
 62
     7
 10
345.5747541537
 20
44.5950305305
 30
0.0
 40
88.99999999999999
 50
30.00000000000001
 51
108.0
  0
LINE
  5
6B7
  8
LEGS
  6
CONTINUOUS
 62
     7
 10
580.5015377267
 20
249.8848984263
 30
0.0
 11
580.5015377267
 21
1.842427197
 31
0.0
  0
LINE
  5
6B8
  8
LEGS
  6
CONTINUOUS
 62
     7
 10
545.0206630182
 20
246.6147549168
 30
0.0
 11
572.6474357605
 21
255.5912375241
 31
0.0
  0
LINE
  5
6B9
  8
LEGS
  6
CONTINUOUS
 62
     7
 10
318.0722416543
 20
129.2390604808
 30
0.0
 11
170.7351796937
 21
81.3663470647
 31
0.0
  0
LINE
  5
6BA
  8
LEGS
  6
CONTINUOUS
 62
     7
 10
535.2971029936
 20
257.1243876624
 30
0.0
 11
537.4602219542
 21
250.4669920483
 31
0.0
  0
ARC
  5
6BB
  8
LEGS
  6
CONTINUOUS
 62
     7
 10
198.2376921931
 20
-3.2776828855
 30
0.0
 40
88.99999999999999
 50
108.0
 51
140.0
  0
LINE
  5
6BC
  8
LEGS
  6
CONTINUOUS
 62
     7
 10
576.355639693
 20
276.7738882799
 30
0.0
 11
539.1493401251
 21
264.6848287264
 31
0.0
  0
LINE
  5
6BD
  8
LEGS
  6
CONTINUOUS
 62
     7
 10
130.0597367555
 20
53.9304143766
 30
0.0
 11
69.0931148456
 21
-18.726776313
 31
0.0
  0
LINE
  5
6BE
  8
LEGS
  6
CONTINUOUS
 62
     7
 10
580.5015377267
 20
318.842427197
 30
0.0
 11
580.5015377267
 21
282.4802273777
 31
0.0
  0
ARC
  5
6BF
  8
LEGS
  6
CONTINUOUS
 62
     7
 10
44.5796926658
 20
1.842427197
 30
0.0
 40
32.00000000000002
 50
270.0
 51
319.9999999999999
  0
LINE
  5
6C0
  8
LEGS
  6
CONTINUOUS
 62
     7
 10
44.5796926658
 20
-30.157572803
 30
0.0
 11
2.5015377267
 21
-30.157572803
 31
0.0
  0
ARC
  5
6C1
  8
LEGS
  6
CONTINUOUS
 62
     7
 10
548.5015377267
 20
318.842427197
 30
0.0
 40
32.0
 50
0.0
 51
90.0
  0
ARC
  5
6C2
  8
LEGS
  6
CONTINUOUS
 62
     7
 10
2.5015377267
 20
1.842427197
 30
0.0
 40
32.0
 50
180.0
 51
270.0
  0
LINE
  5
6C3
  8
LEGS
  6
CONTINUOUS
 62
     7
 10
76.8838316497
 20
350.842427197
 30
0.0
 11
548.5015377267
 21
350.842427197
 31
0.0
  0
LINE
  5
6C4
  8
LEGS
  6
CONTINUOUS
 62
     7
 10
73.0765213929
 20
338.8100208923
 30
0.0
 11
71.4459849275
 21
342.3067176266
 31
0.0
  0
LINE
  5
6C5
  8
LEGS
  6
CONTINUOUS
 62
     7
 10
-29.4984622733
 20
1.842427197
 30
0.0
 11
-29.4984622733
 21
318.842427197
 31
0.0
  0
LINE
  5
6C6
  8
LEGS
  6
CONTINUOUS
 62
     7
 10
63.8302297319
 20
327.8781367674
 30
0.0
 11
70.1743842411
 21
330.8364645996
 31
0.0
  0
ARC
  5
6C7
  8
LEGS
  6
CONTINUOUS
 62
     7
 10
2.5015377267
 20
318.842427197
 30
0.0
 40
32.00000000000003
 50
90.0
 51
180.0
  0
LINE
  5
6C8
  8
LEGS
  6
CONTINUOUS
 62
     7
 10
48.1169628841
 20
347.3781367674
 30
0.0
 11
55.8566734392
 21
330.7802739192
 31
0.0
  0
LINE
  5
6C9
  8
LEGS
  6
CONTINUOUS
 62
     7
 10
2.5015377267
 20
350.842427197
 30
0.0
 11
42.6791161619
 21
350.842427197
 31
0.0
  0
ARC
  5
6CA
  8
LEGS
  6
CONTINUOUS
 62
     7
 10
67.6386746707
 20
336.2743113218
 30
0.0
 40
6.000000000000001
 50
295.0000000000001
 51
25.00000000000025
  0
ARC
  5
6CB
  8
LEGS
  6
CONTINUOUS
 62
     7
 10
76.8838316497
 20
344.842427197
 30
0.0
 40
5.999999999999988
 50
90.0
 51
204.9999999999998
  0
ARC
  5
6CC
  8
LEGS
  6
CONTINUOUS
 62
     7
 10
61.2945201614
 20
333.3159834897
 30
0.0
 40
5.999999999999988
 50
204.9999999999997
 51
294.9999999999999
  0
ARC
  5
6CD
  8
LEGS
  6
CONTINUOUS
 62
     7
 10
42.6791161619
 20
344.842427197
 30
0.0
 40
5.999999999999978
 50
24.99999999999981
 51
89.99999999999987
  0
ARC
  5
6CE
  8
LEGS
  6
CONTINUOUS
 62
     7
 10
574.5015377267
 20
282.4802273777
 30
0.0
 40
6.000000000000005
 50
288.0
 51
0.0
  0
ARC
  5
6CF
  8
LEGS
  6
CONTINUOUS
 62
     7
 10
541.0034420913
 20
258.9784896286
 30
0.0
 40
6.000000000000001
 50
108.0
 51
197.9999999999999
  0
ARC
  5
6D0
  8
LEGS
  6
CONTINUOUS
 62
     7
 10
543.166561052
 20
252.3210940146
 30
0.0
 40
5.999999999999987
 50
198.0000000000002
 51
288.0000000000001
  0
ARC
  5
6D1
  8
LEGS
  6
CONTINUOUS
 62
     7
 10
574.5015377267
 20
249.8848984263
 30
0.0
 40
6.000000000000001
 50
0.0
 51
108.0
  0
LINE
  5
6D2
  8
LEGS
  6
CONTINUOUS
 62
     7
 10
34.0015377267
 20
255.342427197
 30
0.0
 11
34.0015377267
 21
191.3866486521
 31
0.0
  0
ARC
  5
6D3
  8
LEGS
  6
CONTINUOUS
 62
     7
 10
66.0015377267
 20
255.342427197
 30
0.0
 40
32.0
 50
90.0
 51
180.0
  0
ARC
  5
6D4
  8
LEGS
  6
CONTINUOUS
 62
     7
 10
66.0015377267
 20
191.3866486521
 30
0.0
 40
32.0
 50
180.0
 51
288.0
  0
LINE
  5
6D5
  8
LEGS
  6
CONTINUOUS
 62
     7
 10
404.8965935418
 20
287.342427197
 30
0.0
 11
66.0015377267
 21
287.342427197
 31
0.0
  0
LINE
  5
6D6
  8
LEGS
  6
CONTINUOUS
 62
     7
 10
75.8900815467
 20
160.9528401306
 30
0.0
 11
122.2160771386
 21
176.005068546
 31
0.0
  0
ARC
  5
6D7
  8
LEGS
  6
CONTINUOUS
 62
     7
 10
404.8965935418
 20
277.842427197
 30
0.0
 40
9.500000000000002
 50
287.9999999999999
 51
89.99999999999966
  0
LINE
  5
6D8
  8
LEGS
  6
CONTINUOUS
 62
     7
 10
129.508025827
 20
172.8344390187
 30
0.0
 11
141.01425318
 21
148.1592548313
 31
0.0
  0
LINE
  5
6D9
  8
LEGS
  6
CONTINUOUS
 62
     7
 10
151.9202394653
 20
185.6565359461
 30
0.0
 11
407.8322549884
 21
268.8073902922
 31
0.0
  0
LINE
  5
6DA
  8
LEGS
  6
CONTINUOUS
 62
     7
 10
158.2341011337
 20
156.1890018044
 30
0.0
 11
148.3364947093
 21
177.4144872779
 31
0.0
  0
LINE
  5
6DB
  8
LEGS
  6
CONTINUOUS
 62
     7
 10
148.9878094726
 20
145.2571176796
 30
0.0
 11
155.3319639819
 21
148.2154455117
 31
0.0
  0
ARC
  5
6DC
  8
LEGS
  6
CONTINUOUS
 62
     7
 10
152.7962544115
 20
153.653292234
 30
0.0
 40
5.999999999999996
 50
295.0000000000001
 51
25.00000000000006
  0
ARC
  5
6DD
  8
LEGS
  6
CONTINUOUS
 62
     7
 10
146.4520999022
 20
150.6949644018
 30
0.0
 40
5.999999999999997
 50
205.0
 51
295.0000000000001
  0
ARC
  5
6DE
  8
LEGS
  6
CONTINUOUS
 62
     7
 10
153.7743414316
 20
179.9501968483
 30
0.0
 40
5.99999999999999
 50
108.0
 51
205.0
  0
ARC
  5
6DF
  8
LEGS
  6
CONTINUOUS
 62
     7
 10
124.0701791048
 20
170.2987294482
 30
0.0
 40
6.000000000000002
 50
25.0
 51
108.0
  0
LINE
  5
6E0
  8
LEGS
  6
CONTINUOUS
 62
     7
 10
327.0637369913
 20
195.7740389808
 30
0.0
 11
225.3006897477
 21
162.7092205827
 31
0.0
  0
LINE
  5
6E1
  8
LEGS
  6
CONTINUOUS
 62
     7
 10
221.4484526162
 20
155.1487795186
 30
0.0
 11
223.6115715768
 21
148.4913839046
 31
0.0
  0
LINE
  5
6E2
  8
LEGS
  6
CONTINUOUS
 62
     7
 10
336.7872970159
 20
185.2644062352
 30
0.0
 11
334.6241780553
 21
191.9218018493
 31
0.0
  0
LINE
  5
6E3
  8
LEGS
  6
CONTINUOUS
 62
     7
 10
231.1720126408
 20
144.6391467731
 30
0.0
 11
332.9350598844
 21
177.7039651712
 31
0.0
  0
ARC
  5
6E4
  8
LEGS
  6
CONTINUOUS
 62
     7
 10
331.0809579181
 20
183.4103042689
 30
0.0
 40
6.000000000000001
 50
288.0
 51
18.00000000000001
  0
ARC
  5
6E5
  8
LEGS
  6
CONTINUOUS
 62
     7
 10
229.3179106746
 20
150.3454858708
 30
0.0
 40
5.999999999999997
 50
198.0
 51
288.0
  0
ARC
  5
6E6
  8
LEGS
  6
CONTINUOUS
 62
     7
 10
328.9178389575
 20
190.067699883
 30
0.0
 40
5.999999999999997
 50
18.00000000000001
 51
108.0
  0
ARC
  5
6E7
  8
LEGS
  6
CONTINUOUS
 62
     7
 10
227.1547917139
 20
157.0028814849
 30
0.0
 40
6.000000000000001
 50
108.0
 51
198.0
  0
LINE
  5
6E8
  8
LEGS
  6
CONTINUOUS
 62
     7
 10
529.5015377267
 20
76.9334618532
 30
0.0
 11
529.5015377267
 21
171.7853466464
 31
0.0
  0
ARC
  5
6E9
  8
LEGS
  6
CONTINUOUS
 62
     7
 10
510.5015377267
 20
171.7853466464
 30
0.0
 40
19.00000000000005
 50
0.0
 51
107.9999999999999
  0
ARC
  5
6EA
  8
LEGS
  6
CONTINUOUS
 62
     7
 10
510.5015377267
 20
76.9334618532
 30
0.0
 40
18.99999999999997
 50
210.0
 51
359.9999999999999
  0
LINE
  5
6EB
  8
LEGS
  6
CONTINUOUS
 62
     7
 10
504.6302148336
 20
189.855420456
 30
0.0
 11
458.5177962948
 21
174.8725874319
 31
0.0
  0
LINE
  5
6EC
  8
LEGS
  6
CONTINUOUS
 62
     7
 10
447.934636516
 20
147.3025136222
 30
0.0
 11
494.0470550548
 21
67.4334618532
 31
0.0
  0
ARC
  5
6ED
  8
LEGS
  6
CONTINUOUS
 62
     7
 10
464.3891191879
 20
156.8025136222
 30
0.0
 40
18.99999999999999
 50
108.0
 51
209.9999999999999
  0
ENDBLK
  5
6EF
  8
0
  0
BLOCK
  8
0
  2
SE2
 70
     0
 10
0.0
 20
0.0
 30
0.0
  3
SE2
  1

  0
LINE
  5
6F1
  8
SEAT
  6
CONTINUOUS
 62
     7
 10
624.4784085283
 20
-12.430863933
 30
0.0
 11
624.4784085283
 21
58.069136067
 31
0.0
  0
ARC
  5
6F2
  8
SEAT
  6
CONTINUOUS
 62
     7
 10
662.4784085283
 20
-12.430863933
 30
0.0
 40
38.00000000000004
 50
180.0
 51
270.0
  0
LINE
  5
6F3
  8
SEAT
  6
CONTINUOUS
 62
     7
 10
630.4784085283
 20
64.069136067
 30
0.0
 11
637.4784085283
 21
64.069136067
 31
0.0
  0
LINE
  5
6F4
  8
SEAT
  6
CONTINUOUS
 62
     7
 10
1164.4784085283
 20
-50.430863933
 30
0.0
 11
662.4784085283
 21
-50.430863933
 31
0.0
  0
LINE
  5
6F5
  8
SEAT
  6
CONTINUOUS
 62
     7
 10
643.4784085283
 20
58.069136067
 30
0.0
 11
643.4784085283
 21
44.569136067
 31
0.0
  0
ARC
  5
6F6
  8
SEAT
  6
CONTINUOUS
 62
     7
 10
1164.4784085283
 20
-12.430863933
 30
0.0
 40
37.99999999999998
 50
270.0
 51
0.0
  0
LINE
  5
6F7
  8
SEAT
  6
CONTINUOUS
 62
     7
 10
649.4784085283
 20
38.569136067
 30
0.0
 11
656.4784085283
 21
38.569136067
 31
0.0
  0
LINE
  5
6F8
  8
SEAT
  6
CONTINUOUS
 62
     7
 10
1202.4784085283
 20
58.069136067
 30
0.0
 11
1202.4784085283
 21
-12.430863933
 31
0.0
  0
LINE
  5
6F9
  8
SEAT
  6
CONTINUOUS
 62
     7
 10
662.4784085283
 20
44.569136067
 30
0.0
 11
662.4784085283
 21
280.069136067
 31
0.0
  0
LINE
  5
6FA
  8
SEAT
  6
CONTINUOUS
 62
     7
 10
1189.4784085283
 20
64.069136067
 30
0.0
 11
1196.4784085283
 21
64.069136067
 31
0.0
  0
LINE
  5
6FB
  8
SEAT
  6
CONTINUOUS
 62
     7
 10
656.4784085283
 20
286.069136067
 30
0.0
 11
630.4784085283
 21
286.069136067
 31
0.0
  0
LINE
  5
6FC
  8
SEAT
  6
CONTINUOUS
 62
     7
 10
1183.4784085283
 20
44.569136067
 30
0.0
 11
1183.4784085283
 21
58.069136067
 31
0.0
  0
LINE
  5
6FD
  8
SEAT
  6
CONTINUOUS
 62
     7
 10
624.4784085283
 20
292.069136067
 30
0.0
 11
624.4784085283
 21
388.069136067
 31
0.0
  0
LINE
  5
6FE
  8
SEAT
  6
CONTINUOUS
 62
     7
 10
1170.4784085283
 20
38.569136067
 30
0.0
 11
1177.4784085283
 21
38.569136067
 31
0.0
  0
LINE
  5
6FF
  8
SEAT
  6
CONTINUOUS
 62
     7
 10
630.4784085283
 20
394.069136067
 30
0.0
 11
637.4784085283
 21
394.069136067
 31
0.0
  0
LINE
  5
700
  8
SEAT
  6
CONTINUOUS
 62
     7
 10
1164.4784085283
 20
280.069136067
 30
0.0
 11
1164.4784085283
 21
44.569136067
 31
0.0
  0
LINE
  5
701
  8
SEAT
  6
CONTINUOUS
 62
     7
 10
643.4784085283
 20
388.069136067
 30
0.0
 11
643.4784085283
 21
374.569136067
 31
0.0
  0
LINE
  5
702
  8
SEAT
  6
CONTINUOUS
 62
     7
 10
1196.4784085283
 20
286.069136067
 30
0.0
 11
1170.4784085283
 21
286.069136067
 31
0.0
  0
LINE
  5
703
  8
SEAT
  6
CONTINUOUS
 62
     7
 10
649.4784085283
 20
368.569136067
 30
0.0
 11
656.4784085283
 21
368.569136067
 31
0.0
  0
LINE
  5
704
  8
SEAT
  6
CONTINUOUS
 62
     7
 10
662.4784085283
 20
374.569136067
 30
0.0
 11
662.4784085283
 21
467.569136067
 31
0.0
  0
LINE
  5
705
  8
SEAT
  6
CONTINUOUS
 62
     7
 10
1202.4784085283
 20
388.069136067
 30
0.0
 11
1202.4784085283
 21
292.069136067
 31
0.0
  0
ARC
  5
706
  8
SEAT
  6
CONTINUOUS
 62
     7
 10
700.4784085283
 20
467.569136067
 30
0.0
 40
38.00000000000001
 50
90.0
 51
180.0
  0
LINE
  5
707
  8
SEAT
  6
CONTINUOUS
 62
     7
 10
1189.4784085283
 20
394.069136067
 30
0.0
 11
1196.4784085283
 21
394.069136067
 31
0.0
  0
LINE
  5
708
  8
SEAT
  6
CONTINUOUS
 62
     7
 10
700.4784085283
 20
505.569136067
 30
0.0
 11
1126.4784085283
 21
505.569136067
 31
0.0
  0
LINE
  5
709
  8
SEAT
  6
CONTINUOUS
 62
     7
 10
1183.4784085283
 20
374.569136067
 30
0.0
 11
1183.4784085283
 21
388.069136067
 31
0.0
  0
ARC
  5
70A
  8
SEAT
  6
CONTINUOUS
 62
     7
 10
1126.4784085283
 20
467.569136067
 30
0.0
 40
38.00000000000001
 50
0.0
 51
90.0
  0
LINE
  5
70B
  8
SEAT
  6
CONTINUOUS
 62
     7
 10
1170.4784085283
 20
368.569136067
 30
0.0
 11
1177.4784085283
 21
368.569136067
 31
0.0
  0
LINE
  5
70C
  8
SEAT
  6
CONTINUOUS
 62
     7
 10
1164.4784085283
 20
467.569136067
 30
0.0
 11
1164.4784085283
 21
374.569136067
 31
0.0
  0
ARC
  5
70D
  8
SEAT
  6
CONTINUOUS
 62
     7
 10
1170.4784085283
 20
374.569136067
 30
0.0
 40
6.000000000000005
 50
180.0
 51
270.0
  0
ARC
  5
70E
  8
SEAT
  6
CONTINUOUS
 62
     7
 10
1177.4784085283
 20
374.569136067
 30
0.0
 40
6.000000000000005
 50
270.0
 51
0.0
  0
ARC
  5
70F
  8
SEAT
  6
CONTINUOUS
 62
     7
 10
656.4784085283
 20
374.569136067
 30
0.0
 40
6.000000000000005
 50
270.0
 51
0.0
  0
ARC
  5
710
  8
SEAT
  6
CONTINUOUS
 62
     7
 10
1189.4784085283
 20
388.069136067
 30
0.0
 40
6.000000000000005
 50
90.0
 51
180.0
  0
ARC
  5
711
  8
SEAT
  6
CONTINUOUS
 62
     7
 10
649.4784085283
 20
374.569136067
 30
0.0
 40
6.000000000000005
 50
180.0
 51
270.0
  0
ARC
  5
712
  8
SEAT
  6
CONTINUOUS
 62
     7
 10
1196.4784085283
 20
388.069136067
 30
0.0
 40
6.000000000000005
 50
0.0
 51
90.0
  0
ARC
  5
713
  8
SEAT
  6
CONTINUOUS
 62
     7
 10
637.4784085283
 20
388.069136067
 30
0.0
 40
6.000000000000005
 50
0.0
 51
90.0
  0
ARC
  5
714
  8
SEAT
  6
CONTINUOUS
 62
     7
 10
1196.4784085283
 20
292.069136067
 30
0.0
 40
6.000000000000005
 50
270.0
 51
0.0
  0
ARC
  5
715
  8
SEAT
  6
CONTINUOUS
 62
     7
 10
630.4784085283
 20
388.069136067
 30
0.0
 40
6.000000000000005
 50
90.0
 51
180.0
  0
ARC
  5
716
  8
SEAT
  6
CONTINUOUS
 62
     7
 10
1170.4784085283
 20
280.069136067
 30
0.0
 40
5.999999999999998
 50
90.0
 51
180.0
  0
ARC
  5
717
  8
SEAT
  6
CONTINUOUS
 62
     7
 10
630.4784085283
 20
292.069136067
 30
0.0
 40
6.000000000000005
 50
180.0
 51
270.0
  0
ARC
  5
718
  8
SEAT
  6
CONTINUOUS
 62
     7
 10
1170.4784085283
 20
44.569136067
 30
0.0
 40
6.000000000000005
 50
180.0
 51
270.0
  0
ARC
  5
719
  8
SEAT
  6
CONTINUOUS
 62
     7
 10
656.4784085283
 20
280.069136067
 30
0.0
 40
6.000000000000005
 50
0.0
 51
90.0
  0
ARC
  5
71A
  8
SEAT
  6
CONTINUOUS
 62
     7
 10
1177.4784085283
 20
44.569136067
 30
0.0
 40
6.000000000000005
 50
270.0
 51
0.0
  0
ARC
  5
71B
  8
SEAT
  6
CONTINUOUS
 62
     7
 10
656.4784085283
 20
44.569136067
 30
0.0
 40
6.000000000000005
 50
270.0
 51
0.0
  0
ARC
  5
71C
  8
SEAT
  6
CONTINUOUS
 62
     7
 10
1189.4784085283
 20
58.069136067
 30
0.0
 40
6.000000000000005
 50
90.0
 51
180.0
  0
ARC
  5
71D
  8
SEAT
  6
CONTINUOUS
 62
     7
 10
649.4784085283
 20
44.569136067
 30
0.0
 40
6.000000000000005
 50
180.0
 51
270.0
  0
ARC
  5
71E
  8
SEAT
  6
CONTINUOUS
 62
     7
 10
1196.4784085283
 20
58.069136067
 30
0.0
 40
6.000000000000005
 50
0.0
 51
90.0
  0
ARC
  5
71F
  8
SEAT
  6
CONTINUOUS
 62
     7
 10
637.4784085283
 20
58.069136067
 30
0.0
 40
6.000000000000005
 50
0.0
 51
90.0
  0
ARC
  5
720
  8
SEAT
  6
CONTINUOUS
 62
     7
 10
630.4784085283
 20
58.069136067
 30
0.0
 40
6.000000000000005
 50
90.0
 51
180.0
  0
LINE
  5
721
  8
SEAT
  6
CONTINUOUS
 62
     7
 10
752.9784085283
 20
422.569136067
 30
0.0
 11
1073.9784085283
 21
422.569136067
 31
0.0
  0
LINE
  5
722
  8
SEAT
  6
CONTINUOUS
 62
     7
 10
1079.9784085283
 20
428.569136067
 30
0.0
 11
1079.9784085283
 21
438.569136067
 31
0.0
  0
LINE
  5
723
  8
SEAT
  6
CONTINUOUS
 62
     7
 10
1073.9784085283
 20
444.569136067
 30
0.0
 11
752.9784085283
 21
444.569136067
 31
0.0
  0
LINE
  5
724
  8
SEAT
  6
CONTINUOUS
 62
     7
 10
746.9784085283
 20
438.569136067
 30
0.0
 11
746.9784085283
 21
428.569136067
 31
0.0
  0
ARC
  5
725
  8
SEAT
  6
CONTINUOUS
 62
     7
 10
752.9784085283
 20
438.569136067
 30
0.0
 40
6.000000000000005
 50
90.0
 51
180.0
  0
ARC
  5
726
  8
SEAT
  6
CONTINUOUS
 62
     7
 10
1073.9784085283
 20
438.569136067
 30
0.0
 40
6.000000000000005
 50
0.0
 51
90.0
  0
ARC
  5
727
  8
SEAT
  6
CONTINUOUS
 62
     7
 10
752.9784085283
 20
428.569136067
 30
0.0
 40
6.000000000000005
 50
180.0
 51
270.0
  0
ARC
  5
728
  8
SEAT
  6
CONTINUOUS
 62
     7
 10
1073.9784085283
 20
428.569136067
 30
0.0
 40
6.000000000000005
 50
270.0
 51
0.0
  0
ENDBLK
  5
72A
  8
0
  0
ENDSEC
  0
SECTION
  2
ENTITIES
  0
POLYLINE
  5
6F
  8
DEFAULT
 62
     5
 66
     1
 10
0.0
 20
0.0
 30
0.0
 70
     1
  0
VERTEX
  5
70
  8
DEFAULT
 62
     5
 10
-428.8266263861029
 20
158.4213853213779
 30
0.0
  0
VERTEX
  5
71
  8
DEFAULT
 62
     5
 10
-424.6784782379547
 20
158.4213853213779
 30
0.0
  0
VERTEX
  5
72
  8
DEFAULT
 62
     5
 10
-424.6784782379547
 20
156.0718486022371
 30
0.0
 42
-0.2373869490350136
  0
VERTEX
  5
73
  8
DEFAULT
 62
     5
 10
-419.2872736512058
 20
158.8658297658223
 30
0.0
 42
-0.1315120310734552
  0
VERTEX
  5
74
  8
DEFAULT
 62
     5
 10
-416.406486737795
 20
158.1713860278141
 30
0.0
 42
-0.1393853272244771
  0
VERTEX
  5
75
  8
DEFAULT
 62
     5
 10
-414.4030144625901
 20
156.0718486022371
 30
0.0
 42
-0.1018343532165991
  0
VERTEX
  5
76
  8
DEFAULT
 62
     5
 10
-411.9516254677358
 20
158.1713860278141
 30
0.0
 42
-0.1239296679571173
  0
VERTEX
  5
77
  8
DEFAULT
 62
     5
 10
-409.143754073033
 20
158.8658297658223
 30
0.0
 42
-0.1355305589141913
  0
VERTEX
  5
78
  8
DEFAULT
 62
     5
 10
-405.9284769663696
 20
158.0880525531935
 30
0.0
 42
-0.1623661969580578
  0
VERTEX
  5
79
  8
DEFAULT
 62
     5
 10
-403.963198588121
 20
155.8056453577169
 30
0.0
 42
-0.0915442810314471
  0
VERTEX
  5
7A
  8
DEFAULT
 62
     5
 10
-403.4932930527696
 20
152.2037927994289
 30
0.0
  0
VERTEX
  5
7B
  8
DEFAULT
 62
     5
 10
-403.4932930527696
 20
141.0880519880445
 30
0.0
  0
VERTEX
  5
7C
  8
DEFAULT
 62
     5
 10
-408.0858856453622
 20
141.0880519880445
 30
0.0
  0
VERTEX
  5
7D
  8
DEFAULT
 62
     5
 10
-408.0858856453622
 20
151.0000910737465
 30
0.0
 42
0.1141470137910516
  0
VERTEX
  5
7E
  8
DEFAULT
 62
     5
 10
-408.553476330577
 20
154.3311084266453
 30
0.0
 42
0.2721000606534044
  0
VERTEX
  5
7F
  8
DEFAULT
 62
     5
 10
-410.4909765071861
 20
155.3102742102668
 30
0.0
 42
0.1575639071466296
  0
VERTEX
  5
80
  8
DEFAULT
 62
     5
 10
-412.2814870910132
 20
154.7223113179473
 30
0.0
 42
0.1657627374474451
  0
VERTEX
  5
81
  8
DEFAULT
 62
     5
 10
-413.4921356277013
 20
153.0000899434486
 30
0.0
 42
0.0723437487255057
  0
VERTEX
  5
82
  8
DEFAULT
 62
     5
 10
-413.8636634231399
 20
149.4167561862536
 30
0.0
  0
VERTEX
  5
83
  8
DEFAULT
 62
     5
 10
-413.8636634231399
 20
141.0880519880445
 30
0.0
  0
VERTEX
  5
84
  8
DEFAULT
 62
     5
 10
-418.4562560157325
 20
141.0880519880445
 30
0.0
  0
VERTEX
  5
85
  8
DEFAULT
 62
     5
 10
-418.4562560157325
 20
150.5903671207556
 30
0.0
 42
0.0609892367974966
  0
VERTEX
  5
86
  8
DEFAULT
 62
     5
 10
-418.6958384836815
 20
153.857728355493
 30
0.0
 42
0.1633931196984851
  0
VERTEX
  5
87
  8
DEFAULT
 62
     5
 10
-419.4400503693292
 20
154.9514780905795
 30
0.0
 42
0.1561218014296758
  0
VERTEX
  5
88
  8
DEFAULT
 62
     5
 10
-420.8081075850099
 20
155.3102742102667
 30
0.0
 42
0.155183717546815
  0
VERTEX
  5
89
  8
DEFAULT
 62
     5
 10
-422.6819493828617
 20
154.7385152689037
 30
0.0
 42
0.1670025847935328
  0
VERTEX
  5
8A
  8
DEFAULT
 62
     5
 10
-423.8740791184568
 20
153.0892105434108
 30
0.0
 42
0.0722698594962414
  0
VERTEX
  5
8B
  8
DEFAULT
 62
     5
 10
-424.2340337935103
 20
149.5139798919918
 30
0.0
  0
VERTEX
  5
8C
  8
DEFAULT
 62
     5
 10
-424.2340337935103
 20
141.0880519880445
 30
0.0
  0
VERTEX
  5
8D
  8
DEFAULT
 62
     5
 10
-428.8266263861029
 20
141.0880519880445
 30
0.0
  0
SEQEND
  5
8E
  8
DEFAULT
 62
     5
  0
POLYLINE
  5
8F
  8
DEFAULT
 62
     5
 66
     1
 10
0.0
 20
0.0
 30
0.0
 70
     1
  0
VERTEX
  5
90
  8
DEFAULT
 62
     5
 10
-445.1229226823992
 20
149.7547197850091
 30
0.0
 42
0.1807696907208116
  0
VERTEX
  5
91
  8
DEFAULT
 62
     5
 10
-443.9238483963942
 20
145.7408306841893
 30
0.0
 42
0.2292871242715337
  0
VERTEX
  5
92
  8
DEFAULT
 62
     5
 10
-440.9678299838412
 20
144.3473112473038
 30
0.0
 42
0.2303193461660504
  0
VERTEX
  5
93
  8
DEFAULT
 62
     5
 10
-438.0175975663317
 20
145.7408306841893
 30
0.0
 42
0.1794408075869882
  0
VERTEX
  5
94
  8
DEFAULT
 62
     5
 10
-436.8266263861028
 20
149.7871276869218
 30
0.0
 42
0.1800932450793829
  0
VERTEX
  5
95
  8
DEFAULT
 62
     5
 10
-438.0175975663317
 20
153.768607755531
 30
0.0
 42
0.2303192267205796
  0
VERTEX
  5
96
  8
DEFAULT
 62
     5
 10
-440.9678299838412
 20
155.1621260621186
 30
0.0
 42
0.2292870050707578
  0
VERTEX
  5
97
  8
DEFAULT
 62
     5
 10
-443.9238483963942
 20
153.7686077555309
 30
0.0
 42
0.1807697890868338
  0
SEQEND
  5
98
  8
DEFAULT
 62
     5
  0
POLYLINE
  5
99
  8
DEFAULT
 62
     5
 66
     1
 10
0.0
 20
0.0
 30
0.0
 70
     1
  0
VERTEX
  5
9A
  8
DEFAULT
 62
     5
 10
-449.7155152749918
 20
150.0000893782997
 30
0.0
 42
-0.1222574291832727
  0
VERTEX
  5
9B
  8
DEFAULT
 62
     5
 10
-448.5963021884025
 20
154.4491646533153
 30
0.0
 42
-0.1509199207835999
  0
VERTEX
  5
9C
  8
DEFAULT
 62
     5
 10
-445.4250049737391
 20
157.7327287087112
 30
0.0
 42
-0.1287246067143964
  0
VERTEX
  5
9D
  8
DEFAULT
 62
     5
 10
-440.8428280764634
 20
158.8658297658223
 30
0.0
 42
-0.2109274079128312
  0
VERTEX
  5
9E
  8
DEFAULT
 62
     5
 10
-434.4354223645029
 20
156.2963856745959
 30
0.0
 42
-0.2026212639801775
  0
VERTEX
  5
9F
  8
DEFAULT
 62
     5
 10
-431.937737497214
 20
149.8033316378782
 30
0.0
 42
-0.2022295973323163
  0
VERTEX
  5
A0
  8
DEFAULT
 62
     5
 10
-434.4597271606395
 20
143.2454595367392
 30
0.0
 42
-0.2115506096600941
  0
VERTEX
  5
A1
  8
DEFAULT
 62
     5
 10
-440.8104224351465
 20
140.6436075436001
 30
0.0
 42
-0.1188796278362361
  0
VERTEX
  5
A2
  8
DEFAULT
 62
     5
 10
-445.3277835285967
 20
141.7269415833696
 30
0.0
 42
-0.1582355798320357
  0
VERTEX
  5
A3
  8
DEFAULT
 62
     5
 10
-448.5963021884024
 20
144.9040259233745
 30
0.0
 42
-0.1239053267140418
  0
SEQEND
  5
A4
  8
DEFAULT
 62
     5
  0
POLYLINE
  5
A5
  8
DEFAULT
 62
     5
 66
     1
 10
0.0
 20
0.0
 30
0.0
 70
     1
  0
VERTEX
  5
A6
  8
DEFAULT
 62
     5
 10
-452.2340337935103
 20
153.3843482843408
 30
0.0
  0
VERTEX
  5
A7
  8
DEFAULT
 62
     5
 10
-456.8266263861028
 20
152.6436075436001
 30
0.0
 42
0.1809968098175483
  0
VERTEX
  5
A8
  8
DEFAULT
 62
     5
 10
-457.8520880421589
 20
154.6401363986931
 30
0.0
 42
0.1804760167669925
  0
VERTEX
  5
A9
  8
DEFAULT
 62
     5
 10
-459.9261632465308
 20
155.3102742102668
 30
0.0
 42
0.232967483467137
  0
VERTEX
  5
AA
  8
DEFAULT
 62
     5
 10
-462.6321812352222
 20
154.1065713542865
 30
0.0
 42
0.1695179555120442
  0
VERTEX
  5
AB
  8
DEFAULT
 62
     5
 10
-463.6414412009177
 20
150.0787942829449
 30
0.0
  0
VERTEX
  5
AC
  8
DEFAULT
 62
     5
 10
-463.6374038341515
 20
149.6933549529219
 30
0.0
  0
VERTEX
  5
AD
  8
DEFAULT
 62
     5
 10
-463.6252917338531
 20
149.3223380035748
 30
0.0
  0
VERTEX
  5
AE
  8
DEFAULT
 62
     5
 10
-463.6051049000225
 20
148.9657434349036
 30
0.0
  0
VERTEX
  5
AF
  8
DEFAULT
 62
     5
 10
-463.5768433326596
 20
148.6235712469082
 30
0.0
  0
VERTEX
  5
B0
  8
DEFAULT
 62
     5
 10
-463.5405070317644
 20
148.2958214395887
 30
0.0
  0
VERTEX
  5
B1
  8
DEFAULT
 62
     5
 10
-463.496095997337
 20
147.982494012945
 30
0.0
  0
VERTEX
  5
B2
  8
DEFAULT
 62
     5
 10
-463.4436102293772
 20
147.6835889669772
 30
0.0
  0
VERTEX
  5
B3
  8
DEFAULT
 62
     5
 10
-463.4143393203228
 20
147.5395448367468
 30
0.0
  0
VERTEX
  5
B4
  8
DEFAULT
 62
     5
 10
-463.3830497278852
 20
147.3991063016852
 30
0.0
  0
VERTEX
  5
B5
  8
DEFAULT
 62
     5
 10
-463.3497414520646
 20
147.2622733617927
 30
0.0
  0
VERTEX
  5
B6
  8
DEFAULT
 62
     5
 10
-463.3144144928609
 20
147.1290460170692
 30
0.0
  0
VERTEX
  5
B7
  8
DEFAULT
 62
     5
 10
-463.2770688502742
 20
146.9994242675146
 30
0.0
  0
VERTEX
  5
B8
  8
DEFAULT
 62
     5
 10
-463.2377045243044
 20
146.8734081131289
 30
0.0
  0
VERTEX
  5
B9
  8
DEFAULT
 62
     5
 10
-463.1963215149516
 20
146.7509975539123
 30
0.0
  0
VERTEX
  5
BA
  8
DEFAULT
 62
     5
 10
-463.1529198222157
 20
146.6321925898646
 30
0.0
  0
VERTEX
  5
BB
  8
DEFAULT
 62
     5
 10
-463.1074994460967
 20
146.5169932209858
 30
0.0
  0
VERTEX
  5
BC
  8
DEFAULT
 62
     5
 10
-463.0600603865946
 20
146.4053994472761
 30
0.0
  0
VERTEX
  5
BD
  8
DEFAULT
 62
     5
 10
-463.0106026437094
 20
146.2974112687353
 30
0.0
  0
VERTEX
  5
BE
  8
DEFAULT
 62
     5
 10
-462.9591262174412
 20
146.1930286853634
 30
0.0
  0
VERTEX
  5
BF
  8
DEFAULT
 62
     5
 10
-462.9056311077899
 20
146.0922516971606
 30
0.0
  0
VERTEX
  5
C0
  8
DEFAULT
 62
     5
 10
-462.8501173147556
 20
145.9950803041267
 30
0.0
  0
VERTEX
  5
C1
  8
DEFAULT
 62
     5
 10
-462.7925848383383
 20
145.9015145062617
 30
0.0
  0
VERTEX
  5
C2
  8
DEFAULT
 62
     5
 10
-462.7330336785378
 20
145.8115543035658
 30
0.0
  0
VERTEX
  5
C3
  8
DEFAULT
 62
     5
 10
-462.7025010923689
 20
145.7679263004061
 30
0.0
  0
VERTEX
  5
C4
  8
DEFAULT
 62
     5
 10
-462.6714638353543
 20
145.7251996960387
 30
0.0
  0
VERTEX
  5
C5
  8
DEFAULT
 62
     5
 10
-462.6399219074939
 20
145.6833744904636
 30
0.0
  0
VERTEX
  5
C6
  8
DEFAULT
 62
     5
 10
-462.6078753087877
 20
145.6424506836807
 30
0.0
 42
0.2405540491094189
  0
VERTEX
  5
C7
  8
DEFAULT
 62
     5
 10
-459.8335692410659
 20
144.3473112473038
 30
0.0
 42
0.1883458441869769
  0
VERTEX
  5
C8
  8
DEFAULT
 62
     5
 10
-457.7027824689424
 20
145.0811085679326
 30
0.0
 42
0.1622604489947857
  0
VERTEX
  5
C9
  8
DEFAULT
 62
     5
 10
-456.5303300898066
 20
147.606570506563
 30
0.0
  0
VERTEX
  5
CA
  8
DEFAULT
 62
     5
 10
-451.937737497214
 20
147.0139779139705
 30
0.0
 42
-0.1724509721436058
  0
VERTEX
  5
CB
  8
DEFAULT
 62
     5
 10
-454.6206069845391
 20
142.252404652298
 30
0.0
 42
-0.1746967243539319
  0
VERTEX
  5
CC
  8
DEFAULT
 62
     5
 10
-459.9400500867548
 20
140.6436075436001
 30
0.0
 42
-0.2163976905724334
  0
VERTEX
  5
CD
  8
DEFAULT
 62
     5
 10
-465.981718519512
 20
143.0568026414981
 30
0.0
 42
-0.1943870566321086
  0
VERTEX
  5
CE
  8
DEFAULT
 62
     5
 10
-468.2340337935104
 20
149.7385158340527
 30
0.0
 42
-0.1945054615972533
  0
VERTEX
  5
CF
  8
DEFAULT
 62
     5
 10
-465.9828759445801
 20
156.4607377737005
 30
0.0
 42
-0.2157801631579856
  0
VERTEX
  5
D0
  8
DEFAULT
 62
     5
 10
-459.8937553446181
 20
158.8658297658222
 30
0.0
 42
-0.159942307695801
  0
VERTEX
  5
D1
  8
DEFAULT
 62
     5
 10
-454.8983844797424
 20
157.5116639115573
 30
0.0
 42
-0.1682635697126396
  0
SEQEND
  5
D2
  8
DEFAULT
 62
     5
  0
POLYLINE
  5
D3
  8
DEFAULT
 62
     5
 66
     1
 10
0.0
 20
0.0
 30
0.0
 70
     1
  0
VERTEX
  5
D4
  8
DEFAULT
 62
     5
 10
-476.5303300898066
 20
141.0880519880445
 30
0.0
  0
VERTEX
  5
D5
  8
DEFAULT
 62
     5
 10
-476.5303300898066
 20
145.6806445806371
 30
0.0
  0
VERTEX
  5
D6
  8
DEFAULT
 62
     5
 10
-471.937737497214
 20
145.6806445806371
 30
0.0
  0
VERTEX
  5
D7
  8
DEFAULT
 62
     5
 10
-471.937737497214
 20
141.0880519880445
 30
0.0
  0
SEQEND
  5
D8
  8
DEFAULT
 62
     5
  0
POLYLINE
  5
D9
  8
DEFAULT
 62
     5
 66
     1
 10
0.0
 20
0.0
 30
0.0
 70
     1
  0
VERTEX
  5
DA
  8
DEFAULT
 62
     5
 10
-484.5303300898066
 20
151.3102742102668
 30
0.0
 42
0.1931771868552477
  0
VERTEX
  5
DB
  8
DEFAULT
 62
     5
 10
-485.5847273725703
 20
154.2905985492544
 30
0.0
 42
0.2094545272841189
  0
VERTEX
  5
DC
  8
DEFAULT
 62
     5
 10
-488.0280143919465
 20
155.3102742102668
 30
0.0
 42
0.2175151257022356
  0
VERTEX
  5
DD
  8
DEFAULT
 62
     5
 10
-490.5719962619679
 20
154.233886981503
 30
0.0
 42
0.1974850402976667
  0
VERTEX
  5
DE
  8
DEFAULT
 62
     5
 10
-491.5604214461358
 20
151.3102742102668
 30
0.0
  0
SEQEND
  5
DF
  8
DEFAULT
 62
     5
  0
POLYLINE
  5
E0
  8
DEFAULT
 62
     5
 66
     1
 10
0.0
 20
0.0
 30
0.0
 70
     1
  0
VERTEX
  5
E1
  8
DEFAULT
 62
     5
 10
-484.8266263861029
 20
146.569533469526
 30
0.0
  0
VERTEX
  5
E2
  8
DEFAULT
 62
     5
 10
-480.2340337935103
 20
145.9769408769334
 30
0.0
 42
-0.1601948643917463
  0
VERTEX
  5
E3
  8
DEFAULT
 62
     5
 10
-483.0257001069589
 20
142.0070339287095
 30
0.0
 42
-0.1590209405814544
  0
VERTEX
  5
E4
  8
DEFAULT
 62
     5
 10
-487.8011613391531
 20
140.6436075436001
 30
0.0
  0
VERTEX
  5
E5
  8
DEFAULT
 62
     5
 10
-488.0822803106915
 20
140.6465101045019
 30
0.0
  0
VERTEX
  5
E6
  8
DEFAULT
 62
     5
 10
-488.3587967753351
 20
140.6552177872075
 30
0.0
  0
VERTEX
  5
E7
  8
DEFAULT
 62
     5
 10
-488.6307107330838
 20
140.6697305917168
 30
0.0
  0
VERTEX
  5
E8
  8
DEFAULT
 62
     5
 10
-488.8980221839378
 20
140.6900485180299
 30
0.0
  0
VERTEX
  5
E9
  8
DEFAULT
 62
     5
 10
-489.1607311278969
 20
140.7161715661467
 30
0.0
  0
VERTEX
  5
EA
  8
DEFAULT
 62
     5
 10
-489.4188375649612
 20
140.7480997360672
 30
0.0
  0
VERTEX
  5
EB
  8
DEFAULT
 62
     5
 10
-489.6723414951307
 20
140.7858330277915
 30
0.0
  0
VERTEX
  5
EC
  8
DEFAULT
 62
     5
 10
-489.9212429184054
 20
140.8293714413194
 30
0.0
  0
VERTEX
  5
ED
  8
DEFAULT
 62
     5
 10
-490.1655418347852
 20
140.8787149766511
 30
0.0
  0
VERTEX
  5
EE
  8
DEFAULT
 62
     5
 10
-490.4052382442703
 20
140.9338636337865
 30
0.0
  0
VERTEX
  5
EF
  8
DEFAULT
 62
     5
 10
-490.6403321468605
 20
140.9948174127257
 30
0.0
  0
VERTEX
  5
F0
  8
DEFAULT
 62
     5
 10
-490.8708235425559
 20
141.0615763134686
 30
0.0
  0
VERTEX
  5
F1
  8
DEFAULT
 62
     5
 10
-491.0967124313565
 20
141.1341403360152
 30
0.0
  0
VERTEX
  5
F2
  8
DEFAULT
 62
     5
 10
-491.3179988132623
 20
141.2125094803656
 30
0.0
  0
VERTEX
  5
F3
  8
DEFAULT
 62
     5
 10
-491.5346826882732
 20
141.2966837465196
 30
0.0
  0
VERTEX
  5
F4
  8
DEFAULT
 62
     5
 10
-491.7467640563893
 20
141.3866631344774
 30
0.0
  0
VERTEX
  5
F5
  8
DEFAULT
 62
     5
 10
-491.9542429176107
 20
141.482447644239
 30
0.0
  0
VERTEX
  5
F6
  8
DEFAULT
 62
     5
 10
-492.1571192719372
 20
141.5840372758042
 30
0.0
  0
VERTEX
  5
F7
  8
DEFAULT
 62
     5
 10
-492.3553931193688
 20
141.6914320291733
 30
0.0
  0
VERTEX
  5
F8
  8
DEFAULT
 62
     5
 10
-492.5490644599057
 20
141.804631904346
 30
0.0
  0
VERTEX
  5
F9
  8
DEFAULT
 62
     5
 10
-492.7381332935478
 20
141.9236369013224
 30
0.0
  0
VERTEX
  5
FA
  8
DEFAULT
 62
     5
 10
-492.922599620295
 20
142.0484470201026
 30
0.0
  0
VERTEX
  5
FB
  8
DEFAULT
 62
     5
 10
-493.1024634401474
 20
142.1790622606865
 30
0.0
  0
VERTEX
  5
FC
  8
DEFAULT
 62
     5
 10
-493.277724753105
 20
142.3154826230741
 30
0.0
  0
VERTEX
  5
FD
  8
DEFAULT
 62
     5
 10
-493.4483835591677
 20
142.4577081072655
 30
0.0
  0
VERTEX
  5
FE
  8
DEFAULT
 62
     5
 10
-493.6144398583357
 20
142.6057387132606
 30
0.0
  0
VERTEX
  5
FF
  8
DEFAULT
 62
     5
 10
-493.7758936506089
 20
142.7595744410594
 30
0.0
  0
VERTEX
  5
100
  8
DEFAULT
 62
     5
 10
-493.9327449359872
 20
142.919215290662
 30
0.0
  0
VERTEX
  5
101
  8
DEFAULT
 62
     5
 10
-494.0849937144707
 20
143.0846612620683
 30
0.0
  0
VERTEX
  5
102
  8
DEFAULT
 62
     5
 10
-494.2326399860594
 20
143.2559123552783
 30
0.0
  0
VERTEX
  5
103
  8
DEFAULT
 62
     5
 10
-494.3756837507533
 20
143.432968570292
 30
0.0
  0
VERTEX
  5
104
  8
DEFAULT
 62
     5
 10
-494.5141250085523
 20
143.6158299071095
 30
0.0
 42
-0.1603231689598255
  0
VERTEX
  5
105
  8
DEFAULT
 62
     5
 10
-496.2340337935103
 20
149.6227755878173
 30
0.0
 42
-0.1928988919450685
  0
VERTEX
  5
106
  8
DEFAULT
 62
     5
 10
-493.9666719936238
 20
156.4121270511293
 30
0.0
 42
-0.2186957110499459
  0
VERTEX
  5
107
  8
DEFAULT
 62
     5
 10
-488.2340337935103
 20
158.8658297658223
 30
0.0
 42
-0.2248762650829851
  0
VERTEX
  5
108
  8
DEFAULT
 62
     5
 10
-482.0905142153375
 20
156.3137470506206
 30
0.0
  0
VERTEX
  5
109
  8
DEFAULT
 62
     5
 10
-481.9521813999102
 20
156.1515913709354
 30
0.0
  0
VERTEX
  5
10A
  8
DEFAULT
 62
     5
 10
-481.818433006611
 20
155.9841346712799
 30
0.0
  0
VERTEX
  5
10B
  8
DEFAULT
 62
     5
 10
-481.68926903544
 20
155.8113769516542
 30
0.0
  0
VERTEX
  5
10C
  8
DEFAULT
 62
     5
 10
-481.5646894863971
 20
155.6333182120582
 30
0.0
  0
VERTEX
  5
10D
  8
DEFAULT
 62
     5
 10
-481.4446943594822
 20
155.449958452492
 30
0.0
  0
VERTEX
  5
10E
  8
DEFAULT
 62
     5
 10
-481.3292836546956
 20
155.2612976729556
 30
0.0
  0
VERTEX
  5
10F
  8
DEFAULT
 62
     5
 10
-481.2184573720371
 20
155.0673358734489
 30
0.0
  0
VERTEX
  5
110
  8
DEFAULT
 62
     5
 10
-481.1122155115066
 20
154.868073053972
 30
0.0
  0
VERTEX
  5
111
  8
DEFAULT
 62
     5
 10
-481.0105580731043
 20
154.6635092145248
 30
0.0
  0
VERTEX
  5
112
  8
DEFAULT
 62
     5
 10
-480.9134850568302
 20
154.4536443551073
 30
0.0
  0
VERTEX
  5
113
  8
DEFAULT
 62
     5
 10
-480.8209964626841
 20
154.2384784757197
 30
0.0
  0
VERTEX
  5
114
  8
DEFAULT
 62
     5
 10
-480.7330922906662
 20
154.0180115763617
 30
0.0
  0
VERTEX
  5
115
  8
DEFAULT
 62
     5
 10
-480.6497725407764
 20
153.7922436570336
 30
0.0
  0
VERTEX
  5
116
  8
DEFAULT
 62
     5
 10
-480.5710372130147
 20
153.5611747177352
 30
0.0
  0
VERTEX
  5
117
  8
DEFAULT
 62
     5
 10
-480.4968863073811
 20
153.3248047584665
 30
0.0
  0
VERTEX
  5
118
  8
DEFAULT
 62
     5
 10
-480.4273198238757
 20
153.0831337792276
 30
0.0
  0
VERTEX
  5
119
  8
DEFAULT
 62
     5
 10
-480.3623377624984
 20
152.8361617800185
 30
0.0
  0
VERTEX
  5
11A
  8
DEFAULT
 62
     5
 10
-480.3019401232493
 20
152.5838887608391
 30
0.0
  0
VERTEX
  5
11B
  8
DEFAULT
 62
     5
 10
-480.2461269061282
 20
152.3263147216895
 30
0.0
  0
VERTEX
  5
11C
  8
DEFAULT
 62
     5
 10
-480.1948981111353
 20
152.0634396625696
 30
0.0
  0
VERTEX
  5
11D
  8
DEFAULT
 62
     5
 10
-480.1482537382705
 20
151.7952635834795
 30
0.0
  0
VERTEX
  5
11E
  8
DEFAULT
 62
     5
 10
-480.1061937875338
 20
151.5217864844191
 30
0.0
  0
VERTEX
  5
11F
  8
DEFAULT
 62
     5
 10
-480.0687182589253
 20
151.2430083653885
 30
0.0
  0
VERTEX
  5
120
  8
DEFAULT
 62
     5
 10
-480.0358271524449
 20
150.9589292263876
 30
0.0
  0
VERTEX
  5
121
  8
DEFAULT
 62
     5
 10
-479.9837982058684
 20
150.3748678884752
 30
0.0
  0
VERTEX
  5
122
  8
DEFAULT
 62
     5
 10
-479.9501069478044
 20
149.7696024706817
 30
0.0
  0
VERTEX
  5
123
  8
DEFAULT
 62
     5
 10
-479.9347533782529
 20
149.1431329730073
 30
0.0
  0
VERTEX
  5
124
  8
DEFAULT
 62
     5
 10
-479.937737497214
 20
148.4954593954519
 30
0.0
  0
VERTEX
  5
125
  8
DEFAULT
 62
     5
 10
-491.6414412009177
 20
148.4954593954519
 30
0.0
 42
0.1907233177561372
  0
VERTEX
  5
126
  8
DEFAULT
 62
     5
 10
-490.5083378832107
 20
145.329950436428
 30
0.0
 42
0.2135192120775375
  0
VERTEX
  5
127
  8
DEFAULT
 62
     5
 10
-487.808105889563
 20
144.1991630991556
 30
0.0
 42
0.1657236937101111
  0
VERTEX
  5
128
  8
DEFAULT
 62
     5
 10
-485.959727443214
 20
144.7605063452017
 30
0.0
 42
0.1589948514629578
  0
SEQEND
  5
129
  8
DEFAULT
 62
     5
  0
POLYLINE
  5
12A
  8
DEFAULT
 62
     5
 66
     1
 10
0.0
 20
0.0
 30
0.0
 70
     1
  0
VERTEX
  5
12B
  8
DEFAULT
 62
     5
 10
-498.4562560157325
 20
153.3843482843408
 30
0.0
  0
VERTEX
  5
12C
  8
DEFAULT
 62
     5
 10
-503.0488486083251
 20
152.6436075436001
 30
0.0
 42
0.1809968098175013
  0
VERTEX
  5
12D
  8
DEFAULT
 62
     5
 10
-504.0743102643811
 20
154.640136398693
 30
0.0
 42
0.1804760167670072
  0
VERTEX
  5
12E
  8
DEFAULT
 62
     5
 10
-506.1483854687531
 20
155.3102742102668
 30
0.0
 42
0.2329674834671445
  0
VERTEX
  5
12F
  8
DEFAULT
 62
     5
 10
-508.8544034574444
 20
154.1065713542865
 30
0.0
 42
0.1695179555120482
  0
VERTEX
  5
130
  8
DEFAULT
 62
     5
 10
-509.8636634231399
 20
150.0787942829449
 30
0.0
  0
VERTEX
  5
131
  8
DEFAULT
 62
     5
 10
-509.8596260563738
 20
149.6933549529219
 30
0.0
  0
VERTEX
  5
132
  8
DEFAULT
 62
     5
 10
-509.8475139560754
 20
149.3223380035748
 30
0.0
  0
VERTEX
  5
133
  8
DEFAULT
 62
     5
 10
-509.8273271222448
 20
148.9657434349036
 30
0.0
  0
VERTEX
  5
134
  8
DEFAULT
 62
     5
 10
-509.7990655548818
 20
148.6235712469082
 30
0.0
  0
VERTEX
  5
135
  8
DEFAULT
 62
     5
 10
-509.7627292539866
 20
148.2958214395887
 30
0.0
  0
VERTEX
  5
136
  8
DEFAULT
 62
     5
 10
-509.7183182195591
 20
147.982494012945
 30
0.0
  0
VERTEX
  5
137
  8
DEFAULT
 62
     5
 10
-509.6658324515994
 20
147.6835889669772
 30
0.0
  0
VERTEX
  5
138
  8
DEFAULT
 62
     5
 10
-509.6365615425449
 20
147.5395448367468
 30
0.0
  0
VERTEX
  5
139
  8
DEFAULT
 62
     5
 10
-509.6052719501074
 20
147.3991063016852
 30
0.0
  0
VERTEX
  5
13A
  8
DEFAULT
 62
     5
 10
-509.5719636742868
 20
147.2622733617927
 30
0.0
  0
VERTEX
  5
13B
  8
DEFAULT
 62
     5
 10
-509.5366367150831
 20
147.1290460170692
 30
0.0
  0
VERTEX
  5
13C
  8
DEFAULT
 62
     5
 10
-509.4992910724964
 20
146.9994242675146
 30
0.0
  0
VERTEX
  5
13D
  8
DEFAULT
 62
     5
 10
-509.4599267465266
 20
146.8734081131289
 30
0.0
  0
VERTEX
  5
13E
  8
DEFAULT
 62
     5
 10
-509.4185437371738
 20
146.7509975539123
 30
0.0
  0
VERTEX
  5
13F
  8
DEFAULT
 62
     5
 10
-509.3751420444378
 20
146.6321925898646
 30
0.0
  0
VERTEX
  5
140
  8
DEFAULT
 62
     5
 10
-509.3297216683188
 20
146.5169932209858
 30
0.0
  0
VERTEX
  5
141
  8
DEFAULT
 62
     5
 10
-509.2822826088168
 20
146.4053994472761
 30
0.0
  0
VERTEX
  5
142
  8
DEFAULT
 62
     5
 10
-509.2328248659317
 20
146.2974112687353
 30
0.0
  0
VERTEX
  5
143
  8
DEFAULT
 62
     5
 10
-509.1813484396635
 20
146.1930286853634
 30
0.0
  0
VERTEX
  5
144
  8
DEFAULT
 62
     5
 10
-509.1278533300122
 20
146.0922516971606
 30
0.0
  0
VERTEX
  5
145
  8
DEFAULT
 62
     5
 10
-509.0723395369779
 20
145.9950803041267
 30
0.0
  0
VERTEX
  5
146
  8
DEFAULT
 62
     5
 10
-509.0148070605605
 20
145.9015145062617
 30
0.0
  0
VERTEX
  5
147
  8
DEFAULT
 62
     5
 10
-508.95525590076
 20
145.8115543035658
 30
0.0
  0
VERTEX
  5
148
  8
DEFAULT
 62
     5
 10
-508.9247233145911
 20
145.7679263004061
 30
0.0
  0
VERTEX
  5
149
  8
DEFAULT
 62
     5
 10
-508.8936860575765
 20
145.7251996960387
 30
0.0
  0
VERTEX
  5
14A
  8
DEFAULT
 62
     5
 10
-508.8621441297161
 20
145.6833744904636
 30
0.0
  0
VERTEX
  5
14B
  8
DEFAULT
 62
     5
 10
-508.8300975310099
 20
145.6424506836807
 30
0.0
 42
0.2405540491094204
  0
VERTEX
  5
14C
  8
DEFAULT
 62
     5
 10
-506.0557914632881
 20
144.3473112473038
 30
0.0
 42
0.1883458441869921
  0
VERTEX
  5
14D
  8
DEFAULT
 62
     5
 10
-503.9250046911646
 20
145.0811085679326
 30
0.0
 42
0.1622604489947865
  0
VERTEX
  5
14E
  8
DEFAULT
 62
     5
 10
-502.7525523120288
 20
147.606570506563
 30
0.0
  0
VERTEX
  5
14F
  8
DEFAULT
 62
     5
 10
-498.1599597194362
 20
147.0139779139705
 30
0.0
 42
-0.172450972143604
  0
VERTEX
  5
150
  8
DEFAULT
 62
     5
 10
-500.8428292067613
 20
142.252404652298
 30
0.0
 42
-0.1746967243539257
  0
VERTEX
  5
151
  8
DEFAULT
 62
     5
 10
-506.162272308977
 20
140.6436075436
 30
0.0
 42
-0.2163976905724325
  0
VERTEX
  5
152
  8
DEFAULT
 62
     5
 10
-512.2039407417342
 20
143.056802641498
 30
0.0
 42
-0.1943870566321084
  0
VERTEX
  5
153
  8
DEFAULT
 62
     5
 10
-514.4562560157325
 20
149.7385158340527
 30
0.0
 42
-0.1945054615972639
  0
VERTEX
  5
154
  8
DEFAULT
 62
     5
 10
-512.2050981668024
 20
156.4607377737004
 30
0.0
 42
-0.2157801631579855
  0
VERTEX
  5
155
  8
DEFAULT
 62
     5
 10
-506.1159775668403
 20
158.8658297658223
 30
0.0
 42
-0.1599423076958001
  0
VERTEX
  5
156
  8
DEFAULT
 62
     5
 10
-501.1206067019646
 20
157.5116639115572
 30
0.0
 42
-0.1682635697126429
  0
SEQEND
  5
157
  8
DEFAULT
 62
     5
  0
POLYLINE
  5
158
  8
DEFAULT
 62
     5
 66
     1
 10
0.0
 20
0.0
 30
0.0
 70
     1
  0
VERTEX
  5
159
  8
DEFAULT
 62
     5
 10
-522.7525523120288
 20
149.3843482843408
 30
0.0
 42
-0.0261329476715322
  0
VERTEX
  5
15A
  8
DEFAULT
 62
     5
 10
-525.4261623988075
 20
148.6829599959227
 30
0.0
 42
0.0811165779561374
  0
VERTEX
  5
15B
  8
DEFAULT
 62
     5
 10
-527.8173652901096
 20
147.8843502623622
 30
0.0
 42
0.2517191883486827
  0
VERTEX
  5
15C
  8
DEFAULT
 62
     5
 10
-528.6784782379548
 20
146.2686097335523
 30
0.0
 42
0.2041672574556275
  0
VERTEX
  5
15D
  8
DEFAULT
 62
     5
 10
-527.9909779200584
 20
144.6042562215754
 30
0.0
 42
0.2097521333283158
  0
VERTEX
  5
15E
  8
DEFAULT
 62
     5
 10
-526.2386623634857
 20
143.9028668028594
 30
0.0
 42
0.1670482644846041
  0
VERTEX
  5
15F
  8
DEFAULT
 62
     5
 10
-523.9724579886674
 20
144.7176827479721
 30
0.0
 42
0.1651612454990579
  0
VERTEX
  5
160
  8
DEFAULT
 62
     5
 10
-522.9238467009474
 20
146.2362018316396
 30
0.0
 42
0.0593667948164296
  0
VERTEX
  5
161
  8
DEFAULT
 62
     5
 10
-522.7525523120288
 20
148.4699983045449
 30
0.0
  0
SEQEND
  5
162
  8
DEFAULT
 62
     5
  0
POLYLINE
  5
163
  8
DEFAULT
 62
     5
 66
     1
 10
0.0
 20
0.0
 30
0.0
 70
     1
  0
VERTEX
  5
164
  8
DEFAULT
 62
     5
 10
-528.5303300898065
 20
153.0880519880445
 30
0.0
  0
VERTEX
  5
165
  8
DEFAULT
 62
     5
 10
-532.6784782379548
 20
153.6806445806371
 30
0.0
 42
-0.1714833175989841
  0
VERTEX
  5
166
  8
DEFAULT
 62
     5
 10
-530.3092641623548
 20
157.5949973861778
 30
0.0
 42
-0.1608829132837429
  0
VERTEX
  5
167
  8
DEFAULT
 62
     5
 10
-525.3150507225473
 20
158.8658297658224
 30
0.0
 42
-0.1088364278880902
  0
VERTEX
  5
168
  8
DEFAULT
 62
     5
 10
-520.8335698062149
 20
158.137820700833
 30
0.0
 42
-0.1580303644335618
  0
VERTEX
  5
169
  8
DEFAULT
 62
     5
 10
-518.7606531572092
 20
156.2882836991178
 30
0.0
 42
-0.108801705795345
  0
VERTEX
  5
16A
  8
DEFAULT
 62
     5
 10
-518.1599597194363
 20
152.171387158112
 30
0.0
  0
VERTEX
  5
16B
  8
DEFAULT
 62
     5
 10
-518.1599597194363
 20
146.8010162225926
 30
0.0
 42
0.051408021969547
  0
VERTEX
  5
16C
  8
DEFAULT
 62
     5
 10
-517.9099592955746
 20
143.4202284614585
 30
0.0
 42
0.0692287864232075
  0
VERTEX
  5
16D
  8
DEFAULT
 62
     5
 10
-516.9747745342511
 20
141.0880519880445
 30
0.0
  0
VERTEX
  5
16E
  8
DEFAULT
 62
     5
 10
-521.5673671268437
 20
141.0880519880445
 30
0.0
  0
VERTEX
  5
16F
  8
DEFAULT
 62
     5
 10
-522.0071818710148
 20
142.4306447219244
 30
0.0
  0
VERTEX
  5
170
  8
DEFAULT
 62
     5
 10
-522.1692168593869
 20
142.9653683216972
 30
0.0
 42
-0.0933244186738004
  0
VERTEX
  5
171
  8
DEFAULT
 62
     5
 10
-524.6761633878182
 20
141.2246270158075
 30
0.0
 42
-0.1040133466925949
  0
VERTEX
  5
172
  8
DEFAULT
 62
     5
 10
-527.5256986940865
 20
140.6436075436001
 30
0.0
 42
-0.1965430357596715
  0
VERTEX
  5
173
  8
DEFAULT
 62
     5
 10
-531.7328755207186
 20
142.0961545286716
 30
0.0
 42
-0.2154369487651495
  0
VERTEX
  5
174
  8
DEFAULT
 62
     5
 10
-533.2710708305474
 20
145.7686088858289
 30
0.0
 42
-0.1373780248024538
  0
VERTEX
  5
175
  8
DEFAULT
 62
     5
 10
-532.5858853627876
 20
148.3889785497631
 30
0.0
 42
-0.1473783213971595
  0
VERTEX
  5
176
  8
DEFAULT
 62
     5
 10
-530.6657454319056
 20
150.1517098016529
 30
0.0
 42
-0.0634404934846949
  0
VERTEX
  5
177
  8
DEFAULT
 62
     5
 10
-527.1044027510083
 20
151.2199973155342
 30
0.0
 42
0.0472009877729136
  0
VERTEX
  5
178
  8
DEFAULT
 62
     5
 10
-522.7525523120288
 20
152.3473112473038
 30
0.0
  0
VERTEX
  5
179
  8
DEFAULT
 62
     5
 10
-522.7525523120288
 20
152.8125893429779
 30
0.0
 42
0.2070921599656782
  0
VERTEX
  5
17A
  8
DEFAULT
 62
     5
 10
-523.3671348506213
 20
154.7362004187671
 30
0.0
 42
0.1777887432708067
  0
VERTEX
  5
17B
  8
DEFAULT
 62
     5
 10
-525.6877370733523
 20
155.3102742102668
 30
0.0
 42
0.1651091138039219
  0
VERTEX
  5
17C
  8
DEFAULT
 62
     5
 10
-527.4851899469934
 20
154.817219043251
 30
0.0
 42
0.1491587679877784
  0
SEQEND
  5
17D
  8
DEFAULT
 62
     5
  0
POLYLINE
  5
17E
  8
DEFAULT
 62
     5
 66
     1
 10
0.0
 20
0.0
 30
0.0
 70
     1
  0
VERTEX
  5
17F
  8
DEFAULT
 62
     5
 10
-547.6414412009177
 20
150.0463863810322
 30
0.0
 42
0.1662127852120563
  0
VERTEX
  5
180
  8
DEFAULT
 62
     5
 10
-546.5048667383037
 20
145.6274041577927
 30
0.0
 42
0.2404461653497589
  0
VERTEX
  5
181
  8
DEFAULT
 62
     5
 10
-543.7363477959234
 20
144.1991630991556
 30
0.0
 42
0.2413239634427063
  0
VERTEX
  5
182
  8
DEFAULT
 62
     5
 10
-541.1263938273062
 20
145.510506486489
 30
0.0
 42
0.1627449374921693
  0
VERTEX
  5
183
  8
DEFAULT
 62
     5
 10
-540.0858856453622
 20
149.8125910384247
 30
0.0
 42
0.1661976731382146
  0
VERTEX
  5
184
  8
DEFAULT
 62
     5
 10
-541.158801729219
 20
153.95726578107
 30
0.0
 42
0.2412377667960176
  0
VERTEX
  5
185
  8
DEFAULT
 62
     5
 10
-543.815050439973
 20
155.3102742102668
 30
0.0
 42
0.2367422129321826
  0
VERTEX
  5
186
  8
DEFAULT
 62
     5
 10
-546.5534774608749
 20
153.9815705772067
 30
0.0
 42
0.1723447809989214
  0
SEQEND
  5
187
  8
DEFAULT
 62
     5
  0
POLYLINE
  5
188
  8
DEFAULT
 62
     5
 66
     1
 10
0.0
 20
0.0
 30
0.0
 70
     1
  0
VERTEX
  5
189
  8
DEFAULT
 62
     5
 10
-552.2340337935102
 20
158.4213853213779
 30
0.0
  0
VERTEX
  5
18A
  8
DEFAULT
 62
     5
 10
-547.937737497214
 20
158.4213853213779
 30
0.0
  0
VERTEX
  5
18B
  8
DEFAULT
 62
     5
 10
-547.937737497214
 20
155.8936096629087
 30
0.0
 42
-0.1189653659007258
  0
VERTEX
  5
18C
  8
DEFAULT
 62
     5
 10
-545.7189864198988
 20
158.0278675799391
 30
0.0
 42
-0.1382105598910221
  0
VERTEX
  5
18D
  8
DEFAULT
 62
     5
 10
-542.615976153968
 20
158.8658297658223
 30
0.0
 42
-0.2273648758850355
  0
VERTEX
  5
18E
  8
DEFAULT
 62
     5
 10
-537.5673671268437
 20
156.485043700135
 30
0.0
 42
-0.1838682188936404
  0
VERTEX
  5
18F
  8
DEFAULT
 62
     5
 10
-535.4932930527694
 20
149.8542560802881
 30
0.0
 42
-0.1823656645299899
  0
VERTEX
  5
190
  8
DEFAULT
 62
     5
 10
-537.5847273725703
 20
143.0649046169762
 30
0.0
 42
-0.228559454157487
  0
VERTEX
  5
191
  8
DEFAULT
 62
     5
 10
-542.653013756154
 20
140.6436075436
 30
0.0
 42
-0.116319800680779
  0
VERTEX
  5
192
  8
DEFAULT
 62
     5
 10
-545.2201441275414
 20
141.2107379149877
 30
0.0
 42
-0.090415238077805
  0
VERTEX
  5
193
  8
DEFAULT
 62
     5
 10
-547.6414412009177
 20
143.1551837723046
 30
0.0
  0
VERTEX
  5
194
  8
DEFAULT
 62
     5
 10
-547.6414412009177
 20
134.4213853213779
 30
0.0
  0
VERTEX
  5
195
  8
DEFAULT
 62
     5
 10
-552.2340337935102
 20
134.4213853213779
 30
0.0
  0
SEQEND
  5
196
  8
DEFAULT
 62
     5
  0
POLYLINE
  5
197
  8
DEFAULT
 62
     5
 66
     1
 10
0.0
 20
0.0
 30
0.0
 70
     1
  0
VERTEX
  5
198
  8
DEFAULT
 62
     5
 10
-572.3821819416585
 20
145.9769408769334
 30
0.0
  0
VERTEX
  5
199
  8
DEFAULT
 62
     5
 10
-567.7895893490657
 20
146.569533469526
 30
0.0
 42
0.1817134537413111
  0
VERTEX
  5
19A
  8
DEFAULT
 62
     5
 10
-566.6009307583778
 20
144.5811077202091
 30
0.0
 42
0.1637490318832927
  0
VERTEX
  5
19B
  8
DEFAULT
 62
     5
 10
-564.0974576354495
 20
143.9028668028593
 30
0.0
 42
0.1581548590316183
  0
VERTEX
  5
19C
  8
DEFAULT
 62
     5
 10
-561.4284761186461
 20
144.5672197496874
 30
0.0
 42
0.245417362875409
  0
VERTEX
  5
19D
  8
DEFAULT
 62
     5
 10
-560.8266263861028
 20
145.8125910384247
 30
0.0
 42
0.1967133408660021
  0
VERTEX
  5
19E
  8
DEFAULT
 62
     5
 10
-561.1530134735793
 20
146.6922205267672
 30
0.0
 42
0.1152480441763092
  0
VERTEX
  5
19F
  8
DEFAULT
 62
     5
 10
-562.6900513583399
 20
147.3056467705894
 30
0.0
  0
VERTEX
  5
1A0
  8
DEFAULT
 62
     5
 10
-564.0148486181347
 20
147.6134807067706
 30
0.0
  0
VERTEX
  5
1A1
  8
DEFAULT
 62
     5
 10
-565.2126204325242
 20
147.9142978795509
 30
0.0
  0
VERTEX
  5
1A2
  8
DEFAULT
 62
     5
 10
-566.2833668015085
 20
148.2080982889302
 30
0.0
  0
VERTEX
  5
1A3
  8
DEFAULT
 62
     5
 10
-567.2270877250877
 20
148.4948819349085
 30
0.0
  0
VERTEX
  5
1A4
  8
DEFAULT
 62
     5
 10
-567.6513136448503
 20
148.6356424716222
 30
0.0
  0
VERTEX
  5
1A5
  8
DEFAULT
 62
     5
 10
-568.0437832032617
 20
148.7746488174857
 30
0.0
  0
VERTEX
  5
1A6
  8
DEFAULT
 62
     5
 10
-568.4044964003217
 20
148.911900972499
 30
0.0
  0
VERTEX
  5
1A7
  8
DEFAULT
 62
     5
 10
-568.7334532360304
 20
149.047398936662
 30
0.0
  0
VERTEX
  5
1A8
  8
DEFAULT
 62
     5
 10
-568.8860230183781
 20
149.1144900971747
 30
0.0
  0
VERTEX
  5
1A9
  8
DEFAULT
 62
     5
 10
-569.0306537103878
 20
149.1811427099748
 30
0.0
  0
VERTEX
  5
1AA
  8
DEFAULT
 62
     5
 10
-569.1673453120598
 20
149.2473567750623
 30
0.0
  0
VERTEX
  5
1AB
  8
DEFAULT
 62
     5
 10
-569.296097823394
 20
149.3131322924373
 30
0.0
  0
VERTEX
  5
1AC
  8
DEFAULT
 62
     5
 10
-569.4169112443903
 20
149.3784692620997
 30
0.0
  0
VERTEX
  5
1AD
  8
DEFAULT
 62
     5
 10
-569.5297855750489
 20
149.4433676840496
 30
0.0
  0
VERTEX
  5
1AE
  8
DEFAULT
 62
     5
 10
-569.6347208153695
 20
149.5078275582869
 30
0.0
  0
VERTEX
  5
1AF
  8
DEFAULT
 62
     5
 10
-569.7317169653523
 20
149.5718488848116
 30
0.0
 42
-0.2630575377237349
  0
VERTEX
  5
1B0
  8
DEFAULT
 62
     5
 10
-571.7895893490657
 20
153.5024056413087
 30
0.0
 42
-0.2278055359034033
  0
VERTEX
  5
1B1
  8
DEFAULT
 62
     5
 10
-570.0106541462197
 20
157.3195336108132
 30
0.0
  0
VERTEX
  5
1B2
  8
DEFAULT
 62
     5
 10
-569.8975593909611
 20
157.4146670656624
 30
0.0
  0
VERTEX
  5
1B3
  8
DEFAULT
 62
     5
 10
-569.7806420255406
 20
157.5067804108339
 30
0.0
  0
VERTEX
  5
1B4
  8
DEFAULT
 62
     5
 10
-569.6599020499586
 20
157.5958736463275
 30
0.0
  0
VERTEX
  5
1B5
  8
DEFAULT
 62
     5
 10
-569.535339464215
 20
157.6819467721435
 30
0.0
  0
VERTEX
  5
1B6
  8
DEFAULT
 62
     5
 10
-569.4069542683096
 20
157.7649997882817
 30
0.0
  0
VERTEX
  5
1B7
  8
DEFAULT
 62
     5
 10
-569.2747464622425
 20
157.8450326947421
 30
0.0
  0
VERTEX
  5
1B8
  8
DEFAULT
 62
     5
 10
-569.1387160460139
 20
157.9220454915248
 30
0.0
  0
VERTEX
  5
1B9
  8
DEFAULT
 62
     5
 10
-568.9988630196235
 20
157.9960381786297
 30
0.0
  0
VERTEX
  5
1BA
  8
DEFAULT
 62
     5
 10
-568.8551873830716
 20
158.0670107560569
 30
0.0
  0
VERTEX
  5
1BB
  8
DEFAULT
 62
     5
 10
-568.7076891363579
 20
158.1349632238063
 30
0.0
  0
VERTEX
  5
1BC
  8
DEFAULT
 62
     5
 10
-568.5563682794826
 20
158.199895581878
 30
0.0
  0
VERTEX
  5
1BD
  8
DEFAULT
 62
     5
 10
-568.4012248124457
 20
158.2618078302719
 30
0.0
  0
VERTEX
  5
1BE
  8
DEFAULT
 62
     5
 10
-568.2422587352471
 20
158.320699968988
 30
0.0
  0
VERTEX
  5
1BF
  8
DEFAULT
 62
     5
 10
-568.0794700478867
 20
158.3765719980265
 30
0.0
  0
VERTEX
  5
1C0
  8
DEFAULT
 62
     5
 10
-567.9128587503648
 20
158.4294239173871
 30
0.0
  0
VERTEX
  5
1C1
  8
DEFAULT
 62
     5
 10
-567.7424248426811
 20
158.47925572707
 30
0.0
  0
VERTEX
  5
1C2
  8
DEFAULT
 62
     5
 10
-567.5681683248357
 20
158.5260674270752
 30
0.0
  0
VERTEX
  5
1C3
  8
DEFAULT
 62
     5
 10
-567.3900891968289
 20
158.5698590174026
 30
0.0
  0
VERTEX
  5
1C4
  8
DEFAULT
 62
     5
 10
-567.2081874586603
 20
158.6106304980523
 30
0.0
  0
VERTEX
  5
1C5
  8
DEFAULT
 62
     5
 10
-567.02246311033
 20
158.6483818690241
 30
0.0
  0
VERTEX
  5
1C6
  8
DEFAULT
 62
     5
 10
-566.8329161518382
 20
158.6831131303183
 30
0.0
  0
VERTEX
  5
1C7
  8
DEFAULT
 62
     5
 10
-566.6395465831845
 20
158.7148242819347
 30
0.0
  0
VERTEX
  5
1C8
  8
DEFAULT
 62
     5
 10
-566.4423544043693
 20
158.7435153238733
 30
0.0
  0
VERTEX
  5
1C9
  8
DEFAULT
 62
     5
 10
-566.2413396153923
 20
158.7691862561342
 30
0.0
  0
VERTEX
  5
1CA
  8
DEFAULT
 62
     5
 10
-565.8278422069535
 20
158.8114677916228
 30
0.0
  0
VERTEX
  5
1CB
  8
DEFAULT
 62
     5
 10
-565.3990543578681
 20
158.8416688884003
 30
0.0
  0
VERTEX
  5
1CC
  8
DEFAULT
 62
     5
 10
-564.954976068136
 20
158.8597895464668
 30
0.0
  0
VERTEX
  5
1CD
  8
DEFAULT
 62
     5
 10
-564.4956073377572
 20
158.8658297658223
 30
0.0
 42
-0.1478680227512933
  0
VERTEX
  5
1CE
  8
DEFAULT
 62
     5
 10
-559.2085698768585
 20
157.6679140351836
 30
0.0
 42
-0.1798681362132081
  0
VERTEX
  5
1CF
  8
DEFAULT
 62
     5
 10
-556.8266263861028
 20
154.1250890250816
 30
0.0
  0
VERTEX
  5
1D0
  8
DEFAULT
 62
     5
 10
-561.1229226823991
 20
153.3843482843408
 30
0.0
 42
0.176260944824434
  0
VERTEX
  5
1D1
  8
DEFAULT
 62
     5
 10
-562.173847689958
 20
155.0336541401317
 30
0.0
 42
0.1598214678236418
  0
VERTEX
  5
1D2
  8
DEFAULT
 62
     5
 10
-564.3821819416585
 20
155.6065705065631
 30
0.0
 42
0.1371855487857301
  0
VERTEX
  5
1D3
  8
DEFAULT
 62
     5
 10
-566.9724585538165
 20
155.0926828186156
 30
0.0
 42
0.259374020670962
  0
VERTEX
  5
1D4
  8
DEFAULT
 62
     5
 10
-567.4932930527697
 20
154.1459226763112
 30
0.0
 42
0.2456185528240035
  0
VERTEX
  5
1D5
  8
DEFAULT
 62
     5
 10
-567.037274357642
 20
153.2987010898815
 30
0.0
 42
0.0664798749579017
  0
VERTEX
  5
1D6
  8
DEFAULT
 62
     5
 10
-562.7664402825507
 20
151.9873588328462
 30
0.0
 42
-0.1095214193377371
  0
VERTEX
  5
1D7
  8
DEFAULT
 62
     5
 10
-557.6669034221227
 20
149.9260164345235
 30
0.0
 42
-0.2284114958797776
  0
VERTEX
  5
1D8
  8
DEFAULT
 62
     5
 10
-556.2340337935102
 20
146.4931456756132
 30
0.0
 42
-0.2276229810650882
  0
VERTEX
  5
1D9
  8
DEFAULT
 62
     5
 10
-558.2201446926906
 20
142.3681448985334
 30
0.0
  0
VERTEX
  5
1DA
  8
DEFAULT
 62
     5
 10
-558.3461371206315
 20
142.2620454323608
 30
0.0
  0
VERTEX
  5
1DB
  8
DEFAULT
 62
     5
 10
-558.4758504260899
 20
142.1593142032094
 30
0.0
  0
VERTEX
  5
1DC
  8
DEFAULT
 62
     5
 10
-558.6092846090656
 20
142.0599512110795
 30
0.0
  0
VERTEX
  5
1DD
  8
DEFAULT
 62
     5
 10
-558.7464396695589
 20
141.9639564559709
 30
0.0
  0
VERTEX
  5
1DE
  8
DEFAULT
 62
     5
 10
-558.8873156075695
 20
141.8713299378837
 30
0.0
  0
VERTEX
  5
1DF
  8
DEFAULT
 62
     5
 10
-559.0319124230977
 20
141.7820716568178
 30
0.0
  0
VERTEX
  5
1E0
  8
DEFAULT
 62
     5
 10
-559.1802301161431
 20
141.6961816127732
 30
0.0
  0
VERTEX
  5
1E1
  8
DEFAULT
 62
     5
 10
-559.3322686867061
 20
141.61365980575
 30
0.0
  0
VERTEX
  5
1E2
  8
DEFAULT
 62
     5
 10
-559.4880281347866
 20
141.5345062357482
 30
0.0
  0
VERTEX
  5
1E3
  8
DEFAULT
 62
     5
 10
-559.6475084603844
 20
141.4587209027678
 30
0.0
  0
VERTEX
  5
1E4
  8
DEFAULT
 62
     5
 10
-559.8107096634998
 20
141.3863038068087
 30
0.0
  0
VERTEX
  5
1E5
  8
DEFAULT
 62
     5
 10
-559.9776317441325
 20
141.3172549478709
 30
0.0
  0
VERTEX
  5
1E6
  8
DEFAULT
 62
     5
 10
-560.1482747022827
 20
141.2515743259545
 30
0.0
  0
VERTEX
  5
1E7
  8
DEFAULT
 62
     5
 10
-560.3226385379503
 20
141.1892619410594
 30
0.0
  0
VERTEX
  5
1E8
  8
DEFAULT
 62
     5
 10
-560.5007232511355
 20
141.1303177931858
 30
0.0
  0
VERTEX
  5
1E9
  8
DEFAULT
 62
     5
 10
-560.6825288418379
 20
141.0747418823334
 30
0.0
  0
VERTEX
  5
1EA
  8
DEFAULT
 62
     5
 10
-560.8680553100578
 20
141.0225342085024
 30
0.0
  0
VERTEX
  5
1EB
  8
DEFAULT
 62
     5
 10
-561.0573026557952
 20
140.9736947716928
 30
0.0
  0
VERTEX
  5
1EC
  8
DEFAULT
 62
     5
 10
-561.25027087905
 20
140.9282235719045
 30
0.0
  0
VERTEX
  5
1ED
  8
DEFAULT
 62
     5
 10
-561.4469599798223
 20
140.8861206091376
 30
0.0
  0
VERTEX
  5
1EE
  8
DEFAULT
 62
     5
 10
-561.647369958112
 20
140.847385883392
 30
0.0
  0
VERTEX
  5
1EF
  8
DEFAULT
 62
     5
 10
-561.8515008139191
 20
140.8120193946678
 30
0.0
  0
VERTEX
  5
1F0
  8
DEFAULT
 62
     5
 10
-562.0593525472436
 20
140.7800211429649
 30
0.0
  0
VERTEX
  5
1F1
  8
DEFAULT
 62
     5
 10
-562.2709251580857
 20
140.7513911282834
 30
0.0
  0
VERTEX
  5
1F2
  8
DEFAULT
 62
     5
 10
-562.705233012322
 20
140.7042358099844
 30
0.0
  0
VERTEX
  5
1F3
  8
DEFAULT
 62
     5
 10
-563.1544243766281
 20
140.6705534397709
 30
0.0
  0
VERTEX
  5
1F4
  8
DEFAULT
 62
     5
 10
-563.6184992510039
 20
140.6503440176428
 30
0.0
  0
VERTEX
  5
1F5
  8
DEFAULT
 62
     5
 10
-564.0974576354495
 20
140.6436075436
 30
0.0
 42
-0.1534212868271903
  0
VERTEX
  5
1F6
  8
DEFAULT
 62
     5
 10
-569.6888944984206
 20
142.078793152647
 30
0.0
 42
-0.18535426201661
  0
SEQEND
  5
1F7
  8
DEFAULT
 62
     5
  0
POLYLINE
  5
1F8
  8
DEFAULT
 62
     5
 66
     1
 10
0.0
 20
0.0
 30
0.0
 70
     1
  0
VERTEX
  5
1F9
  8
DEFAULT
 62
     5
 10
-575.3451449046214
 20
141.0880519880445
 30
0.0
  0
VERTEX
  5
1FA
  8
DEFAULT
 62
     5
 10
-579.937737497214
 20
141.0880519880445
 30
0.0
  0
VERTEX
  5
1FB
  8
DEFAULT
 62
     5
 10
-579.937737497214
 20
149.9375906852066
 30
0.0
 42
0.0659043403441743
  0
VERTEX
  5
1FC
  8
DEFAULT
 62
     5
 10
-580.2270892431004
 20
153.5718500151095
 30
0.0
 42
0.1600130695765169
  0
VERTEX
  5
1FD
  8
DEFAULT
 62
     5
 10
-581.166903704697
 20
154.8530992203689
 30
0.0
 42
0.1575149176297835
  0
VERTEX
  5
1FE
  8
DEFAULT
 62
     5
 10
-582.7317186607992
 20
155.3102742102668
 30
0.0
 42
0.1576987046345066
  0
VERTEX
  5
1FF
  8
DEFAULT
 62
     5
 10
-584.8347272312832
 20
154.6574966444199
 30
0.0
 42
0.1684371822617401
  0
VERTEX
  5
200
  8
DEFAULT
 62
     5
 10
-586.111347866567
 20
152.9271732944429
 30
0.0
 42
0.0659809918576237
  0
VERTEX
  5
201
  8
DEFAULT
 62
     5
 10
-586.4562560157325
 20
148.942218690033
 30
0.0
  0
VERTEX
  5
202
  8
DEFAULT
 62
     5
 10
-586.4562560157325
 20
141.0880519880445
 30
0.0
  0
VERTEX
  5
203
  8
DEFAULT
 62
     5
 10
-591.0488486083251
 20
141.0880519880445
 30
0.0
  0
VERTEX
  5
204
  8
DEFAULT
 62
     5
 10
-591.0488486083251
 20
158.4213853213779
 30
0.0
  0
VERTEX
  5
205
  8
DEFAULT
 62
     5
 10
-586.7525523120288
 20
158.4213853213779
 30
0.0
  0
VERTEX
  5
206
  8
DEFAULT
 62
     5
 10
-586.7525523120288
 20
155.8936096629087
 30
0.0
 42
-0.2486296121988482
  0
VERTEX
  5
207
  8
DEFAULT
 62
     5
 10
-581.1044038813062
 20
158.8658297658223
 30
0.0
 42
-0.1053164015607898
  0
VERTEX
  5
208
  8
DEFAULT
 62
     5
 10
-578.3625057154972
 20
158.3172193258256
 30
0.0
 42
-0.1292191717088459
  0
VERTEX
  5
209
  8
DEFAULT
 62
     5
 10
-576.4828756620058
 20
156.9179138938964
 30
0.0
 42
-0.1054932374261469
  0
VERTEX
  5
20A
  8
DEFAULT
 62
     5
 10
-575.5951441981852
 20
154.9862008426289
 30
0.0
 42
-0.0533641385176435
  0
VERTEX
  5
20B
  8
DEFAULT
 62
     5
 10
-575.3451449046214
 20
151.8912948127721
 30
0.0
  0
SEQEND
  5
20C
  8
DEFAULT
 62
     5
  0
POLYLINE
  5
20D
  8
DEFAULT
 62
     5
 66
     1
 10
0.0
 20
0.0
 30
0.0
 70
     1
  0
VERTEX
  5
20E
  8
DEFAULT
 62
     5
 10
-600.3821819416585
 20
149.3843482843408
 30
0.0
 42
-0.0261329476715282
  0
VERTEX
  5
20F
  8
DEFAULT
 62
     5
 10
-603.055792028437
 20
148.6829599959227
 30
0.0
 42
0.0811165779561384
  0
VERTEX
  5
210
  8
DEFAULT
 62
     5
 10
-605.4469949197392
 20
147.8843502623622
 30
0.0
 42
0.2517191883486827
  0
VERTEX
  5
211
  8
DEFAULT
 62
     5
 10
-606.3081078675843
 20
146.2686097335523
 30
0.0
 42
0.2041672574556753
  0
VERTEX
  5
212
  8
DEFAULT
 62
     5
 10
-605.6206075496881
 20
144.6042562215754
 30
0.0
 42
0.2097521333282291
  0
VERTEX
  5
213
  8
DEFAULT
 62
     5
 10
-603.8682919931152
 20
143.9028668028594
 30
0.0
 42
0.1670482644845997
  0
VERTEX
  5
214
  8
DEFAULT
 62
     5
 10
-601.6020876182973
 20
144.7176827479721
 30
0.0
 42
0.1651612454991799
  0
VERTEX
  5
215
  8
DEFAULT
 62
     5
 10
-600.553476330577
 20
146.2362018316396
 30
0.0
 42
0.0593667948163222
  0
VERTEX
  5
216
  8
DEFAULT
 62
     5
 10
-600.3821819416585
 20
148.4699983045449
 30
0.0
  0
SEQEND
  5
217
  8
DEFAULT
 62
     5
  0
POLYLINE
  5
218
  8
DEFAULT
 62
     5
 66
     1
 10
0.0
 20
0.0
 30
0.0
 70
     1
  0
VERTEX
  5
219
  8
DEFAULT
 62
     5
 10
-606.1599597194362
 20
153.0880519880445
 30
0.0
  0
VERTEX
  5
21A
  8
DEFAULT
 62
     5
 10
-610.3081078675843
 20
153.6806445806371
 30
0.0
 42
-0.1714833175990277
  0
VERTEX
  5
21B
  8
DEFAULT
 62
     5
 10
-607.9388937919844
 20
157.5949973861779
 30
0.0
 42
-0.160882913283754
  0
VERTEX
  5
21C
  8
DEFAULT
 62
     5
 10
-602.944680352177
 20
158.8658297658223
 30
0.0
 42
-0.1088364278881128
  0
VERTEX
  5
21D
  8
DEFAULT
 62
     5
 10
-598.4631994358444
 20
158.137820700833
 30
0.0
 42
-0.1580303644335596
  0
VERTEX
  5
21E
  8
DEFAULT
 62
     5
 10
-596.3902827868387
 20
156.2882836991178
 30
0.0
 42
-0.1088017057953465
  0
VERTEX
  5
21F
  8
DEFAULT
 62
     5
 10
-595.7895893490659
 20
152.171387158112
 30
0.0
  0
VERTEX
  5
220
  8
DEFAULT
 62
     5
 10
-595.7895893490659
 20
146.8010162225926
 30
0.0
 42
0.0514080219695095
  0
VERTEX
  5
221
  8
DEFAULT
 62
     5
 10
-595.5395889252042
 20
143.4202284614585
 30
0.0
 42
0.0692287864233163
  0
VERTEX
  5
222
  8
DEFAULT
 62
     5
 10
-594.6044041638806
 20
141.0880519880445
 30
0.0
  0
VERTEX
  5
223
  8
DEFAULT
 62
     5
 10
-599.1969967564733
 20
141.0880519880445
 30
0.0
  0
VERTEX
  5
224
  8
DEFAULT
 62
     5
 10
-599.6368115006444
 20
142.4306447219244
 30
0.0
  0
VERTEX
  5
225
  8
DEFAULT
 62
     5
 10
-599.7988464890165
 20
142.9653683216971
 30
0.0
 42
-0.0933244186738138
  0
VERTEX
  5
226
  8
DEFAULT
 62
     5
 10
-602.3057930174479
 20
141.2246270158076
 30
0.0
 42
-0.1040133466925954
  0
VERTEX
  5
227
  8
DEFAULT
 62
     5
 10
-605.155328323716
 20
140.6436075436001
 30
0.0
 42
-0.1965430357596638
  0
VERTEX
  5
228
  8
DEFAULT
 62
     5
 10
-609.3625051503482
 20
142.0961545286717
 30
0.0
 42
-0.2154369487651506
  0
VERTEX
  5
229
  8
DEFAULT
 62
     5
 10
-610.900700460177
 20
145.7686088858289
 30
0.0
 42
-0.1373780248024166
  0
VERTEX
  5
22A
  8
DEFAULT
 62
     5
 10
-610.2155149924173
 20
148.388978549763
 30
0.0
 42
-0.147378321397169
  0
VERTEX
  5
22B
  8
DEFAULT
 62
     5
 10
-608.295375061535
 20
150.1517098016527
 30
0.0
 42
-0.0634404934847196
  0
VERTEX
  5
22C
  8
DEFAULT
 62
     5
 10
-604.7340323806379
 20
151.2199973155342
 30
0.0
 42
0.047200987772927
  0
VERTEX
  5
22D
  8
DEFAULT
 62
     5
 10
-600.3821819416585
 20
152.3473112473038
 30
0.0
  0
VERTEX
  5
22E
  8
DEFAULT
 62
     5
 10
-600.3821819416585
 20
152.8125893429778
 30
0.0
 42
0.2070921599656499
  0
VERTEX
  5
22F
  8
DEFAULT
 62
     5
 10
-600.9967644802509
 20
154.7362004187672
 30
0.0
 42
0.1777887432708267
  0
VERTEX
  5
230
  8
DEFAULT
 62
     5
 10
-603.3173667029819
 20
155.3102742102668
 30
0.0
 42
0.1651091138038827
  0
VERTEX
  5
231
  8
DEFAULT
 62
     5
 10
-605.1148195766231
 20
154.8172190432511
 30
0.0
 42
0.1491587679877556
  0
SEQEND
  5
232
  8
DEFAULT
 62
     5
  0
POLYLINE
  5
233
  8
DEFAULT
 62
     5
 66
     1
 10
0.0
 20
0.0
 30
0.0
 70
     1
  0
VERTEX
  5
234
  8
DEFAULT
 62
     5
 10
-639.4932930527696
 20
158.4213853213779
 30
0.0
  0
VERTEX
  5
235
  8
DEFAULT
 62
     5
 10
-635.3451449046214
 20
158.4213853213779
 30
0.0
  0
VERTEX
  5
236
  8
DEFAULT
 62
     5
 10
-635.3451449046214
 20
156.0718486022371
 30
0.0
 42
-0.2373869490350156
  0
VERTEX
  5
237
  8
DEFAULT
 62
     5
 10
-629.9539403178725
 20
158.8658297658224
 30
0.0
 42
-0.1315120310734894
  0
VERTEX
  5
238
  8
DEFAULT
 62
     5
 10
-627.0731534044618
 20
158.171386027814
 30
0.0
 42
-0.1393853272244985
  0
VERTEX
  5
239
  8
DEFAULT
 62
     5
 10
-625.0696811292569
 20
156.0718486022371
 30
0.0
 42
-0.1018343532165766
  0
VERTEX
  5
23A
  8
DEFAULT
 62
     5
 10
-622.6182921344025
 20
158.1713860278141
 30
0.0
 42
-0.1239296679571015
  0
VERTEX
  5
23B
  8
DEFAULT
 62
     5
 10
-619.8104207396996
 20
158.8658297658223
 30
0.0
 42
-0.135530558914211
  0
VERTEX
  5
23C
  8
DEFAULT
 62
     5
 10
-616.5951436330363
 20
158.0880525531934
 30
0.0
 42
-0.1623661969580093
  0
VERTEX
  5
23D
  8
DEFAULT
 62
     5
 10
-614.6298652547877
 20
155.805645357717
 30
0.0
 42
-0.0915442810314154
  0
VERTEX
  5
23E
  8
DEFAULT
 62
     5
 10
-614.1599597194362
 20
152.2037927994289
 30
0.0
  0
VERTEX
  5
23F
  8
DEFAULT
 62
     5
 10
-614.1599597194362
 20
141.0880519880445
 30
0.0
  0
VERTEX
  5
240
  8
DEFAULT
 62
     5
 10
-618.7525523120288
 20
141.0880519880445
 30
0.0
  0
VERTEX
  5
241
  8
DEFAULT
 62
     5
 10
-618.7525523120289
 20
151.0000910737465
 30
0.0
 42
0.1141470137910744
  0
VERTEX
  5
242
  8
DEFAULT
 62
     5
 10
-619.2201429972437
 20
154.3311084266453
 30
0.0
 42
0.272100060653395
  0
VERTEX
  5
243
  8
DEFAULT
 62
     5
 10
-621.1576431738526
 20
155.3102742102668
 30
0.0
 42
0.15756390714665
  0
VERTEX
  5
244
  8
DEFAULT
 62
     5
 10
-622.9481537576798
 20
154.7223113179474
 30
0.0
 42
0.1657627374473923
  0
VERTEX
  5
245
  8
DEFAULT
 62
     5
 10
-624.1588022943679
 20
153.0000899434486
 30
0.0
 42
0.0723437487254544
  0
VERTEX
  5
246
  8
DEFAULT
 62
     5
 10
-624.5303300898065
 20
149.4167561862536
 30
0.0
  0
VERTEX
  5
247
  8
DEFAULT
 62
     5
 10
-624.5303300898065
 20
141.0880519880445
 30
0.0
  0
VERTEX
  5
248
  8
DEFAULT
 62
     5
 10
-629.1229226823991
 20
141.0880519880445
 30
0.0
  0
VERTEX
  5
249
  8
DEFAULT
 62
     5
 10
-629.1229226823991
 20
150.5903671207556
 30
0.0
 42
0.0609892367975723
  0
VERTEX
  5
24A
  8
DEFAULT
 62
     5
 10
-629.362505150348
 20
153.8577283554931
 30
0.0
 42
0.1633931196985006
  0
VERTEX
  5
24B
  8
DEFAULT
 62
     5
 10
-630.106717035996
 20
154.9514780905794
 30
0.0
 42
0.1561218014296981
  0
VERTEX
  5
24C
  8
DEFAULT
 62
     5
 10
-631.4747742516765
 20
155.3102742102668
 30
0.0
 42
0.1551837175467854
  0
VERTEX
  5
24D
  8
DEFAULT
 62
     5
 10
-633.3486160495283
 20
154.7385152689038
 30
0.0
 42
0.1670025847935773
  0
VERTEX
  5
24E
  8
DEFAULT
 62
     5
 10
-634.5407457851236
 20
153.0892105434108
 30
0.0
 42
0.0722698594962465
  0
VERTEX
  5
24F
  8
DEFAULT
 62
     5
 10
-634.900700460177
 20
149.5139798919918
 30
0.0
  0
VERTEX
  5
250
  8
DEFAULT
 62
     5
 10
-634.900700460177
 20
141.0880519880445
 30
0.0
  0
VERTEX
  5
251
  8
DEFAULT
 62
     5
 10
-639.4932930527696
 20
141.0880519880445
 30
0.0
  0
SEQEND
  5
252
  8
DEFAULT
 62
     5
  0
POLYLINE
  5
253
  8
DEFAULT
 62
     5
 66
     1
 10
0.0
 20
0.0
 30
0.0
 70
     1
  0
VERTEX
  5
254
  8
DEFAULT
 62
     5
 10
-659.1969967564733
 20
145.9769408769334
 30
0.0
  0
VERTEX
  5
255
  8
DEFAULT
 62
     5
 10
-654.6044041638806
 20
146.569533469526
 30
0.0
 42
0.1817134537412838
  0
VERTEX
  5
256
  8
DEFAULT
 62
     5
 10
-653.4157455731927
 20
144.5811077202092
 30
0.0
 42
0.1637490318832441
  0
VERTEX
  5
257
  8
DEFAULT
 62
     5
 10
-650.9122724502643
 20
143.9028668028594
 30
0.0
 42
0.1581548590316211
  0
VERTEX
  5
258
  8
DEFAULT
 62
     5
 10
-648.2432909334609
 20
144.5672197496873
 30
0.0
 42
0.2454173628751696
  0
VERTEX
  5
259
  8
DEFAULT
 62
     5
 10
-647.6414412009177
 20
145.8125910384247
 30
0.0
 42
0.1967133408658378
  0
VERTEX
  5
25A
  8
DEFAULT
 62
     5
 10
-647.9678282883943
 20
146.6922205267671
 30
0.0
 42
0.11524804417626
  0
VERTEX
  5
25B
  8
DEFAULT
 62
     5
 10
-649.5048661731547
 20
147.3056467705893
 30
0.0
  0
VERTEX
  5
25C
  8
DEFAULT
 62
     5
 10
-650.8296633553219
 20
147.61348065353
 30
0.0
  0
VERTEX
  5
25D
  8
DEFAULT
 62
     5
 10
-652.0274351142633
 20
147.9142977882813
 30
0.0
  0
VERTEX
  5
25E
  8
DEFAULT
 62
     5
 10
-653.0981814499787
 20
148.2080981748432
 30
0.0
  0
VERTEX
  5
25F
  8
DEFAULT
 62
     5
 10
-654.0419023624682
 20
148.4948818132157
 30
0.0
  0
VERTEX
  5
260
  8
DEFAULT
 62
     5
 10
-654.4661282850034
 20
148.6356423518309
 30
0.0
  0
VERTEX
  5
261
  8
DEFAULT
 62
     5
 10
-654.8585978517319
 20
148.7746487033988
 30
0.0
  0
VERTEX
  5
262
  8
DEFAULT
 62
     5
 10
-655.219311062654
 20
148.9119008679193
 30
0.0
  0
VERTEX
  5
263
  8
DEFAULT
 62
     5
 10
-655.5482679177695
 20
149.0473988453925
 30
0.0
  0
VERTEX
  5
264
  8
DEFAULT
 62
     5
 10
-655.7008377118998
 20
149.1144900139863
 30
0.0
  0
VERTEX
  5
265
  8
DEFAULT
 62
     5
 10
-655.8454684170786
 20
149.1811426358183
 30
0.0
  0
VERTEX
  5
266
  8
DEFAULT
 62
     5
 10
-655.9821600333057
 20
149.2473567108884
 30
0.0
  0
VERTEX
  5
267
  8
DEFAULT
 62
     5
 10
-656.1109125605813
 20
149.3131322391967
 30
0.0
  0
VERTEX
  5
268
  8
DEFAULT
 62
     5
 10
-656.2317259989052
 20
149.3784692207432
 30
0.0
  0
VERTEX
  5
269
  8
DEFAULT
 62
     5
 10
-656.3446003482775
 20
149.4433676555278
 30
0.0
  0
VERTEX
  5
26A
  8
DEFAULT
 62
     5
 10
-656.4495356086982
 20
149.5078275435506
 30
0.0
  0
VERTEX
  5
26B
  8
DEFAULT
 62
     5
 10
-656.5465317801671
 20
149.5718488848117
 30
0.0
 42
-0.2630575377237324
  0
VERTEX
  5
26C
  8
DEFAULT
 62
     5
 10
-658.6044041638806
 20
153.5024056413087
 30
0.0
 42
-0.2278055359034161
  0
VERTEX
  5
26D
  8
DEFAULT
 62
     5
 10
-656.8254689610346
 20
157.3195336108133
 30
0.0
  0
VERTEX
  5
26E
  8
DEFAULT
 62
     5
 10
-656.7123741518433
 20
157.4146670656625
 30
0.0
  0
VERTEX
  5
26F
  8
DEFAULT
 62
     5
 10
-656.5954567359698
 20
157.5067804108339
 30
0.0
  0
VERTEX
  5
270
  8
DEFAULT
 62
     5
 10
-656.4747167134142
 20
157.5958736463276
 30
0.0
  0
VERTEX
  5
271
  8
DEFAULT
 62
     5
 10
-656.3501540841764
 20
157.6819467721435
 30
0.0
  0
VERTEX
  5
272
  8
DEFAULT
 62
     5
 10
-656.2217688482565
 20
157.7649997882817
 30
0.0
  0
VERTEX
  5
273
  8
DEFAULT
 62
     5
 10
-656.0895610056546
 20
157.8450326947421
 30
0.0
  0
VERTEX
  5
274
  8
DEFAULT
 62
     5
 10
-655.9535305563703
 20
157.9220454915248
 30
0.0
  0
VERTEX
  5
275
  8
DEFAULT
 62
     5
 10
-655.8136775004041
 20
157.9960381786297
 30
0.0
  0
VERTEX
  5
276
  8
DEFAULT
 62
     5
 10
-655.6700018377555
 20
158.0670107560569
 30
0.0
  0
VERTEX
  5
277
  8
DEFAULT
 62
     5
 10
-655.522503568425
 20
158.1349632238063
 30
0.0
  0
VERTEX
  5
278
  8
DEFAULT
 62
     5
 10
-655.3711826924123
 20
158.199895581878
 30
0.0
  0
VERTEX
  5
279
  8
DEFAULT
 62
     5
 10
-655.2160392097176
 20
158.2618078302719
 30
0.0
  0
VERTEX
  5
27A
  8
DEFAULT
 62
     5
 10
-655.0570731203405
 20
158.320699968988
 30
0.0
  0
VERTEX
  5
27B
  8
DEFAULT
 62
     5
 10
-654.8942844242815
 20
158.3765719980265
 30
0.0
  0
VERTEX
  5
27C
  8
DEFAULT
 62
     5
 10
-654.7276731215402
 20
158.4294239173871
 30
0.0
  0
VERTEX
  5
27D
  8
DEFAULT
 62
     5
 10
-654.5572392121168
 20
158.47925572707
 30
0.0
  0
VERTEX
  5
27E
  8
DEFAULT
 62
     5
 10
-654.3829826960111
 20
158.5260674270752
 30
0.0
  0
VERTEX
  5
27F
  8
DEFAULT
 62
     5
 10
-654.2049035732235
 20
158.5698590174026
 30
0.0
  0
VERTEX
  5
280
  8
DEFAULT
 62
     5
 10
-654.0230018437537
 20
158.6106304980523
 30
0.0
  0
VERTEX
  5
281
  8
DEFAULT
 62
     5
 10
-653.8372775076018
 20
158.6483818690241
 30
0.0
  0
VERTEX
  5
282
  8
DEFAULT
 62
     5
 10
-653.6477305647677
 20
158.6831131303183
 30
0.0
  0
VERTEX
  5
283
  8
DEFAULT
 62
     5
 10
-653.4543610152516
 20
158.7148242819347
 30
0.0
  0
VERTEX
  5
284
  8
DEFAULT
 62
     5
 10
-653.2571688590533
 20
158.7435153238733
 30
0.0
  0
VERTEX
  5
285
  8
DEFAULT
 62
     5
 10
-653.0561540961728
 20
158.7691862561342
 30
0.0
  0
VERTEX
  5
286
  8
DEFAULT
 62
     5
 10
-652.6426567503654
 20
158.8114677916228
 30
0.0
  0
VERTEX
  5
287
  8
DEFAULT
 62
     5
 10
-652.2138689778295
 20
158.8416688884003
 30
0.0
  0
VERTEX
  5
288
  8
DEFAULT
 62
     5
 10
-651.769790778565
 20
158.8597895464668
 30
0.0
  0
VERTEX
  5
289
  8
DEFAULT
 62
     5
 10
-651.3104221525721
 20
158.8658297658224
 30
0.0
 42
-0.1478680227512911
  0
VERTEX
  5
28A
  8
DEFAULT
 62
     5
 10
-646.0233846916732
 20
157.6679140351837
 30
0.0
 42
-0.1798681362132224
  0
VERTEX
  5
28B
  8
DEFAULT
 62
     5
 10
-643.6414412009176
 20
154.1250890250816
 30
0.0
  0
VERTEX
  5
28C
  8
DEFAULT
 62
     5
 10
-647.9377374972139
 20
153.3843482843408
 30
0.0
 42
0.1762609448244054
  0
VERTEX
  5
28D
  8
DEFAULT
 62
     5
 10
-648.9886625047728
 20
155.0336541401317
 30
0.0
 42
0.1598214678235902
  0
VERTEX
  5
28E
  8
DEFAULT
 62
     5
 10
-651.1969967564733
 20
155.6065705065631
 30
0.0
 42
0.1371855487857152
  0
VERTEX
  5
28F
  8
DEFAULT
 62
     5
 10
-653.7872733686313
 20
155.0926828186156
 30
0.0
 42
0.259374020670962
  0
VERTEX
  5
290
  8
DEFAULT
 62
     5
 10
-654.3081078675843
 20
154.1459226763112
 30
0.0
 42
0.2456185528239666
  0
VERTEX
  5
291
  8
DEFAULT
 62
     5
 10
-653.8520891724568
 20
153.2987010898815
 30
0.0
 42
0.066479874957889
  0
VERTEX
  5
292
  8
DEFAULT
 62
     5
 10
-649.5812550973654
 20
151.9873588328462
 30
0.0
 42
-0.1095214193377371
  0
VERTEX
  5
293
  8
DEFAULT
 62
     5
 10
-644.4817182369375
 20
149.9260164345235
 30
0.0
 42
-0.2284114958797522
  0
VERTEX
  5
294
  8
DEFAULT
 62
     5
 10
-643.0488486083251
 20
146.4931456756132
 30
0.0
 42
-0.2276229810650568
  0
VERTEX
  5
295
  8
DEFAULT
 62
     5
 10
-645.0349595075054
 20
142.3681448985334
 30
0.0
  0
VERTEX
  5
296
  8
DEFAULT
 62
     5
 10
-645.1609518792748
 20
142.2620454323608
 30
0.0
  0
VERTEX
  5
297
  8
DEFAULT
 62
     5
 10
-645.2906651321857
 20
142.1593142032094
 30
0.0
  0
VERTEX
  5
298
  8
DEFAULT
 62
     5
 10
-645.424099266238
 20
142.0599512110795
 30
0.0
  0
VERTEX
  5
299
  8
DEFAULT
 62
     5
 10
-645.5612542814316
 20
141.9639564559709
 30
0.0
  0
VERTEX
  5
29A
  8
DEFAULT
 62
     5
 10
-645.7021301777668
 20
141.8713299378837
 30
0.0
  0
VERTEX
  5
29B
  8
DEFAULT
 62
     5
 10
-645.8467269552432
 20
141.7820716568178
 30
0.0
  0
VERTEX
  5
29C
  8
DEFAULT
 62
     5
 10
-645.995044613861
 20
141.6961816127732
 30
0.0
  0
VERTEX
  5
29D
  8
DEFAULT
 62
     5
 10
-646.1470831536203
 20
141.61365980575
 30
0.0
  0
VERTEX
  5
29E
  8
DEFAULT
 62
     5
 10
-646.302842574521
 20
141.5345062357482
 30
0.0
  0
VERTEX
  5
29F
  8
DEFAULT
 62
     5
 10
-646.4623228765631
 20
141.4587209027678
 30
0.0
  0
VERTEX
  5
2A0
  8
DEFAULT
 62
     5
 10
-646.6255240597466
 20
141.3863038068087
 30
0.0
  0
VERTEX
  5
2A1
  8
DEFAULT
 62
     5
 10
-646.7924461240715
 20
141.3172549478709
 30
0.0
  0
VERTEX
  5
2A2
  8
DEFAULT
 62
     5
 10
-646.9630890695378
 20
141.2515743259545
 30
0.0
  0
VERTEX
  5
2A3
  8
DEFAULT
 62
     5
 10
-647.1374528961455
 20
141.1892619410594
 30
0.0
  0
VERTEX
  5
2A4
  8
DEFAULT
 62
     5
 10
-647.3155376038947
 20
141.1303177931858
 30
0.0
  0
VERTEX
  5
2A5
  8
DEFAULT
 62
     5
 10
-647.4973431927851
 20
141.0747418823334
 30
0.0
  0
VERTEX
  5
2A6
  8
DEFAULT
 62
     5
 10
-647.682869662817
 20
141.0225342085024
 30
0.0
  0
VERTEX
  5
2A7
  8
DEFAULT
 62
     5
 10
-647.8721170139904
 20
140.9736947716928
 30
0.0
  0
VERTEX
  5
2A8
  8
DEFAULT
 62
     5
 10
-648.0650852463051
 20
140.9282235719045
 30
0.0
  0
VERTEX
  5
2A9
  8
DEFAULT
 62
     5
 10
-648.2617743597613
 20
140.8861206091376
 30
0.0
  0
VERTEX
  5
2AA
  8
DEFAULT
 62
     5
 10
-648.4621843543588
 20
140.847385883392
 30
0.0
  0
VERTEX
  5
2AB
  8
DEFAULT
 62
     5
 10
-648.6663152300978
 20
140.8120193946678
 30
0.0
  0
VERTEX
  5
2AC
  8
DEFAULT
 62
     5
 10
-648.874166986978
 20
140.7800211429649
 30
0.0
  0
VERTEX
  5
2AD
  8
DEFAULT
 62
     5
 10
-649.0857396249999
 20
140.7513911282834
 30
0.0
  0
VERTEX
  5
2AE
  8
DEFAULT
 62
     5
 10
-649.5200475444675
 20
140.7042358099844
 30
0.0
  0
VERTEX
  5
2AF
  8
DEFAULT
 62
     5
 10
-649.9692389885008
 20
140.6705534397709
 30
0.0
  0
VERTEX
  5
2B0
  8
DEFAULT
 62
     5
 10
-650.4333139570997
 20
140.6503440176428
 30
0.0
  0
VERTEX
  5
2B1
  8
DEFAULT
 62
     5
 10
-650.9122724502643
 20
140.6436075436
 30
0.0
 42
-0.1534212868271903
  0
VERTEX
  5
2B2
  8
DEFAULT
 62
     5
 10
-656.5037093132354
 20
142.0787931526469
 30
0.0
 42
-0.1853542620166065
  0
SEQEND
  5
2B3
  8
DEFAULT
 62
     5
  0
POLYLINE
  5
2B4
  8
DEFAULT
 62
     5
 66
     1
 10
0.0
 20
0.0
 30
0.0
 70
     1
  0
VERTEX
  5
2B5
  8
DEFAULT
 62
     5
 10
-660.6784782379548
 20
158.4213853213779
 30
0.0
  0
VERTEX
  5
2B6
  8
DEFAULT
 62
     5
 10
-660.6784782379548
 20
154.8658297658223
 30
0.0
  0
VERTEX
  5
2B7
  8
DEFAULT
 62
     5
 10
-663.7895893490659
 20
154.8658297658223
 30
0.0
  0
VERTEX
  5
2B8
  8
DEFAULT
 62
     5
 10
-663.7895893490659
 20
147.7084239125745
 30
0.0
 42
0.0340880666974899
  0
VERTEX
  5
2B9
  8
DEFAULT
 62
     5
 10
-663.7016261741721
 20
145.17485773787
 30
0.0
 42
0.1777629698041908
  0
VERTEX
  5
2BA
  8
DEFAULT
 62
     5
 10
-663.3046350272303
 20
144.5811077202092
 30
0.0
 42
0.1671411134725205
  0
VERTEX
  5
2BB
  8
DEFAULT
 62
     5
 10
-662.5488477606017
 20
144.3473112473037
 30
0.0
 42
0.0818670423875442
  0
VERTEX
  5
2BC
  8
DEFAULT
 62
     5
 10
-660.752551181731
 20
144.7848134019342
 30
0.0
  0
VERTEX
  5
2BD
  8
DEFAULT
 62
     5
 10
-660.3821819416585
 20
141.3102753405646
 30
0.0
 42
-0.1009135694950812
  0
VERTEX
  5
2BE
  8
DEFAULT
 62
     5
 10
-663.9562540377111
 20
140.6436075436
 30
0.0
 42
-0.1023112505794103
  0
VERTEX
  5
2BF
  8
DEFAULT
 62
     5
 10
-666.1611160142066
 20
141.0649046169762
 30
0.0
 42
-0.1427327602514192
  0
VERTEX
  5
2C0
  8
DEFAULT
 62
     5
 10
-667.6020887485951
 20
142.1540257820873
 30
0.0
 42
-0.1112474266807279
  0
VERTEX
  5
2C1
  8
DEFAULT
 62
     5
 10
-668.2363463830511
 20
143.9607380562749
 30
0.0
 42
-0.0357944377719308
  0
VERTEX
  5
2C2
  8
DEFAULT
 62
     5
 10
-668.3821819416585
 20
147.2269418659441
 30
0.0
  0
VERTEX
  5
2C3
  8
DEFAULT
 62
     5
 10
-668.3821819416585
 20
154.8658297658223
 30
0.0
  0
VERTEX
  5
2C4
  8
DEFAULT
 62
     5
 10
-670.6044041638806
 20
154.8658297658223
 30
0.0
  0
VERTEX
  5
2C5
  8
DEFAULT
 62
     5
 10
-670.6044041638806
 20
158.4213853213779
 30
0.0
  0
VERTEX
  5
2C6
  8
DEFAULT
 62
     5
 10
-668.3821819416585
 20
158.4213853213779
 30
0.0
  0
VERTEX
  5
2C7
  8
DEFAULT
 62
     5
 10
-668.3821819416585
 20
161.6806445806371
 30
0.0
  0
VERTEX
  5
2C8
  8
DEFAULT
 62
     5
 10
-663.7895893490659
 20
164.3473112473038
 30
0.0
  0
VERTEX
  5
2C9
  8
DEFAULT
 62
     5
 10
-663.7895893490659
 20
158.4213853213779
 30
0.0
  0
SEQEND
  5
2CA
  8
DEFAULT
 62
     5
  0
POLYLINE
  5
2CB
  8
DEFAULT
 62
     5
 66
     1
 10
0.0
 20
0.0
 30
0.0
 70
     1
  0
VERTEX
  5
2CC
  8
DEFAULT
 62
     5
 10
-681.5673671268436
 20
158.4213853213779
 30
0.0
  0
VERTEX
  5
2CD
  8
DEFAULT
 62
     5
 10
-679.1969967564733
 20
158.4213853213779
 30
0.0
  0
VERTEX
  5
2CE
  8
DEFAULT
 62
     5
 10
-679.1969967564733
 20
159.7199981632577
 30
0.0
 42
-0.0950504639922407
  0
VERTEX
  5
2CF
  8
DEFAULT
 62
     5
 10
-678.7386632112092
 20
162.9653683216972
 30
0.0
 42
-0.1716707163024198
  0
VERTEX
  5
2D0
  8
DEFAULT
 62
     5
 10
-677.0500049030954
 20
164.7107381975622
 30
0.0
 42
-0.1257658996646803
  0
VERTEX
  5
2D1
  8
DEFAULT
 62
     5
 10
-673.937736366916
 20
165.3843482843408
 30
0.0
 42
-0.0781428993827185
  0
VERTEX
  5
2D2
  8
DEFAULT
 62
     5
 10
-670.1599597194362
 20
164.7917556917482
 30
0.0
  0
VERTEX
  5
2D3
  8
DEFAULT
 62
     5
 10
-670.6784771076568
 20
161.569534034675
 30
0.0
 42
0.0588660059482181
  0
VERTEX
  5
2D4
  8
DEFAULT
 62
     5
 10
-672.7618105822773
 20
161.8287927287853
 30
0.0
 42
0.2070684672811788
  0
VERTEX
  5
2D5
  8
DEFAULT
 62
     5
 10
-674.1761625400945
 20
161.3727751639556
 30
0.0
 42
0.1773524100532006
  0
VERTEX
  5
2D6
  8
DEFAULT
 62
     5
 10
-674.6044041638806
 20
159.6204596073828
 30
0.0
  0
VERTEX
  5
2D7
  8
DEFAULT
 62
     5
 10
-674.6044041638806
 20
158.4213853213779
 30
0.0
  0
VERTEX
  5
2D8
  8
DEFAULT
 62
     5
 10
-671.3451449046214
 20
158.4213853213779
 30
0.0
  0
VERTEX
  5
2D9
  8
DEFAULT
 62
     5
 10
-671.3451449046214
 20
154.8658297658223
 30
0.0
  0
VERTEX
  5
2DA
  8
DEFAULT
 62
     5
 10
-674.6044041638806
 20
154.8658297658223
 30
0.0
  0
VERTEX
  5
2DB
  8
DEFAULT
 62
     5
 10
-674.6044041638806
 20
141.0880519880445
 30
0.0
  0
VERTEX
  5
2DC
  8
DEFAULT
 62
     5
 10
-679.1969967564733
 20
141.0880519880445
 30
0.0
  0
VERTEX
  5
2DD
  8
DEFAULT
 62
     5
 10
-679.1969967564733
 20
154.8658297658223
 30
0.0
  0
VERTEX
  5
2DE
  8
DEFAULT
 62
     5
 10
-681.5673671268436
 20
154.8658297658223
 30
0.0
  0
SEQEND
  5
2DF
  8
DEFAULT
 62
     5
  0
POLYLINE
  5
2E0
  8
DEFAULT
 62
     5
 66
     1
 10
0.0
 20
0.0
 30
0.0
 70
     1
  0
VERTEX
  5
2E1
  8
DEFAULT
 62
     5
 10
-689.1229226823991
 20
149.3843482843408
 30
0.0
 42
-0.0261329476715118
  0
VERTEX
  5
2E2
  8
DEFAULT
 62
     5
 10
-691.7965327691778
 20
148.6829599959227
 30
0.0
 42
0.0811165779561162
  0
VERTEX
  5
2E3
  8
DEFAULT
 62
     5
 10
-694.1877356604799
 20
147.8843502623622
 30
0.0
 42
0.251719188348559
  0
VERTEX
  5
2E4
  8
DEFAULT
 62
     5
 10
-695.048848608325
 20
146.2686097335523
 30
0.0
 42
0.2041672574556701
  0
VERTEX
  5
2E5
  8
DEFAULT
 62
     5
 10
-694.361348290429
 20
144.6042562215753
 30
0.0
 42
0.2097521333282929
  0
VERTEX
  5
2E6
  8
DEFAULT
 62
     5
 10
-692.609032733856
 20
143.9028668028594
 30
0.0
 42
0.1670482644845909
  0
VERTEX
  5
2E7
  8
DEFAULT
 62
     5
 10
-690.3428283590379
 20
144.7176827479721
 30
0.0
 42
0.1651612454991776
  0
VERTEX
  5
2E8
  8
DEFAULT
 62
     5
 10
-689.2942170713177
 20
146.2362018316396
 30
0.0
 42
0.0593667948163236
  0
VERTEX
  5
2E9
  8
DEFAULT
 62
     5
 10
-689.1229226823991
 20
148.4699983045449
 30
0.0
  0
SEQEND
  5
2EA
  8
DEFAULT
 62
     5
  0
POLYLINE
  5
2EB
  8
DEFAULT
 62
     5
 66
     1
 10
0.0
 20
0.0
 30
0.0
 70
     1
  0
VERTEX
  5
2EC
  8
DEFAULT
 62
     5
 10
-694.900700460177
 20
153.0880519880445
 30
0.0
  0
VERTEX
  5
2ED
  8
DEFAULT
 62
     5
 10
-699.0488486083251
 20
153.6806445806371
 30
0.0
 42
-0.1714833175990124
  0
VERTEX
  5
2EE
  8
DEFAULT
 62
     5
 10
-696.6796345327251
 20
157.5949973861779
 30
0.0
 42
-0.160882913283758
  0
VERTEX
  5
2EF
  8
DEFAULT
 62
     5
 10
-691.6854210929177
 20
158.8658297658222
 30
0.0
 42
-0.1088364278880879
  0
VERTEX
  5
2F0
  8
DEFAULT
 62
     5
 10
-687.2039401765852
 20
158.1378207008329
 30
0.0
 42
-0.1580303644335181
  0
VERTEX
  5
2F1
  8
DEFAULT
 62
     5
 10
-685.1310235275794
 20
156.2882836991178
 30
0.0
 42
-0.1088017057953464
  0
VERTEX
  5
2F2
  8
DEFAULT
 62
     5
 10
-684.5303300898065
 20
152.171387158112
 30
0.0
  0
VERTEX
  5
2F3
  8
DEFAULT
 62
     5
 10
-684.5303300898065
 20
146.8010162225926
 30
0.0
 42
0.0514080219694705
  0
VERTEX
  5
2F4
  8
DEFAULT
 62
     5
 10
-684.2803296659449
 20
143.4202284614585
 30
0.0
 42
0.0692287864232242
  0
VERTEX
  5
2F5
  8
DEFAULT
 62
     5
 10
-683.3451449046213
 20
141.0880519880445
 30
0.0
  0
VERTEX
  5
2F6
  8
DEFAULT
 62
     5
 10
-687.937737497214
 20
141.0880519880445
 30
0.0
  0
VERTEX
  5
2F7
  8
DEFAULT
 62
     5
 10
-688.3775522413852
 20
142.4306447219244
 30
0.0
  0
VERTEX
  5
2F8
  8
DEFAULT
 62
     5
 10
-688.5395872297573
 20
142.9653683216972
 30
0.0
 42
-0.0933244186738411
  0
VERTEX
  5
2F9
  8
DEFAULT
 62
     5
 10
-691.0465337581885
 20
141.2246270158074
 30
0.0
 42
-0.1040133466925945
  0
VERTEX
  5
2FA
  8
DEFAULT
 62
     5
 10
-693.8960690644568
 20
140.6436075436
 30
0.0
 42
-0.1965430357596436
  0
VERTEX
  5
2FB
  8
DEFAULT
 62
     5
 10
-698.1032458910888
 20
142.0961545286717
 30
0.0
 42
-0.2154369487651071
  0
VERTEX
  5
2FC
  8
DEFAULT
 62
     5
 10
-699.6414412009177
 20
145.7686088858289
 30
0.0
 42
-0.1373780248025014
  0
VERTEX
  5
2FD
  8
DEFAULT
 62
     5
 10
-698.9562557331581
 20
148.388978549763
 30
0.0
 42
-0.1473783213970974
  0
VERTEX
  5
2FE
  8
DEFAULT
 62
     5
 10
-697.0361158022757
 20
150.1517098016527
 30
0.0
 42
-0.0634404934847257
  0
VERTEX
  5
2FF
  8
DEFAULT
 62
     5
 10
-693.4747731213786
 20
151.2199973155342
 30
0.0
 42
0.0472009877729271
  0
VERTEX
  5
300
  8
DEFAULT
 62
     5
 10
-689.1229226823991
 20
152.3473112473038
 30
0.0
  0
VERTEX
  5
301
  8
DEFAULT
 62
     5
 10
-689.1229226823991
 20
152.8125893429778
 30
0.0
 42
0.2070921599655934
  0
VERTEX
  5
302
  8
DEFAULT
 62
     5
 10
-689.7375052209917
 20
154.7362004187672
 30
0.0
 42
0.1777887432707945
  0
VERTEX
  5
303
  8
DEFAULT
 62
     5
 10
-692.0581074437226
 20
155.3102742102668
 30
0.0
 42
0.1651091138039237
  0
VERTEX
  5
304
  8
DEFAULT
 62
     5
 10
-693.8555603173637
 20
154.8172190432511
 30
0.0
 42
0.1491587679877676
  0
SEQEND
  5
305
  8
DEFAULT
 62
     5
  0
POLYLINE
  5
306
  8
DEFAULT
 62
     5
 66
     1
 10
0.0
 20
0.0
 30
0.0
 70
     1
  0
VERTEX
  5
307
  8
DEFAULT
 62
     5
 10
-706.6044041638806
 20
141.0880519880445
 30
0.0
  0
VERTEX
  5
308
  8
DEFAULT
 62
     5
 10
-711.1969967564733
 20
141.0880519880445
 30
0.0
  0
VERTEX
  5
309
  8
DEFAULT
 62
     5
 10
-711.1969967564733
 20
158.4213853213779
 30
0.0
  0
VERTEX
  5
30A
  8
DEFAULT
 62
     5
 10
-706.900700460177
 20
158.4213853213779
 30
0.0
  0
VERTEX
  5
30B
  8
DEFAULT
 62
     5
 10
-706.900700460177
 20
155.9746271570947
 30
0.0
 42
-0.097755051946102
  0
VERTEX
  5
30C
  8
DEFAULT
 62
     5
 10
-705.018755556549
 20
158.2871262740494
 30
0.0
 42
-0.1561720185079559
  0
VERTEX
  5
30D
  8
DEFAULT
 62
     5
 10
-703.1229215521013
 20
158.8658297658223
 30
0.0
 42
-0.1438170981369881
  0
VERTEX
  5
30E
  8
DEFAULT
 62
     5
 10
-700.2340337935102
 20
157.9931448278898
 30
0.0
  0
VERTEX
  5
30F
  8
DEFAULT
 62
     5
 10
-701.6414400706199
 20
153.972313437256
 30
0.0
 42
0.1496770151887604
  0
VERTEX
  5
310
  8
DEFAULT
 62
     5
 10
-703.6877359430543
 20
154.7176816176743
 30
0.0
 42
0.1810970994865677
  0
VERTEX
  5
311
  8
DEFAULT
 62
     5
 10
-705.2398192234049
 20
154.1864325537021
 30
0.0
 42
0.1501348396488099
  0
VERTEX
  5
312
  8
DEFAULT
 62
     5
 10
-706.239819788554
 20
152.2662937531178
 30
0.0
 42
0.0509111359642205
  0
VERTEX
  5
313
  8
DEFAULT
 62
     5
 10
-706.6044041638806
 20
146.4491635230173
 30
0.0
  0
SEQEND
  5
314
  8
DEFAULT
 62
     5
  0
POLYLINE
  5
315
  8
DEFAULT
 62
     5
 66
     1
 10
0.0
 20
0.0
 30
0.0
 70
     1
  0
VERTEX
  5
316
  8
DEFAULT
 62
     5
 10
-714.7525523120288
 20
153.3843482843408
 30
0.0
  0
VERTEX
  5
317
  8
DEFAULT
 62
     5
 10
-719.3451449046214
 20
152.6436075436001
 30
0.0
 42
0.1809968098175731
  0
VERTEX
  5
318
  8
DEFAULT
 62
     5
 10
-720.3706065606773
 20
154.6401363986932
 30
0.0
 42
0.1804760167669354
  0
VERTEX
  5
319
  8
DEFAULT
 62
     5
 10
-722.4446817650494
 20
155.3102742102668
 30
0.0
 42
0.2329674834671622
  0
VERTEX
  5
31A
  8
DEFAULT
 62
     5
 10
-725.1506997537408
 20
154.1065713542865
 30
0.0
 42
0.1695179555120721
  0
VERTEX
  5
31B
  8
DEFAULT
 62
     5
 10
-726.1599597194362
 20
150.0787942829449
 30
0.0
  0
VERTEX
  5
31C
  8
DEFAULT
 62
     5
 10
-726.1559223526701
 20
149.6933549529219
 30
0.0
  0
VERTEX
  5
31D
  8
DEFAULT
 62
     5
 10
-726.1438102523716
 20
149.3223380035748
 30
0.0
  0
VERTEX
  5
31E
  8
DEFAULT
 62
     5
 10
-726.123623418541
 20
148.9657434349036
 30
0.0
  0
VERTEX
  5
31F
  8
DEFAULT
 62
     5
 10
-726.095361851178
 20
148.6235712469082
 30
0.0
  0
VERTEX
  5
320
  8
DEFAULT
 62
     5
 10
-726.059025550283
 20
148.2958214395887
 30
0.0
  0
VERTEX
  5
321
  8
DEFAULT
 62
     5
 10
-726.0146145158554
 20
147.982494012945
 30
0.0
  0
VERTEX
  5
322
  8
DEFAULT
 62
     5
 10
-725.9621287478958
 20
147.6835889669772
 30
0.0
  0
VERTEX
  5
323
  8
DEFAULT
 62
     5
 10
-725.9328578388413
 20
147.5395448367468
 30
0.0
  0
VERTEX
  5
324
  8
DEFAULT
 62
     5
 10
-725.9015682464037
 20
147.3991063016852
 30
0.0
  0
VERTEX
  5
325
  8
DEFAULT
 62
     5
 10
-725.868259970583
 20
147.2622733617927
 30
0.0
  0
VERTEX
  5
326
  8
DEFAULT
 62
     5
 10
-725.8329330113794
 20
147.1290460170692
 30
0.0
  0
VERTEX
  5
327
  8
DEFAULT
 62
     5
 10
-725.7955873687927
 20
146.9994242675146
 30
0.0
  0
VERTEX
  5
328
  8
DEFAULT
 62
     5
 10
-725.756223042823
 20
146.8734081131289
 30
0.0
  0
VERTEX
  5
329
  8
DEFAULT
 62
     5
 10
-725.7148400334701
 20
146.7509975539123
 30
0.0
  0
VERTEX
  5
32A
  8
DEFAULT
 62
     5
 10
-725.6714383407341
 20
146.6321925898646
 30
0.0
  0
VERTEX
  5
32B
  8
DEFAULT
 62
     5
 10
-725.6260179646151
 20
146.5169932209858
 30
0.0
  0
VERTEX
  5
32C
  8
DEFAULT
 62
     5
 10
-725.5785789051131
 20
146.4053994472761
 30
0.0
  0
VERTEX
  5
32D
  8
DEFAULT
 62
     5
 10
-725.529121162228
 20
146.2974112687353
 30
0.0
  0
VERTEX
  5
32E
  8
DEFAULT
 62
     5
 10
-725.4776447359598
 20
146.1930286853634
 30
0.0
  0
VERTEX
  5
32F
  8
DEFAULT
 62
     5
 10
-725.4241496263085
 20
146.0922516971606
 30
0.0
  0
VERTEX
  5
330
  8
DEFAULT
 62
     5
 10
-725.3686358332742
 20
145.9950803041267
 30
0.0
  0
VERTEX
  5
331
  8
DEFAULT
 62
     5
 10
-725.3111033568568
 20
145.9015145062617
 30
0.0
  0
VERTEX
  5
332
  8
DEFAULT
 62
     5
 10
-725.2515521970563
 20
145.8115543035658
 30
0.0
  0
VERTEX
  5
333
  8
DEFAULT
 62
     5
 10
-725.2210196108874
 20
145.7679263004061
 30
0.0
  0
VERTEX
  5
334
  8
DEFAULT
 62
     5
 10
-725.1899823538728
 20
145.7251996960387
 30
0.0
  0
VERTEX
  5
335
  8
DEFAULT
 62
     5
 10
-725.1584404260125
 20
145.6833744904636
 30
0.0
  0
VERTEX
  5
336
  8
DEFAULT
 62
     5
 10
-725.1263938273063
 20
145.6424506836807
 30
0.0
 42
0.2405540491093823
  0
VERTEX
  5
337
  8
DEFAULT
 62
     5
 10
-722.3520877595844
 20
144.3473112473036
 30
0.0
 42
0.1883458441869278
  0
VERTEX
  5
338
  8
DEFAULT
 62
     5
 10
-720.221300987461
 20
145.0811085679326
 30
0.0
 42
0.1622604489948341
  0
VERTEX
  5
339
  8
DEFAULT
 62
     5
 10
-719.0488486083251
 20
147.606570506563
 30
0.0
  0
VERTEX
  5
33A
  8
DEFAULT
 62
     5
 10
-714.4562560157324
 20
147.0139779139704
 30
0.0
 42
-0.1724509721435953
  0
VERTEX
  5
33B
  8
DEFAULT
 62
     5
 10
-717.1391255030576
 20
142.252404652298
 30
0.0
 42
-0.1746967243539293
  0
VERTEX
  5
33C
  8
DEFAULT
 62
     5
 10
-722.4585686052733
 20
140.6436075436001
 30
0.0
 42
-0.2163976905724387
  0
VERTEX
  5
33D
  8
DEFAULT
 62
     5
 10
-728.5002370380305
 20
143.0568026414981
 30
0.0
 42
-0.1943870566321223
  0
VERTEX
  5
33E
  8
DEFAULT
 62
     5
 10
-730.7525523120289
 20
149.7385158340527
 30
0.0
 42
-0.1945054615972609
  0
VERTEX
  5
33F
  8
DEFAULT
 62
     5
 10
-728.5013944630988
 20
156.4607377737005
 30
0.0
 42
-0.2157801631579773
  0
VERTEX
  5
340
  8
DEFAULT
 62
     5
 10
-722.4122738631366
 20
158.8658297658223
 30
0.0
 42
-0.1599423076958014
  0
VERTEX
  5
341
  8
DEFAULT
 62
     5
 10
-717.4169029982609
 20
157.5116639115572
 30
0.0
 42
-0.1682635697126501
  0
SEQEND
  5
342
  8
DEFAULT
 62
     5
  0
POLYLINE
  5
343
  8
DEFAULT
 62
     5
 66
     1
 10
0.0
 20
0.0
 30
0.0
 70
     1
  0
VERTEX
  5
344
  8
DEFAULT
 62
     5
 10
-739.0488486083251
 20
141.0880519880445
 30
0.0
  0
VERTEX
  5
345
  8
DEFAULT
 62
     5
 10
-739.0488486083251
 20
145.6806445806371
 30
0.0
  0
VERTEX
  5
346
  8
DEFAULT
 62
     5
 10
-734.4562560157325
 20
145.6806445806371
 30
0.0
  0
VERTEX
  5
347
  8
DEFAULT
 62
     5
 10
-734.4562560157325
 20
141.0880519880445
 30
0.0
  0
SEQEND
  5
348
  8
DEFAULT
 62
     5
  0
POLYLINE
  5
349
  8
DEFAULT
 62
     5
 66
     1
 10
0.0
 20
0.0
 30
0.0
 70
     1
  0
VERTEX
  5
34A
  8
DEFAULT
 62
     5
 10
-761.3636625754165
 20
141.0880519880445
 30
0.0
  0
VERTEX
  5
34B
  8
DEFAULT
 62
     5
 10
-766.900700460177
 20
158.4213853213779
 30
0.0
  0
VERTEX
  5
34C
  8
DEFAULT
 62
     5
 10
-762.4030144625901
 20
158.4213853213779
 30
0.0
  0
VERTEX
  5
34D
  8
DEFAULT
 62
     5
 10
-759.1229215521013
 20
147.0625897668396
 30
0.0
  0
VERTEX
  5
34E
  8
DEFAULT
 62
     5
 10
-756.0442183429029
 20
158.4213853213779
 30
0.0
  0
VERTEX
  5
34F
  8
DEFAULT
 62
     5
 10
-751.5928293480486
 20
158.4213853213779
 30
0.0
  0
VERTEX
  5
350
  8
DEFAULT
 62
     5
 10
-748.7525511817308
 20
147.0625897668396
 30
0.0
  0
VERTEX
  5
351
  8
DEFAULT
 62
     5
 10
-745.4631988706955
 20
158.4213853213779
 30
0.0
  0
VERTEX
  5
352
  8
DEFAULT
 62
     5
 10
-740.9747745342511
 20
158.4213853213779
 30
0.0
  0
VERTEX
  5
353
  8
DEFAULT
 62
     5
 10
-746.5002359077325
 20
141.0880519880445
 30
0.0
  0
VERTEX
  5
354
  8
DEFAULT
 62
     5
 10
-750.8544034574445
 20
141.0880519880445
 30
0.0
  0
VERTEX
  5
355
  8
DEFAULT
 62
     5
 10
-753.7895882187679
 20
152.2362007013416
 30
0.0
  0
VERTEX
  5
356
  8
DEFAULT
 62
     5
 10
-756.8173669855564
 20
141.0880519880445
 30
0.0
  0
SEQEND
  5
357
  8
DEFAULT
 62
     5
  0
POLYLINE
  5
358
  8
DEFAULT
 62
     5
 66
     1
 10
0.0
 20
0.0
 30
0.0
 70
     1
  0
VERTEX
  5
359
  8
DEFAULT
 62
     5
 10
-787.1414403531943
 20
141.0880519880445
 30
0.0
  0
VERTEX
  5
35A
  8
DEFAULT
 62
     5
 10
-792.6784782379548
 20
158.4213853213779
 30
0.0
  0
VERTEX
  5
35B
  8
DEFAULT
 62
     5
 10
-788.180792240368
 20
158.4213853213779
 30
0.0
  0
VERTEX
  5
35C
  8
DEFAULT
 62
     5
 10
-784.900699329879
 20
147.0625897668396
 30
0.0
  0
VERTEX
  5
35D
  8
DEFAULT
 62
     5
 10
-781.8219961206806
 20
158.4213853213779
 30
0.0
  0
VERTEX
  5
35E
  8
DEFAULT
 62
     5
 10
-777.3706071258264
 20
158.4213853213779
 30
0.0
  0
VERTEX
  5
35F
  8
DEFAULT
 62
     5
 10
-774.5303289595087
 20
147.0625897668396
 30
0.0
  0
VERTEX
  5
360
  8
DEFAULT
 62
     5
 10
-771.2409766484733
 20
158.4213853213779
 30
0.0
  0
VERTEX
  5
361
  8
DEFAULT
 62
     5
 10
-766.7525523120288
 20
158.4213853213779
 30
0.0
  0
VERTEX
  5
362
  8
DEFAULT
 62
     5
 10
-772.2780136855104
 20
141.0880519880445
 30
0.0
  0
VERTEX
  5
363
  8
DEFAULT
 62
     5
 10
-776.6321812352222
 20
141.0880519880445
 30
0.0
  0
VERTEX
  5
364
  8
DEFAULT
 62
     5
 10
-779.5673659965457
 20
152.2362007013416
 30
0.0
  0
VERTEX
  5
365
  8
DEFAULT
 62
     5
 10
-782.5951447633341
 20
141.0880519880445
 30
0.0
  0
SEQEND
  5
366
  8
DEFAULT
 62
     5
  0
POLYLINE
  5
367
  8
DEFAULT
 62
     5
 66
     1
 10
0.0
 20
0.0
 30
0.0
 70
     1
  0
VERTEX
  5
368
  8
DEFAULT
 62
     5
 10
-812.919218130972
 20
141.0880519880445
 30
0.0
  0
VERTEX
  5
369
  8
DEFAULT
 62
     5
 10
-818.4562560157325
 20
158.4213853213779
 30
0.0
  0
VERTEX
  5
36A
  8
DEFAULT
 62
     5
 10
-813.9585700181457
 20
158.4213853213779
 30
0.0
  0
VERTEX
  5
36B
  8
DEFAULT
 62
     5
 10
-810.6784771076568
 20
147.0625897668396
 30
0.0
  0
VERTEX
  5
36C
  8
DEFAULT
 62
     5
 10
-807.5997738984585
 20
158.4213853213779
 30
0.0
  0
VERTEX
  5
36D
  8
DEFAULT
 62
     5
 10
-803.1483849036041
 20
158.4213853213779
 30
0.0
  0
VERTEX
  5
36E
  8
DEFAULT
 62
     5
 10
-800.3081067372864
 20
147.0625897668396
 30
0.0
  0
VERTEX
  5
36F
  8
DEFAULT
 62
     5
 10
-797.018754426251
 20
158.4213853213779
 30
0.0
  0
VERTEX
  5
370
  8
DEFAULT
 62
     5
 10
-792.5303300898066
 20
158.4213853213779
 30
0.0
  0
VERTEX
  5
371
  8
DEFAULT
 62
     5
 10
-798.0557914632881
 20
141.0880519880445
 30
0.0
  0
VERTEX
  5
372
  8
DEFAULT
 62
     5
 10
-802.409959013
 20
141.0880519880445
 30
0.0
  0
VERTEX
  5
373
  8
DEFAULT
 62
     5
 10
-805.3451437743234
 20
152.2362007013416
 30
0.0
  0
VERTEX
  5
374
  8
DEFAULT
 62
     5
 10
-808.372922541112
 20
141.0880519880445
 30
0.0
  0
SEQEND
  5
375
  8
DEFAULT
 62
     5
  0
POLYLINE
  5
376
  8
DEFAULT
 62
     5
 66
     1
 10
0.0
 20
0.0
 30
0.0
 70
     1
  0
VERTEX
  5
377
  8
DEFAULT
 62
     5
 10
-416.1043936255423
 20
108.8674463622332
 30
0.0
 42
0.1671831675161558
  0
VERTEX
  5
378
  8
DEFAULT
 62
     5
 10
-415.2305508857755
 20
105.4502006533621
 30
0.0
 42
0.2386895617245826
  0
VERTEX
  5
379
  8
DEFAULT
 62
     5
 10
-413.0758432420416
 20
104.3670597061536
 30
0.0
 42
0.2306067024897537
  0
VERTEX
  5
37A
  8
DEFAULT
 62
     5
 10
-410.7552417728427
 20
105.4781708172647
 30
0.0
 42
0.1781814747799357
  0
VERTEX
  5
37B
  8
DEFAULT
 62
     5
 10
-409.808097329246
 20
108.770996157037
 30
0.0
 42
0.1711933697273644
  0
VERTEX
  5
37C
  8
DEFAULT
 62
     5
 10
-410.7147328373667
 20
112.1515891301633
 30
0.0
 42
0.2363895789849332
  0
VERTEX
  5
37D
  8
DEFAULT
 62
     5
 10
-413.0102577053338
 20
113.2559485950425
 30
0.0
 42
0.2389909455159909
  0
VERTEX
  5
37E
  8
DEFAULT
 62
     5
 10
-415.2305508857755
 20
112.172808589749
 30
0.0
 42
0.1688350197989178
  0
SEQEND
  5
37F
  8
DEFAULT
 62
     5
  0
POLYLINE
  5
380
  8
DEFAULT
 62
     5
 66
     1
 10
0.0
 20
0.0
 30
0.0
 70
     1
  0
VERTEX
  5
381
  8
DEFAULT
 62
     5
 10
-419.4377269588756
 20
100.416442422203
 30
0.0
  0
VERTEX
  5
382
  8
DEFAULT
 62
     5
 10
-414.9932825144312
 20
99.9226152617092
 30
0.0
 42
0.1963004846498634
  0
VERTEX
  5
383
  8
DEFAULT
 62
     5
 10
-414.5090986790102
 20
98.85587211155004
 30
0.0
 42
0.1652544786658613
  0
VERTEX
  5
384
  8
DEFAULT
 62
     5
 10
-412.8636524138441
 20
98.44113378022777
 30
0.0
 42
0.1335897911306723
  0
VERTEX
  5
385
  8
DEFAULT
 62
     5
 10
-410.7089447701102
 20
98.8828786964773
 30
0.0
 42
0.1695942548853626
  0
VERTEX
  5
386
  8
DEFAULT
 62
     5
 10
-409.9778492382721
 20
99.83581026541563
 30
0.0
 42
0.0745029496057299
  0
VERTEX
  5
387
  8
DEFAULT
 62
     5
 10
-409.808097329246
 20
101.5661343689246
 30
0.0
  0
VERTEX
  5
388
  8
DEFAULT
 62
     5
 10
-409.808097329246
 20
103.6436803414376
 30
0.0
 42
-0.2481650325452916
  0
VERTEX
  5
389
  8
DEFAULT
 62
     5
 10
-414.0770008554929
 20
101.4040967431906
 30
0.0
 42
-0.2649646906886572
  0
VERTEX
  5
38A
  8
DEFAULT
 62
     5
 10
-418.6178955051336
 20
103.8732325456598
 30
0.0
 42
-0.1513235680991134
  0
VERTEX
  5
38B
  8
DEFAULT
 62
     5
 10
-419.9315541193695
 20
108.7304862796461
 30
0.0
 42
-0.1864728947506854
  0
VERTEX
  5
38C
  8
DEFAULT
 62
     5
 10
-418.2099097619579
 20
114.2956870441042
 30
0.0
 42
-0.2234769942370207
  0
VERTEX
  5
38D
  8
DEFAULT
 62
     5
 10
-413.9284665222227
 20
116.2189115580055
 30
0.0
 42
-0.2545979461410316
  0
VERTEX
  5
38E
  8
DEFAULT
 62
     5
 10
-409.5611837489991
 20
113.8346535938793
 30
0.0
  0
VERTEX
  5
38F
  8
DEFAULT
 62
     5
 10
-409.5611837489991
 20
115.8485411876351
 30
0.0
  0
VERTEX
  5
390
  8
DEFAULT
 62
     5
 10
-405.9809368354188
 20
115.8485411876351
 30
0.0
  0
VERTEX
  5
391
  8
DEFAULT
 62
     5
 10
-405.9809368354188
 20
102.8450702311111
 30
0.0
 42
-0.0739274830705575
  0
VERTEX
  5
392
  8
DEFAULT
 62
     5
 10
-406.398567787497
 20
99.01212261194239
 30
0.0
 42
-0.123123886931195
  0
VERTEX
  5
393
  8
DEFAULT
 62
     5
 10
-407.5704427727796
 20
97.01945259394236
 30
0.0
 42
-0.1133489208680008
  0
VERTEX
  5
394
  8
DEFAULT
 62
     5
 10
-409.5843313084504
 20
95.88712202324555
 30
0.0
 42
-0.077047408779734
  0
VERTEX
  5
395
  8
DEFAULT
 62
     5
 10
-412.7691312504284
 20
95.47817081726475
 30
0.0
  0
VERTEX
  5
396
  8
DEFAULT
 62
     5
 10
-413.2156296691593
 20
95.48311391324023
 30
0.0
  0
VERTEX
  5
397
  8
DEFAULT
 62
     5
 10
-413.6455958545604
 20
95.49794320116668
 30
0.0
  0
VERTEX
  5
398
  8
DEFAULT
 62
     5
 10
-414.0590298066318
 20
95.52265868104408
 30
0.0
  0
VERTEX
  5
399
  8
DEFAULT
 62
     5
 10
-414.4559315253734
 20
95.55726035287243
 30
0.0
  0
VERTEX
  5
39A
  8
DEFAULT
 62
     5
 10
-414.8363010107852
 20
95.60174821665174
 30
0.0
  0
VERTEX
  5
39B
  8
DEFAULT
 62
     5
 10
-415.2001382628673
 20
95.65612227238202
 30
0.0
  0
VERTEX
  5
39C
  8
DEFAULT
 62
     5
 10
-415.3758573014097
 20
95.68701662222878
 30
0.0
  0
VERTEX
  5
39D
  8
DEFAULT
 62
     5
 10
-415.5474432816197
 20
95.72038252006327
 30
0.0
  0
VERTEX
  5
39E
  8
DEFAULT
 62
     5
 10
-415.7148962034972
 20
95.75621996588549
 30
0.0
  0
VERTEX
  5
39F
  8
DEFAULT
 62
     5
 10
-415.8782160670423
 20
95.79452895969547
 30
0.0
  0
VERTEX
  5
3A0
  8
DEFAULT
 62
     5
 10
-416.037402872255
 20
95.83530950149319
 30
0.0
  0
VERTEX
  5
3A1
  8
DEFAULT
 62
     5
 10
-416.1924566191351
 20
95.87856159127864
 30
0.0
  0
VERTEX
  5
3A2
  8
DEFAULT
 62
     5
 10
-416.3433773076829
 20
95.92428522905182
 30
0.0
  0
VERTEX
  5
3A3
  8
DEFAULT
 62
     5
 10
-416.4901649378982
 20
95.97248041481275
 30
0.0
  0
VERTEX
  5
3A4
  8
DEFAULT
 62
     5
 10
-416.6328195097811
 20
96.02314714856142
 30
0.0
  0
VERTEX
  5
3A5
  8
DEFAULT
 62
     5
 10
-416.7713410233316
 20
96.07628543029784
 30
0.0
  0
VERTEX
  5
3A6
  8
DEFAULT
 62
     5
 10
-416.9057294785496
 20
96.13189526002199
 30
0.0
  0
VERTEX
  5
3A7
  8
DEFAULT
 62
     5
 10
-417.0359848754351
 20
96.18997663773388
 30
0.0
  0
VERTEX
  5
3A8
  8
DEFAULT
 62
     5
 10
-417.1621072139883
 20
96.2505295634335
 30
0.0
  0
VERTEX
  5
3A9
  8
DEFAULT
 62
     5
 10
-417.2840964942089
 20
96.31355403712088
 30
0.0
  0
VERTEX
  5
3AA
  8
DEFAULT
 62
     5
 10
-417.4019527160972
 20
96.379050058796
 30
0.0
  0
VERTEX
  5
3AB
  8
DEFAULT
 62
     5
 10
-417.515675879653
 20
96.44701762845884
 30
0.0
  0
VERTEX
  5
3AC
  8
DEFAULT
 62
     5
 10
-417.6252659848764
 20
96.51745674610943
 30
0.0
  0
VERTEX
  5
3AD
  8
DEFAULT
 62
     5
 10
-417.7307230317673
 20
96.59036741174776
 30
0.0
  0
VERTEX
  5
3AE
  8
DEFAULT
 62
     5
 10
-417.7819016583381
 20
96.62774957506232
 30
0.0
  0
VERTEX
  5
3AF
  8
DEFAULT
 62
     5
 10
-417.8320470203258
 20
96.66574962537383
 30
0.0
  0
VERTEX
  5
3B0
  8
DEFAULT
 62
     5
 10
-417.8811591177304
 20
96.70436756268228
 30
0.0
  0
VERTEX
  5
3B1
  8
DEFAULT
 62
     5
 10
-417.9292379505519
 20
96.74360338698763
 30
0.0
 42
-0.2345118942080019
  0
VERTEX
  5
3B2
  8
DEFAULT
 62
     5
 10
-419.4512283675094
 20
99.951550888417
 30
0.0
  0
SEQEND
  5
3B3
  8
DEFAULT
 62
     5
  0
POLYLINE
  5
3B4
  8
DEFAULT
 62
     5
 66
     1
 10
0.0
 20
0.0
 30
0.0
 70
     1
  0
VERTEX
  5
3B5
  8
DEFAULT
 62
     5
 10
-422.8945170823324
 20
101.4040967431907
 30
0.0
  0
VERTEX
  5
3B6
  8
DEFAULT
 62
     5
 10
-426.7216775761595
 20
101.4040967431907
 30
0.0
  0
VERTEX
  5
3B7
  8
DEFAULT
 62
     5
 10
-426.7216775761596
 20
108.7787123241591
 30
0.0
 42
0.0659043403441895
  0
VERTEX
  5
3B8
  8
DEFAULT
 62
     5
 10
-426.9628040310649
 20
111.8072617657448
 30
0.0
 42
0.1600130695765693
  0
VERTEX
  5
3B9
  8
DEFAULT
 62
     5
 10
-427.7459827490623
 20
112.8749694367942
 30
0.0
 42
0.1575149176298636
  0
VERTEX
  5
3BA
  8
DEFAULT
 62
     5
 10
-429.0499952124806
 20
113.2559485950426
 30
0.0
 42
0.1576987046345168
  0
VERTEX
  5
3BB
  8
DEFAULT
 62
     5
 10
-430.8025023545505
 20
112.7119672901701
 30
0.0
 42
0.1684371822616949
  0
VERTEX
  5
3BC
  8
DEFAULT
 62
     5
 10
-431.8663528839538
 20
111.2700311651893
 30
0.0
 42
0.0659809918576436
  0
VERTEX
  5
3BD
  8
DEFAULT
 62
     5
 10
-432.1537763415917
 20
107.9492356615144
 30
0.0
  0
VERTEX
  5
3BE
  8
DEFAULT
 62
     5
 10
-432.1537763415917
 20
101.4040967431907
 30
0.0
  0
VERTEX
  5
3BF
  8
DEFAULT
 62
     5
 10
-435.9809368354188
 20
101.4040967431907
 30
0.0
  0
VERTEX
  5
3C0
  8
DEFAULT
 62
     5
 10
-435.9809368354188
 20
115.8485411876351
 30
0.0
  0
VERTEX
  5
3C1
  8
DEFAULT
 62
     5
 10
-432.4006899218386
 20
115.8485411876351
 30
0.0
  0
VERTEX
  5
3C2
  8
DEFAULT
 62
     5
 10
-432.4006899218386
 20
113.7420614722441
 30
0.0
 42
-0.2486296121988533
  0
VERTEX
  5
3C3
  8
DEFAULT
 62
     5
 10
-427.6938995629031
 20
116.2189115580055
 30
0.0
 42
-0.1053164015607938
  0
VERTEX
  5
3C4
  8
DEFAULT
 62
     5
 10
-425.4089844247288
 20
115.7617361913416
 30
0.0
 42
-0.1292191717088583
  0
VERTEX
  5
3C5
  8
DEFAULT
 62
     5
 10
-423.8426260468194
 20
114.5956483314006
 30
0.0
 42
-0.1054932374261942
  0
VERTEX
  5
3C6
  8
DEFAULT
 62
     5
 10
-423.1028498269689
 20
112.9858874553443
 30
0.0
 42
-0.0533641385177253
  0
VERTEX
  5
3C7
  8
DEFAULT
 62
     5
 10
-422.8945170823324
 20
110.4067990971303
 30
0.0
  0
SEQEND
  5
3C8
  8
DEFAULT
 62
     5
  0
POLYLINE
  5
3C9
  8
DEFAULT
 62
     5
 66
     1
 10
0.0
 20
0.0
 30
0.0
 70
     1
  0
VERTEX
  5
3CA
  8
DEFAULT
 62
     5
 10
-443.6352578230732
 20
101.4040967431907
 30
0.0
  0
VERTEX
  5
3CB
  8
DEFAULT
 62
     5
 10
-443.6352578230732
 20
115.8485411876351
 30
0.0
  0
VERTEX
  5
3CC
  8
DEFAULT
 62
     5
 10
-439.808097329246
 20
115.8485411876351
 30
0.0
  0
VERTEX
  5
3CD
  8
DEFAULT
 62
     5
 10
-439.808097329246
 20
101.4040967431907
 30
0.0
  0
SEQEND
  5
3CE
  8
DEFAULT
 62
     5
  0
POLYLINE
  5
3CF
  8
DEFAULT
 62
     5
 66
     1
 10
0.0
 20
0.0
 30
0.0
 70
     1
  0
VERTEX
  5
3D0
  8
DEFAULT
 62
     5
 10
-443.6352578230732
 20
117.9473066197339
 30
0.0
  0
VERTEX
  5
3D1
  8
DEFAULT
 62
     5
 10
-443.6352578230732
 20
121.2806399530672
 30
0.0
  0
VERTEX
  5
3D2
  8
DEFAULT
 62
     5
 10
-439.808097329246
 20
121.2806399530672
 30
0.0
  0
VERTEX
  5
3D3
  8
DEFAULT
 62
     5
 10
-439.808097329246
 20
117.9473066197339
 30
0.0
  0
SEQEND
  5
3D4
  8
DEFAULT
 62
     5
  0
POLYLINE
  5
3D5
  8
DEFAULT
 62
     5
 66
     1
 10
0.0
 20
0.0
 30
0.0
 70
     1
  0
VERTEX
  5
3D6
  8
DEFAULT
 62
     5
 10
-446.2278504156657
 20
115.8485411876351
 30
0.0
  0
VERTEX
  5
3D7
  8
DEFAULT
 62
     5
 10
-446.2278504156657
 20
112.8855782246722
 30
0.0
  0
VERTEX
  5
3D8
  8
DEFAULT
 62
     5
 10
-448.8204430082583
 20
112.8855782246722
 30
0.0
  0
VERTEX
  5
3D9
  8
DEFAULT
 62
     5
 10
-448.8204430082583
 20
106.9210733469657
 30
0.0
 42
0.0340880666974851
  0
VERTEX
  5
3DA
  8
DEFAULT
 62
     5
 10
-448.7471403625136
 20
104.8097682013786
 30
0.0
 42
0.1777629698041172
  0
VERTEX
  5
3DB
  8
DEFAULT
 62
     5
 10
-448.4163144067289
 20
104.3149765199945
 30
0.0
 42
0.1671411134725601
  0
VERTEX
  5
3DC
  8
DEFAULT
 62
     5
 10
-447.7864916845381
 20
104.1201461259067
 30
0.0
 42
0.0818670423874963
  0
VERTEX
  5
3DD
  8
DEFAULT
 62
     5
 10
-446.2895778688126
 20
104.4847312547654
 30
0.0
  0
VERTEX
  5
3DE
  8
DEFAULT
 62
     5
 10
-445.9809368354188
 20
101.5892828702908
 30
0.0
 42
-0.1009135694950926
  0
VERTEX
  5
3DF
  8
DEFAULT
 62
     5
 10
-448.9593302487961
 20
101.0337263728203
 30
0.0
 42
-0.1023112505794249
  0
VERTEX
  5
3E0
  8
DEFAULT
 62
     5
 10
-450.796715229209
 20
101.3848072673004
 30
0.0
 42
-0.1427327602514181
  0
VERTEX
  5
3E1
  8
DEFAULT
 62
     5
 10
-451.9975258411994
 20
102.2924082382263
 30
0.0
 42
-0.1112474266807738
  0
VERTEX
  5
3E2
  8
DEFAULT
 62
     5
 10
-452.5260738699127
 20
103.7980018000494
 30
0.0
 42
-0.0357944377719397
  0
VERTEX
  5
3E3
  8
DEFAULT
 62
     5
 10
-452.6476035020855
 20
106.519838308107
 30
0.0
  0
VERTEX
  5
3E4
  8
DEFAULT
 62
     5
 10
-452.6476035020855
 20
112.8855782246722
 30
0.0
  0
VERTEX
  5
3E5
  8
DEFAULT
 62
     5
 10
-454.4994553539374
 20
112.8855782246722
 30
0.0
  0
VERTEX
  5
3E6
  8
DEFAULT
 62
     5
 10
-454.4994553539374
 20
115.8485411876351
 30
0.0
  0
VERTEX
  5
3E7
  8
DEFAULT
 62
     5
 10
-452.6476035020855
 20
115.8485411876351
 30
0.0
  0
VERTEX
  5
3E8
  8
DEFAULT
 62
     5
 10
-452.6476035020855
 20
118.5645905703512
 30
0.0
  0
VERTEX
  5
3E9
  8
DEFAULT
 62
     5
 10
-448.8204430082583
 20
120.7868127925734
 30
0.0
  0
VERTEX
  5
3EA
  8
DEFAULT
 62
     5
 10
-448.8204430082583
 20
115.8485411876351
 30
0.0
  0
SEQEND
  5
3EB
  8
DEFAULT
 62
     5
  0
POLYLINE
  5
3EC
  8
DEFAULT
 62
     5
 66
     1
 10
0.0
 20
0.0
 30
0.0
 70
     1
  0
VERTEX
  5
3ED
  8
DEFAULT
 62
     5
 10
-455.487109674925
 20
115.8485411876351
 30
0.0
  0
VERTEX
  5
3EE
  8
DEFAULT
 62
     5
 10
-455.487109674925
 20
112.8855782246722
 30
0.0
  0
VERTEX
  5
3EF
  8
DEFAULT
 62
     5
 10
-458.0797022675176
 20
112.8855782246722
 30
0.0
  0
VERTEX
  5
3F0
  8
DEFAULT
 62
     5
 10
-458.0797022675176
 20
106.9210733469657
 30
0.0
 42
0.0340880666974848
  0
VERTEX
  5
3F1
  8
DEFAULT
 62
     5
 10
-458.0063996217727
 20
104.8097682013786
 30
0.0
 42
0.177762969804112
  0
VERTEX
  5
3F2
  8
DEFAULT
 62
     5
 10
-457.6755736659881
 20
104.3149765199945
 30
0.0
 42
0.167141113472557
  0
VERTEX
  5
3F3
  8
DEFAULT
 62
     5
 10
-457.0457509437974
 20
104.1201461259067
 30
0.0
 42
0.0818670423875201
  0
VERTEX
  5
3F4
  8
DEFAULT
 62
     5
 10
-455.5488371280718
 20
104.4847312547654
 30
0.0
  0
VERTEX
  5
3F5
  8
DEFAULT
 62
     5
 10
-455.2401960946781
 20
101.5892828702908
 30
0.0
 42
-0.1009135694950923
  0
VERTEX
  5
3F6
  8
DEFAULT
 62
     5
 10
-458.2185895080553
 20
101.0337263728203
 30
0.0
 42
-0.1023112505794256
  0
VERTEX
  5
3F7
  8
DEFAULT
 62
     5
 10
-460.0559744884682
 20
101.3848072673004
 30
0.0
 42
-0.142732760251419
  0
VERTEX
  5
3F8
  8
DEFAULT
 62
     5
 10
-461.2567851004586
 20
102.2924082382263
 30
0.0
 42
-0.1112474266807738
  0
VERTEX
  5
3F9
  8
DEFAULT
 62
     5
 10
-461.7853331291719
 20
103.7980018000494
 30
0.0
 42
-0.0357944377719313
  0
VERTEX
  5
3FA
  8
DEFAULT
 62
     5
 10
-461.9068627613448
 20
106.519838308107
 30
0.0
  0
VERTEX
  5
3FB
  8
DEFAULT
 62
     5
 10
-461.9068627613448
 20
112.8855782246722
 30
0.0
  0
VERTEX
  5
3FC
  8
DEFAULT
 62
     5
 10
-463.7587146131966
 20
112.8855782246722
 30
0.0
  0
VERTEX
  5
3FD
  8
DEFAULT
 62
     5
 10
-463.7587146131966
 20
115.8485411876351
 30
0.0
  0
VERTEX
  5
3FE
  8
DEFAULT
 62
     5
 10
-461.9068627613448
 20
115.8485411876351
 30
0.0
  0
VERTEX
  5
3FF
  8
DEFAULT
 62
     5
 10
-461.9068627613448
 20
118.5645905703512
 30
0.0
  0
VERTEX
  5
400
  8
DEFAULT
 62
     5
 10
-458.0797022675176
 20
120.7868127925734
 30
0.0
  0
VERTEX
  5
401
  8
DEFAULT
 62
     5
 10
-458.0797022675176
 20
115.8485411876351
 30
0.0
  0
SEQEND
  5
402
  8
DEFAULT
 62
     5
  0
POLYLINE
  5
403
  8
DEFAULT
 62
     5
 66
     1
 10
0.0
 20
0.0
 30
0.0
 70
     1
  0
VERTEX
  5
404
  8
DEFAULT
 62
     5
 10
-469.5611837489991
 20
101.4040967431907
 30
0.0
  0
VERTEX
  5
405
  8
DEFAULT
 62
     5
 10
-469.5611837489991
 20
103.5510882198025
 30
0.0
 42
-0.1223972716446067
  0
VERTEX
  5
406
  8
DEFAULT
 62
     5
 10
-471.6175102619264
 20
101.7185258438409
 30
0.0
 42
-0.1257588650398596
  0
VERTEX
  5
407
  8
DEFAULT
 62
     5
 10
-474.3084821014957
 20
101.0337263728204
 30
0.0
 42
-0.1301059334599754
  0
VERTEX
  5
408
  8
DEFAULT
 62
     5
 10
-476.896252089637
 20
101.6751233456941
 30
0.0
 42
-0.1670007383232179
  0
VERTEX
  5
409
  8
DEFAULT
 62
     5
 10
-478.5552035310965
 20
103.4758565322771
 30
0.0
 42
-0.1009427833083577
  0
VERTEX
  5
40A
  8
DEFAULT
 62
     5
 10
-479.0673565885053
 20
106.6818759338409
 30
0.0
  0
VERTEX
  5
40B
  8
DEFAULT
 62
     5
 10
-479.0673565885053
 20
115.8485411876351
 30
0.0
  0
VERTEX
  5
40C
  8
DEFAULT
 62
     5
 10
-475.2401960946781
 20
115.8485411876351
 30
0.0
  0
VERTEX
  5
40D
  8
DEFAULT
 62
     5
 10
-475.2401960946781
 20
109.2165972730178
 30
0.0
 42
0.0503730066259764
  0
VERTEX
  5
40E
  8
DEFAULT
 62
     5
 10
-475.0318624081266
 20
105.4849234054115
 30
0.0
 42
0.1675734251047587
  0
VERTEX
  5
40F
  8
DEFAULT
 62
     5
 10
-474.2718312495807
 20
104.3979243746419
 30
0.0
 42
0.1610647544742206
  0
VERTEX
  5
410
  8
DEFAULT
 62
     5
 10
-472.8732976227467
 20
103.9966893357833
 30
0.0
 42
0.1578518894734165
  0
VERTEX
  5
411
  8
DEFAULT
 62
     5
 10
-471.1391154356767
 20
104.5339199363388
 30
0.0
 42
0.1591085904630421
  0
VERTEX
  5
412
  8
DEFAULT
 62
     5
 10
-470.0906972405177
 20
105.8659035055747
 30
0.0
 42
0.0627948021468083
  0
VERTEX
  5
413
  8
DEFAULT
 62
     5
 10
-469.808097329246
 20
109.7586504780247
 30
0.0
  0
VERTEX
  5
414
  8
DEFAULT
 62
     5
 10
-469.808097329246
 20
115.8485411876351
 30
0.0
  0
VERTEX
  5
415
  8
DEFAULT
 62
     5
 10
-465.9809368354188
 20
115.8485411876351
 30
0.0
  0
VERTEX
  5
416
  8
DEFAULT
 62
     5
 10
-465.9809368354188
 20
101.4040967431907
 30
0.0
  0
SEQEND
  5
417
  8
DEFAULT
 62
     5
  0
POLYLINE
  5
418
  8
DEFAULT
 62
     5
 66
     1
 10
0.0
 20
0.0
 30
0.0
 70
     1
  0
VERTEX
  5
419
  8
DEFAULT
 62
     5
 10
-482.0303195514682
 20
111.6510103234376
 30
0.0
  0
VERTEX
  5
41A
  8
DEFAULT
 62
     5
 10
-485.8574800452953
 20
111.0337263728203
 30
0.0
 42
0.1809968098175518
  0
VERTEX
  5
41B
  8
DEFAULT
 62
     5
 10
-486.712031425342
 20
112.6975004187312
 30
0.0
 42
0.1804760167669871
  0
VERTEX
  5
41C
  8
DEFAULT
 62
     5
 10
-488.4404274289853
 20
113.2559485950425
 30
0.0
 42
0.2329674834671589
  0
VERTEX
  5
41D
  8
DEFAULT
 62
     5
 10
-490.6954424195615
 20
112.2528628817257
 30
0.0
 42
0.1695179555120281
  0
VERTEX
  5
41E
  8
DEFAULT
 62
     5
 10
-491.5364923909744
 20
108.896381988941
 30
0.0
 42
0.1610966817174912
  0
VERTEX
  5
41F
  8
DEFAULT
 62
     5
 10
-490.6751874808661
 20
105.1994289895542
 30
0.0
 42
0.2405540491093949
  0
VERTEX
  5
420
  8
DEFAULT
 62
     5
 10
-488.3632657577646
 20
104.1201461259067
 30
0.0
 42
0.1883458441869353
  0
VERTEX
  5
421
  8
DEFAULT
 62
     5
 10
-486.5876101143283
 20
104.7316438930974
 30
0.0
 42
0.1622604489948198
  0
VERTEX
  5
422
  8
DEFAULT
 62
     5
 10
-485.6105664650485
 20
106.8361955086228
 30
0.0
  0
VERTEX
  5
423
  8
DEFAULT
 62
     5
 10
-481.7834059712213
 20
106.3423683481289
 30
0.0
 42
-0.1724509721436196
  0
VERTEX
  5
424
  8
DEFAULT
 62
     5
 10
-484.0191305439922
 20
102.3743906300686
 30
0.0
 42
-0.1746967243539343
  0
VERTEX
  5
425
  8
DEFAULT
 62
     5
 10
-488.4519997958386
 20
101.0337263728203
 30
0.0
 42
-0.2163976905724389
  0
VERTEX
  5
426
  8
DEFAULT
 62
     5
 10
-493.486723489803
 20
103.0447222877352
 30
0.0
 42
-0.1943870566321022
  0
VERTEX
  5
427
  8
DEFAULT
 62
     5
 10
-495.3636528848016
 20
108.6128166148642
 30
0.0
 42
-0.1945054615972633
  0
VERTEX
  5
428
  8
DEFAULT
 62
     5
 10
-493.4876880106932
 20
114.2146682312373
 30
0.0
 42
-0.2157801631579814
  0
VERTEX
  5
429
  8
DEFAULT
 62
     5
 10
-488.4134208440581
 20
116.2189115580055
 30
0.0
 42
-0.159942307695794
  0
VERTEX
  5
42A
  8
DEFAULT
 62
     5
 10
-484.250611789995
 20
115.0904400127846
 30
0.0
 42
-0.1682635697126511
  0
SEQEND
  5
42B
  8
DEFAULT
 62
     5
  0
POLYLINE
  5
42C
  8
DEFAULT
 62
     5
 66
     1
 10
0.0
 20
0.0
 30
0.0
 70
     1
  0
VERTEX
  5
42D
  8
DEFAULT
 62
     5
 10
-509.0673565885053
 20
101.4040967431907
 30
0.0
  0
VERTEX
  5
42E
  8
DEFAULT
 62
     5
 10
-512.8945170823324
 20
101.4040967431907
 30
0.0
  0
VERTEX
  5
42F
  8
DEFAULT
 62
     5
 10
-512.8945170823324
 20
115.8485411876351
 30
0.0
  0
VERTEX
  5
430
  8
DEFAULT
 62
     5
 10
-509.3142701687522
 20
115.8485411876351
 30
0.0
  0
VERTEX
  5
431
  8
DEFAULT
 62
     5
 10
-509.3142701687522
 20
113.8095760507325
 30
0.0
 42
-0.0977550519460824
  0
VERTEX
  5
432
  8
DEFAULT
 62
     5
 10
-507.7459827490622
 20
115.7366586481948
 30
0.0
 42
-0.156172018507921
  0
VERTEX
  5
433
  8
DEFAULT
 62
     5
 10
-506.1661210786891
 20
116.2189115580054
 30
0.0
 42
-0.1438170981369907
  0
VERTEX
  5
434
  8
DEFAULT
 62
     5
 10
-503.7587146131966
 20
115.4916741097284
 30
0.0
  0
VERTEX
  5
435
  8
DEFAULT
 62
     5
 10
-504.9315531774546
 20
112.1409812842002
 30
0.0
 42
0.1496770151887594
  0
VERTEX
  5
436
  8
DEFAULT
 62
     5
 10
-506.6367997378167
 20
112.7621214345487
 30
0.0
 42
0.1810970994867109
  0
VERTEX
  5
437
  8
DEFAULT
 62
     5
 10
-507.9302024714422
 20
112.3194138812387
 30
0.0
 42
0.1501348396488458
  0
VERTEX
  5
438
  8
DEFAULT
 62
     5
 10
-508.763536275733
 20
110.719298214085
 30
0.0
 42
0.0509111359642169
  0
VERTEX
  5
439
  8
DEFAULT
 62
     5
 10
-509.0673565885053
 20
105.8716896890014
 30
0.0
  0
SEQEND
  5
43A
  8
DEFAULT
 62
     5
  0
POLYLINE
  5
43B
  8
DEFAULT
 62
     5
 66
     1
 10
0.0
 20
0.0
 30
0.0
 70
     1
  0
VERTEX
  5
43C
  8
DEFAULT
 62
     5
 10
-519.6846405391225
 20
109.9226152617092
 30
0.0
 42
0.1931771868552779
  0
VERTEX
  5
43D
  8
DEFAULT
 62
     5
 10
-520.5633049414257
 20
112.4062188775322
 30
0.0
 42
0.2094545272841112
  0
VERTEX
  5
43E
  8
DEFAULT
 62
     5
 10
-522.5993774575725
 20
113.2559485950426
 30
0.0
 42
0.2175151257022456
  0
VERTEX
  5
43F
  8
DEFAULT
 62
     5
 10
-524.7193623492569
 20
112.3589592377394
 30
0.0
 42
0.197485040297664
  0
VERTEX
  5
440
  8
DEFAULT
 62
     5
 10
-525.5430500027303
 20
109.9226152617092
 30
0.0
  0
SEQEND
  5
441
  8
DEFAULT
 62
     5
  0
POLYLINE
  5
442
  8
DEFAULT
 62
     5
 66
     1
 10
0.0
 20
0.0
 30
0.0
 70
     1
  0
VERTEX
  5
443
  8
DEFAULT
 62
     5
 10
-519.9315541193694
 20
105.9719979777586
 30
0.0
  0
VERTEX
  5
444
  8
DEFAULT
 62
     5
 10
-516.1043936255422
 20
105.4781708172647
 30
0.0
 42
-0.1601948643917467
  0
VERTEX
  5
445
  8
DEFAULT
 62
     5
 10
-518.4307822200827
 20
102.1699150270782
 30
0.0
 42
-0.1590209405814538
  0
VERTEX
  5
446
  8
DEFAULT
 62
     5
 10
-522.4103332469113
 20
101.0337263728203
 30
0.0
 42
-0.2510606897924021
  0
VERTEX
  5
447
  8
DEFAULT
 62
     5
 10
-528.0044696380774
 20
103.5105783424115
 30
0.0
 42
-0.160323168959794
  0
VERTEX
  5
448
  8
DEFAULT
 62
     5
 10
-529.4377269588756
 20
108.516366409668
 30
0.0
 42
-0.1928988919450652
  0
VERTEX
  5
449
  8
DEFAULT
 62
     5
 10
-527.5482587923035
 20
114.1741592957613
 30
0.0
 42
-0.2186957110499321
  0
VERTEX
  5
44A
  8
DEFAULT
 62
     5
 10
-522.771060292209
 20
116.2189115580055
 30
0.0
 42
-0.2248762650829578
  0
VERTEX
  5
44B
  8
DEFAULT
 62
     5
 10
-517.6514606437316
 20
114.092175962004
 30
0.0
  0
VERTEX
  5
44C
  8
DEFAULT
 62
     5
 10
-517.5361832975423
 20
113.957046228933
 30
0.0
  0
VERTEX
  5
44D
  8
DEFAULT
 62
     5
 10
-517.4247263031264
 20
113.8174989792201
 30
0.0
  0
VERTEX
  5
44E
  8
DEFAULT
 62
     5
 10
-517.3170896604837
 20
113.6735342128654
 30
0.0
  0
VERTEX
  5
44F
  8
DEFAULT
 62
     5
 10
-517.2132733696146
 20
113.5251519298687
 30
0.0
  0
VERTEX
  5
450
  8
DEFAULT
 62
     5
 10
-517.113277430519
 20
113.3723521302302
 30
0.0
  0
VERTEX
  5
451
  8
DEFAULT
 62
     5
 10
-517.0171018431968
 20
113.2151348139499
 30
0.0
  0
VERTEX
  5
452
  8
DEFAULT
 62
     5
 10
-516.9247466076479
 20
113.0534999810276
 30
0.0
  0
VERTEX
  5
453
  8
DEFAULT
 62
     5
 10
-516.8362117238726
 20
112.8874476314635
 30
0.0
  0
VERTEX
  5
454
  8
DEFAULT
 62
     5
 10
-516.7514971918706
 20
112.7169777652575
 30
0.0
  0
VERTEX
  5
455
  8
DEFAULT
 62
     5
 10
-516.6706030116422
 20
112.5420903824097
 30
0.0
  0
VERTEX
  5
456
  8
DEFAULT
 62
     5
 10
-516.5935291831872
 20
112.3627854829199
 30
0.0
  0
VERTEX
  5
457
  8
DEFAULT
 62
     5
 10
-516.5202757065056
 20
112.1790630667883
 30
0.0
  0
VERTEX
  5
458
  8
DEFAULT
 62
     5
 10
-516.4508425815974
 20
111.9909231340149
 30
0.0
  0
VERTEX
  5
459
  8
DEFAULT
 62
     5
 10
-516.3852298084628
 20
111.7983656845995
 30
0.0
  0
VERTEX
  5
45A
  8
DEFAULT
 62
     5
 10
-516.3234373871014
 20
111.6013907185423
 30
0.0
  0
VERTEX
  5
45B
  8
DEFAULT
 62
     5
 10
-516.2654653175135
 20
111.3999982358432
 30
0.0
  0
VERTEX
  5
45C
  8
DEFAULT
 62
     5
 10
-516.211313599699
 20
111.1941882365023
 30
0.0
  0
VERTEX
  5
45D
  8
DEFAULT
 62
     5
 10
-516.160982233658
 20
110.9839607205195
 30
0.0
  0
VERTEX
  5
45E
  8
DEFAULT
 62
     5
 10
-516.1144712193906
 20
110.7693156878948
 30
0.0
  0
VERTEX
  5
45F
  8
DEFAULT
 62
     5
 10
-516.0717805568964
 20
110.5502531386282
 30
0.0
  0
VERTEX
  5
460
  8
DEFAULT
 62
     5
 10
-516.0329102461758
 20
110.3267730727198
 30
0.0
  0
VERTEX
  5
461
  8
DEFAULT
 62
     5
 10
-515.9978602872286
 20
110.0988754901695
 30
0.0
  0
VERTEX
  5
462
  8
DEFAULT
 62
     5
 10
-515.9666306800548
 20
109.8665603909773
 30
0.0
  0
VERTEX
  5
463
  8
DEFAULT
 62
     5
 10
-515.9392214246544
 20
109.6298277751432
 30
0.0
  0
VERTEX
  5
464
  8
DEFAULT
 62
     5
 10
-515.895863969174
 20
109.1431099935495
 30
0.0
  0
VERTEX
  5
465
  8
DEFAULT
 62
     5
 10
-515.8677879207874
 20
108.6387221453883
 30
0.0
  0
VERTEX
  5
466
  8
DEFAULT
 62
     5
 10
-515.8549932794945
 20
108.1166642306597
 30
0.0
  0
VERTEX
  5
467
  8
DEFAULT
 62
     5
 10
-515.8574800452953
 20
107.5769362493635
 30
0.0
  0
VERTEX
  5
468
  8
DEFAULT
 62
     5
 10
-525.6105664650485
 20
107.5769362493635
 30
0.0
 42
0.1907233177561686
  0
VERTEX
  5
469
  8
DEFAULT
 62
     5
 10
-524.6663137002927
 20
104.9390121168437
 30
0.0
 42
0.2135192120775097
  0
VERTEX
  5
46A
  8
DEFAULT
 62
     5
 10
-522.4161203722529
 20
103.9966893357833
 30
0.0
 42
0.1657236937101213
  0
VERTEX
  5
46B
  8
DEFAULT
 62
     5
 10
-520.8758050002954
 20
104.464475374155
 30
0.0
 42
0.1589948514629628
  0
SEQEND
  5
46C
  8
DEFAULT
 62
     5
  0
POLYLINE
  5
46D
  8
DEFAULT
 62
     5
 66
     1
 10
0.0
 20
0.0
 30
0.0
 70
     1
  0
VERTEX
  5
46E
  8
DEFAULT
 62
     5
 10
-545.1167393045546
 20
105.4781708172648
 30
0.0
  0
VERTEX
  5
46F
  8
DEFAULT
 62
     5
 10
-541.2895788107274
 20
105.9719979777586
 30
0.0
 42
0.1817134537413179
  0
VERTEX
  5
470
  8
DEFAULT
 62
     5
 10
-540.2990299851541
 20
104.3149765199945
 30
0.0
 42
0.1637490318832869
  0
VERTEX
  5
471
  8
DEFAULT
 62
     5
 10
-538.2128023827138
 20
103.7497757555364
 30
0.0
 42
0.1581548590316176
  0
VERTEX
  5
472
  8
DEFAULT
 62
     5
 10
-535.988651118711
 20
104.3034032112263
 30
0.0
 42
0.2454173628753445
  0
VERTEX
  5
473
  8
DEFAULT
 62
     5
 10
-535.487109674925
 20
105.3412126185075
 30
0.0
 42
0.1967133408659379
  0
VERTEX
  5
474
  8
DEFAULT
 62
     5
 10
-535.7590989144888
 20
106.0742371921261
 30
0.0
 42
0.1152480441762839
  0
VERTEX
  5
475
  8
DEFAULT
 62
     5
 10
-537.0399638184558
 20
106.5854257286447
 30
0.0
  0
VERTEX
  5
476
  8
DEFAULT
 62
     5
 10
-538.1439615349514
 20
106.8419540087958
 30
0.0
  0
VERTEX
  5
477
  8
DEFAULT
 62
     5
 10
-539.1421047136093
 20
107.0926349861127
 30
0.0
  0
VERTEX
  5
478
  8
DEFAULT
 62
     5
 10
-540.0343933544297
 20
107.3374686605954
 30
0.0
  0
VERTEX
  5
479
  8
DEFAULT
 62
     5
 10
-540.8208274574123
 20
107.576455032244
 30
0.0
  0
VERTEX
  5
47A
  8
DEFAULT
 62
     5
 10
-541.1743490572145
 20
107.6937554795055
 30
0.0
  0
VERTEX
  5
47B
  8
DEFAULT
 62
     5
 10
-541.5014070225573
 20
107.8095941010584
 30
0.0
  0
VERTEX
  5
47C
  8
DEFAULT
 62
     5
 10
-541.8020013534406
 20
107.9239708969028
 30
0.0
  0
VERTEX
  5
47D
  8
DEFAULT
 62
     5
 10
-542.0761320498646
 20
108.0368858670386
 30
0.0
  0
VERTEX
  5
47E
  8
DEFAULT
 62
     5
 10
-542.2032735351543
 20
108.0927951674658
 30
0.0
  0
VERTEX
  5
47F
  8
DEFAULT
 62
     5
 10
-542.323799111829
 20
108.1483390114659
 30
0.0
  0
VERTEX
  5
480
  8
DEFAULT
 62
     5
 10
-542.4377087798889
 20
108.2035173990389
 30
0.0
  0
VERTEX
  5
481
  8
DEFAULT
 62
     5
 10
-542.5450025393342
 20
108.2583303301847
 30
0.0
  0
VERTEX
  5
482
  8
DEFAULT
 62
     5
 10
-542.6456803901646
 20
108.3127778049033
 30
0.0
  0
VERTEX
  5
483
  8
DEFAULT
 62
     5
 10
-542.7397423323799
 20
108.3668598231949
 30
0.0
  0
VERTEX
  5
484
  8
DEFAULT
 62
     5
 10
-542.8271883659804
 20
108.4205763850593
 30
0.0
  0
VERTEX
  5
485
  8
DEFAULT
 62
     5
 10
-542.9080184909662
 20
108.4739274904965
 30
0.0
 42
-0.263057537723686
  0
VERTEX
  5
486
  8
DEFAULT
 62
     5
 10
-544.6229121440608
 20
111.7493914542441
 30
0.0
 42
-0.2278055359033817
  0
VERTEX
  5
487
  8
DEFAULT
 62
     5
 10
-543.1404661416891
 20
114.9303314288313
 30
0.0
 42
-0.1789409577798932
  0
VERTEX
  5
488
  8
DEFAULT
 62
     5
 10
-538.5445938013036
 20
116.2189115580056
 30
0.0
 42
-0.1478680227512933
  0
VERTEX
  5
489
  8
DEFAULT
 62
     5
 10
-534.1387292505547
 20
115.22064844914
 30
0.0
 42
-0.1798681362131848
  0
VERTEX
  5
48A
  8
DEFAULT
 62
     5
 10
-532.1537763415918
 20
112.2682942740549
 30
0.0
  0
VERTEX
  5
48B
  8
DEFAULT
 62
     5
 10
-535.7340232551719
 20
111.6510103234376
 30
0.0
 42
0.176260944824488
  0
VERTEX
  5
48C
  8
DEFAULT
 62
     5
 10
-536.6097940948043
 20
113.02543186993
 30
0.0
 42
0.1598214678236178
  0
VERTEX
  5
48D
  8
DEFAULT
 62
     5
 10
-538.450072637888
 20
113.5028621752894
 30
0.0
 42
0.1371855487858171
  0
VERTEX
  5
48E
  8
DEFAULT
 62
     5
 10
-540.6086364813531
 20
113.0746224353334
 30
0.0
 42
0.2593740206711453
  0
VERTEX
  5
48F
  8
DEFAULT
 62
     5
 10
-541.0426652304806
 20
112.2856556500796
 30
0.0
 42
0.2456185528240905
  0
VERTEX
  5
490
  8
DEFAULT
 62
     5
 10
-540.6626496512076
 20
111.5796376613882
 30
0.0
 42
0.0664798749578862
  0
VERTEX
  5
491
  8
DEFAULT
 62
     5
 10
-537.1036212552981
 20
110.486852447192
 30
0.0
 42
-0.109521419337758
  0
VERTEX
  5
492
  8
DEFAULT
 62
     5
 10
-532.8540072049414
 20
108.7690671152565
 30
0.0
 42
-0.2284114958797327
  0
VERTEX
  5
493
  8
DEFAULT
 62
     5
 10
-531.6599491810978
 20
105.9083414828313
 30
0.0
 42
-0.2276229810650726
  0
VERTEX
  5
494
  8
DEFAULT
 62
     5
 10
-533.3150415970814
 20
102.4708408352648
 30
0.0
 42
-0.1809722242825392
  0
VERTEX
  5
495
  8
DEFAULT
 62
     5
 10
-538.2128023827138
 20
101.0337263728203
 30
0.0
 42
-0.1534212868271841
  0
VERTEX
  5
496
  8
DEFAULT
 62
     5
 10
-542.8723331018564
 20
102.2297143803594
 30
0.0
 42
-0.1853542620165696
  0
SEQEND
  5
497
  8
DEFAULT
 62
     5
  0
POLYLINE
  5
498
  8
DEFAULT
 62
     5
 66
     1
 10
0.0
 20
0.0
 30
0.0
 70
     1
  0
VERTEX
  5
499
  8
DEFAULT
 62
     5
 10
-551.5364923909744
 20
108.3176769901043
 30
0.0
 42
-0.0261329476715157
  0
VERTEX
  5
49A
  8
DEFAULT
 62
     5
 10
-553.7645007966232
 20
107.7331867497558
 30
0.0
 42
0.0811165779561163
  0
VERTEX
  5
49B
  8
DEFAULT
 62
     5
 10
-555.7571698727085
 20
107.0676786384554
 30
0.0
 42
0.2517191883486738
  0
VERTEX
  5
49C
  8
DEFAULT
 62
     5
 10
-556.4747639959127
 20
105.7212281977805
 30
0.0
 42
0.2041672574556317
  0
VERTEX
  5
49D
  8
DEFAULT
 62
     5
 10
-555.9018470643324
 20
104.3342669377997
 30
0.0
 42
0.2097521333282883
  0
VERTEX
  5
49E
  8
DEFAULT
 62
     5
 10
-554.4415841005217
 20
103.7497757555363
 30
0.0
 42
0.1670482644845433
  0
VERTEX
  5
49F
  8
DEFAULT
 62
     5
 10
-552.55308045484
 20
104.4287890431303
 30
0.0
 42
0.165161245499155
  0
VERTEX
  5
4A0
  8
DEFAULT
 62
     5
 10
-551.6792377150732
 20
105.6942216128532
 30
0.0
 42
0.0593667948164243
  0
VERTEX
  5
4A1
  8
DEFAULT
 62
     5
 10
-551.5364923909744
 20
107.5557186736077
 30
0.0
  0
SEQEND
  5
4A2
  8
DEFAULT
 62
     5
  0
POLYLINE
  5
4A3
  8
DEFAULT
 62
     5
 66
     1
 10
0.0
 20
0.0
 30
0.0
 70
     1
  0
VERTEX
  5
4A4
  8
DEFAULT
 62
     5
 10
-556.3513072057892
 20
111.4040967431907
 30
0.0
  0
VERTEX
  5
4A5
  8
DEFAULT
 62
     5
 10
-559.808097329246
 20
111.8979239036845
 30
0.0
 42
-0.1714833175990306
  0
VERTEX
  5
4A6
  8
DEFAULT
 62
     5
 10
-557.8337522662459
 20
115.1598845749684
 30
0.0
 42
-0.1608829132837439
  0
VERTEX
  5
4A7
  8
DEFAULT
 62
     5
 10
-553.6719077330731
 20
116.2189115580056
 30
0.0
 42
-0.108836427888073
  0
VERTEX
  5
4A8
  8
DEFAULT
 62
     5
 10
-549.9373403027961
 20
115.6122373371811
 30
0.0
 42
-0.1580303644335365
  0
VERTEX
  5
4A9
  8
DEFAULT
 62
     5
 10
-548.209909761958
 20
114.0709565024183
 30
0.0
 42
-0.1088017057953334
  0
VERTEX
  5
4AA
  8
DEFAULT
 62
     5
 10
-547.7093318971472
 20
110.6402093849135
 30
0.0
  0
VERTEX
  5
4AB
  8
DEFAULT
 62
     5
 10
-547.7093318971472
 20
106.1649002719808
 30
0.0
 42
0.051408021969492
  0
VERTEX
  5
4AC
  8
DEFAULT
 62
     5
 10
-547.5009982105958
 20
103.3475771377023
 30
0.0
 42
0.0692287864232104
  0
VERTEX
  5
4AD
  8
DEFAULT
 62
     5
 10
-546.7216775761595
 20
101.4040967431907
 30
0.0
  0
VERTEX
  5
4AE
  8
DEFAULT
 62
     5
 10
-550.5488380699867
 20
101.4040967431907
 30
0.0
  0
VERTEX
  5
4AF
  8
DEFAULT
 62
     5
 10
-550.9153503567961
 20
102.5229240214239
 30
0.0
  0
VERTEX
  5
4B0
  8
DEFAULT
 62
     5
 10
-551.0503795137728
 20
102.9685270212346
 30
0.0
 42
-0.0933244186737951
  0
VERTEX
  5
4B1
  8
DEFAULT
 62
     5
 10
-553.1395016207988
 20
101.5179092663265
 30
0.0
 42
-0.1040133466925804
  0
VERTEX
  5
4B2
  8
DEFAULT
 62
     5
 10
-555.5141143760225
 20
101.0337263728204
 30
0.0
 42
-0.196543035759691
  0
VERTEX
  5
4B3
  8
DEFAULT
 62
     5
 10
-559.0200950648825
 20
102.2441821937133
 30
0.0
 42
-0.2154369487651121
  0
VERTEX
  5
4B4
  8
DEFAULT
 62
     5
 10
-560.3019244897398
 20
105.3045608246776
 30
0.0
 42
-0.1373780248024451
  0
VERTEX
  5
4B5
  8
DEFAULT
 62
     5
 10
-559.7309365999402
 20
107.4882022112894
 30
0.0
 42
-0.1473783213971467
  0
VERTEX
  5
4B6
  8
DEFAULT
 62
     5
 10
-558.1308199908715
 20
108.9571449211975
 30
0.0
 42
-0.0634404934847557
  0
VERTEX
  5
4B7
  8
DEFAULT
 62
     5
 10
-555.1630344234572
 20
109.8473845160988
 30
0.0
 42
0.047200987772922
  0
VERTEX
  5
4B8
  8
DEFAULT
 62
     5
 10
-551.5364923909744
 20
110.7868127925734
 30
0.0
  0
VERTEX
  5
4B9
  8
DEFAULT
 62
     5
 10
-551.5364923909744
 20
111.1745445389684
 30
0.0
 42
0.2070921599656291
  0
VERTEX
  5
4BA
  8
DEFAULT
 62
     5
 10
-552.0486445064682
 20
112.7775537687928
 30
0.0
 42
0.1777887432708299
  0
VERTEX
  5
4BB
  8
DEFAULT
 62
     5
 10
-553.9824796920773
 20
113.2559485950425
 30
0.0
 42
0.1651091138038746
  0
VERTEX
  5
4BC
  8
DEFAULT
 62
     5
 10
-555.4803570867781
 20
112.8450692891961
 30
0.0
 42
0.149158767987774
  0
SEQEND
  5
4BD
  8
DEFAULT
 62
     5
  0
POLYLINE
  5
4BE
  8
DEFAULT
 62
     5
 66
     1
 10
0.0
 20
0.0
 30
0.0
 70
     1
  0
VERTEX
  5
4BF
  8
DEFAULT
 62
     5
 10
-566.845134366283
 20
101.4040967431907
 30
0.0
  0
VERTEX
  5
4C0
  8
DEFAULT
 62
     5
 10
-566.845134366283
 20
121.2806399530672
 30
0.0
  0
VERTEX
  5
4C1
  8
DEFAULT
 62
     5
 10
-563.0179738724559
 20
121.2806399530672
 30
0.0
  0
VERTEX
  5
4C2
  8
DEFAULT
 62
     5
 10
-563.0179738724559
 20
101.4040967431907
 30
0.0
  0
SEQEND
  5
4C3
  8
DEFAULT
 62
     5
  0
POLYLINE
  5
4C4
  8
DEFAULT
 62
     5
 66
     1
 10
0.0
 20
0.0
 30
0.0
 70
     1
  0
VERTEX
  5
4C5
  8
DEFAULT
 62
     5
 10
-581.4130356008509
 20
101.4040967431907
 30
0.0
  0
VERTEX
  5
4C6
  8
DEFAULT
 62
     5
 10
-585.2401960946781
 20
101.4040967431907
 30
0.0
  0
VERTEX
  5
4C7
  8
DEFAULT
 62
     5
 10
-585.2401960946781
 20
115.8485411876351
 30
0.0
  0
VERTEX
  5
4C8
  8
DEFAULT
 62
     5
 10
-581.6599491810978
 20
115.8485411876351
 30
0.0
  0
VERTEX
  5
4C9
  8
DEFAULT
 62
     5
 10
-581.6599491810978
 20
113.8095760507325
 30
0.0
 42
-0.0977550519460667
  0
VERTEX
  5
4CA
  8
DEFAULT
 62
     5
 10
-580.0916617614079
 20
115.7366586481948
 30
0.0
 42
-0.156172018507917
  0
VERTEX
  5
4CB
  8
DEFAULT
 62
     5
 10
-578.5118000910347
 20
116.2189115580054
 30
0.0
 42
-0.1438170981369951
  0
VERTEX
  5
4CC
  8
DEFAULT
 62
     5
 10
-576.1043936255423
 20
115.4916741097284
 30
0.0
  0
VERTEX
  5
4CD
  8
DEFAULT
 62
     5
 10
-577.2772321898002
 20
112.1409812842002
 30
0.0
 42
0.149677015188792
  0
VERTEX
  5
4CE
  8
DEFAULT
 62
     5
 10
-578.9824787501624
 20
112.7621214345486
 30
0.0
 42
0.1810970994867196
  0
VERTEX
  5
4CF
  8
DEFAULT
 62
     5
 10
-580.2758814837879
 20
112.3194138812387
 30
0.0
 42
0.150134839648762
  0
VERTEX
  5
4D0
  8
DEFAULT
 62
     5
 10
-581.1092152880786
 20
110.719298214085
 30
0.0
 42
0.0509111359642253
  0
VERTEX
  5
4D1
  8
DEFAULT
 62
     5
 10
-581.4130356008509
 20
105.8716896890014
 30
0.0
  0
SEQEND
  5
4D2
  8
DEFAULT
 62
     5
  0
POLYLINE
  5
4D3
  8
DEFAULT
 62
     5
 66
     1
 10
0.0
 20
0.0
 30
0.0
 70
     1
  0
VERTEX
  5
4D4
  8
DEFAULT
 62
     5
 10
-592.8945170823324
 20
101.4040967431907
 30
0.0
  0
VERTEX
  5
4D5
  8
DEFAULT
 62
     5
 10
-592.8945170823324
 20
115.8485411876351
 30
0.0
  0
VERTEX
  5
4D6
  8
DEFAULT
 62
     5
 10
-589.0673565885053
 20
115.8485411876351
 30
0.0
  0
VERTEX
  5
4D7
  8
DEFAULT
 62
     5
 10
-589.0673565885053
 20
101.4040967431907
 30
0.0
  0
SEQEND
  5
4D8
  8
DEFAULT
 62
     5
  0
POLYLINE
  5
4D9
  8
DEFAULT
 62
     5
 66
     1
 10
0.0
 20
0.0
 30
0.0
 70
     1
  0
VERTEX
  5
4DA
  8
DEFAULT
 62
     5
 10
-592.8945170823324
 20
117.9473066197339
 30
0.0
  0
VERTEX
  5
4DB
  8
DEFAULT
 62
     5
 10
-592.8945170823324
 20
121.2806399530672
 30
0.0
  0
VERTEX
  5
4DC
  8
DEFAULT
 62
     5
 10
-589.0673565885053
 20
121.2806399530672
 30
0.0
  0
VERTEX
  5
4DD
  8
DEFAULT
 62
     5
 10
-589.0673565885053
 20
117.9473066197339
 30
0.0
  0
SEQEND
  5
4DE
  8
DEFAULT
 62
     5
  0
POLYLINE
  5
4DF
  8
DEFAULT
 62
     5
 66
     1
 10
0.0
 20
0.0
 30
0.0
 70
     1
  0
VERTEX
  5
4E0
  8
DEFAULT
 62
     5
 10
-600.6722948601102
 20
108.3176769901043
 30
0.0
 42
-0.0261329476715183
  0
VERTEX
  5
4E1
  8
DEFAULT
 62
     5
 10
-602.900303265759
 20
107.7331867497558
 30
0.0
 42
0.0811165779560683
  0
VERTEX
  5
4E2
  8
DEFAULT
 62
     5
 10
-604.8929723418439
 20
107.0676786384553
 30
0.0
 42
0.2517191883487786
  0
VERTEX
  5
4E3
  8
DEFAULT
 62
     5
 10
-605.6105664650485
 20
105.7212281977805
 30
0.0
 42
0.2041672574556017
  0
VERTEX
  5
4E4
  8
DEFAULT
 62
     5
 10
-605.0376495334682
 20
104.3342669377997
 30
0.0
 42
0.2097521333282817
  0
VERTEX
  5
4E5
  8
DEFAULT
 62
     5
 10
-603.5773865696575
 20
103.7497757555363
 30
0.0
 42
0.1670482644845483
  0
VERTEX
  5
4E6
  8
DEFAULT
 62
     5
 10
-601.6888829239758
 20
104.4287890431304
 30
0.0
 42
0.1651612454991613
  0
VERTEX
  5
4E7
  8
DEFAULT
 62
     5
 10
-600.815040184209
 20
105.6942216128532
 30
0.0
 42
0.059366794816426
  0
VERTEX
  5
4E8
  8
DEFAULT
 62
     5
 10
-600.6722948601102
 20
107.5557186736077
 30
0.0
  0
SEQEND
  5
4E9
  8
DEFAULT
 62
     5
  0
POLYLINE
  5
4EA
  8
DEFAULT
 62
     5
 66
     1
 10
0.0
 20
0.0
 30
0.0
 70
     1
  0
VERTEX
  5
4EB
  8
DEFAULT
 62
     5
 10
-605.487109674925
 20
111.4040967431907
 30
0.0
  0
VERTEX
  5
4EC
  8
DEFAULT
 62
     5
 10
-608.9438997983818
 20
111.8979239036845
 30
0.0
 42
-0.1714833175990279
  0
VERTEX
  5
4ED
  8
DEFAULT
 62
     5
 10
-606.9695547353817
 20
115.1598845749683
 30
0.0
 42
-0.1608829132837539
  0
VERTEX
  5
4EE
  8
DEFAULT
 62
     5
 10
-602.8077102022089
 20
116.2189115580054
 30
0.0
 42
-0.1088364278881022
  0
VERTEX
  5
4EF
  8
DEFAULT
 62
     5
 10
-599.0731427719319
 20
115.6122373371811
 30
0.0
 42
-0.158030364433521
  0
VERTEX
  5
4F0
  8
DEFAULT
 62
     5
 10
-597.3457122310938
 20
114.0709565024183
 30
0.0
 42
-0.1088017057953334
  0
VERTEX
  5
4F1
  8
DEFAULT
 62
     5
 10
-596.845134366283
 20
110.6402093849135
 30
0.0
  0
VERTEX
  5
4F2
  8
DEFAULT
 62
     5
 10
-596.845134366283
 20
106.1649002719808
 30
0.0
 42
0.0514080219694954
  0
VERTEX
  5
4F3
  8
DEFAULT
 62
     5
 10
-596.6368006797316
 20
103.3475771377023
 30
0.0
 42
0.0692287864232334
  0
VERTEX
  5
4F4
  8
DEFAULT
 62
     5
 10
-595.8574800452955
 20
101.4040967431907
 30
0.0
  0
VERTEX
  5
4F5
  8
DEFAULT
 62
     5
 10
-599.6846405391225
 20
101.4040967431907
 30
0.0
  0
VERTEX
  5
4F6
  8
DEFAULT
 62
     5
 10
-600.0511528259319
 20
102.5229240214239
 30
0.0
  0
VERTEX
  5
4F7
  8
DEFAULT
 62
     5
 10
-600.1861819829086
 20
102.9685270212346
 30
0.0
 42
-0.0933244186737959
  0
VERTEX
  5
4F8
  8
DEFAULT
 62
     5
 10
-602.2753040899346
 20
101.5179092663265
 30
0.0
 42
-0.1040133466925792
  0
VERTEX
  5
4F9
  8
DEFAULT
 62
     5
 10
-604.6499168451583
 20
101.0337263728202
 30
0.0
 42
-0.1965430357596605
  0
VERTEX
  5
4FA
  8
DEFAULT
 62
     5
 10
-608.1558975340183
 20
102.2441821937133
 30
0.0
 42
-0.2154369487651157
  0
VERTEX
  5
4FB
  8
DEFAULT
 62
     5
 10
-609.4377269588756
 20
105.3045608246776
 30
0.0
 42
-0.137378024802419
  0
VERTEX
  5
4FC
  8
DEFAULT
 62
     5
 10
-608.8667390690758
 20
107.4882022112894
 30
0.0
 42
-0.1473783213971621
  0
VERTEX
  5
4FD
  8
DEFAULT
 62
     5
 10
-607.2666224600073
 20
108.9571449211976
 30
0.0
 42
-0.0634404934847367
  0
VERTEX
  5
4FE
  8
DEFAULT
 62
     5
 10
-604.298836892593
 20
109.8473845160988
 30
0.0
 42
0.047200987772922
  0
VERTEX
  5
4FF
  8
DEFAULT
 62
     5
 10
-600.6722948601102
 20
110.7868127925734
 30
0.0
  0
VERTEX
  5
500
  8
DEFAULT
 62
     5
 10
-600.6722948601104
 20
111.1745445389684
 30
0.0
 42
0.2070921599656226
  0
VERTEX
  5
501
  8
DEFAULT
 62
     5
 10
-601.184446975604
 20
112.7775537687928
 30
0.0
 42
0.1777887432707997
  0
VERTEX
  5
502
  8
DEFAULT
 62
     5
 10
-603.1182821612131
 20
113.2559485950425
 30
0.0
 42
0.1651091138038379
  0
VERTEX
  5
503
  8
DEFAULT
 62
     5
 10
-604.616159555914
 20
112.8450692891961
 30
0.0
 42
0.1491587679877581
  0
SEQEND
  5
504
  8
DEFAULT
 62
     5
  0
POLYLINE
  5
505
  8
DEFAULT
 62
     5
 66
     1
 10
0.0
 20
0.0
 30
0.0
 70
     1
  0
VERTEX
  5
506
  8
DEFAULT
 62
     5
 10
-621.4130356008509
 20
121.2806399530672
 30
0.0
  0
VERTEX
  5
507
  8
DEFAULT
 62
     5
 10
-621.4130356008509
 20
114.0719219652236
 30
0.0
 42
-0.2297604469665502
  0
VERTEX
  5
508
  8
DEFAULT
 62
     5
 10
-617.0264605259922
 20
116.2189115580055
 30
0.0
 42
-0.1105861482598426
  0
VERTEX
  5
509
  8
DEFAULT
 62
     5
 10
-614.6643856004271
 20
115.7279779601825
 30
0.0
 42
-0.1329990183628671
  0
VERTEX
  5
50A
  8
DEFAULT
 62
     5
 10
-613.0787368047124
 20
114.4731560621674
 30
0.0
 42
-0.1017582537501711
  0
VERTEX
  5
50B
  8
DEFAULT
 62
     5
 10
-612.3495703146548
 20
112.7814127942688
 30
0.0
 42
-0.0473229415075311
  0
VERTEX
  5
50C
  8
DEFAULT
 62
     5
 10
-612.1537763415917
 20
109.9033267277339
 30
0.0
  0
VERTEX
  5
50D
  8
DEFAULT
 62
     5
 10
-612.1537763415917
 20
101.4040967431907
 30
0.0
  0
VERTEX
  5
50E
  8
DEFAULT
 62
     5
 10
-615.9809368354188
 20
101.4040967431907
 30
0.0
  0
VERTEX
  5
50F
  8
DEFAULT
 62
     5
 10
-615.9809368354188
 20
109.0372001550891
 30
0.0
 42
0.0632012682017625
  0
VERTEX
  5
510
  8
DEFAULT
 62
     5
 10
-616.1950567053968
 20
111.922036925941
 30
0.0
 42
0.168174671924628
  0
VERTEX
  5
511
  8
DEFAULT
 62
     5
 10
-616.9531578802473
 20
112.8952234335747
 30
0.0
 42
0.1491915597585516
  0
VERTEX
  5
512
  8
DEFAULT
 62
     5
 10
-618.3150415970814
 20
113.2559485950426
 30
0.0
 42
0.1438663844542959
  0
VERTEX
  5
513
  8
DEFAULT
 62
     5
 10
-619.9913525307356
 20
112.7929861030369
 30
0.0
 42
0.1700128950902001
  0
VERTEX
  5
514
  8
DEFAULT
 62
     5
 10
-621.0706353943832
 20
111.398310559764
 30
0.0
 42
0.0829006645175074
  0
VERTEX
  5
515
  8
DEFAULT
 62
     5
 10
-621.4130356008509
 20
108.6436812833525
 30
0.0
  0
VERTEX
  5
516
  8
DEFAULT
 62
     5
 10
-621.4130356008509
 20
101.4040967431907
 30
0.0
  0
VERTEX
  5
517
  8
DEFAULT
 62
     5
 10
-625.2401960946781
 20
101.4040967431907
 30
0.0
  0
VERTEX
  5
518
  8
DEFAULT
 62
     5
 10
-625.2401960946781
 20
121.2806399530672
 30
0.0
  0
SEQEND
  5
519
  8
DEFAULT
 62
     5
  0
POLYLINE
  5
51A
  8
DEFAULT
 62
     5
 66
     1
 10
0.0
 20
0.0
 30
0.0
 70
     1
  0
VERTEX
  5
51B
  8
DEFAULT
 62
     5
 10
-628.2031590576411
 20
111.6510103234376
 30
0.0
  0
VERTEX
  5
51C
  8
DEFAULT
 62
     5
 10
-632.0303195514682
 20
111.0337263728203
 30
0.0
 42
0.1809968098175693
  0
VERTEX
  5
51D
  8
DEFAULT
 62
     5
 10
-632.8848709315149
 20
112.6975004187312
 30
0.0
 42
0.1804760167670505
  0
VERTEX
  5
51E
  8
DEFAULT
 62
     5
 10
-634.6132669351582
 20
113.2559485950426
 30
0.0
 42
0.2329674834671318
  0
VERTEX
  5
51F
  8
DEFAULT
 62
     5
 10
-636.8682819257343
 20
112.2528628817256
 30
0.0
 42
0.1695179555120593
  0
VERTEX
  5
520
  8
DEFAULT
 62
     5
 10
-637.7093318971472
 20
108.896381988941
 30
0.0
 42
0.1610966817175047
  0
VERTEX
  5
521
  8
DEFAULT
 62
     5
 10
-636.8480269870389
 20
105.1994289895542
 30
0.0
 42
0.2405540491094238
  0
VERTEX
  5
522
  8
DEFAULT
 62
     5
 10
-634.5361052639373
 20
104.1201461259068
 30
0.0
 42
0.1883458441869388
  0
VERTEX
  5
523
  8
DEFAULT
 62
     5
 10
-632.7604496205012
 20
104.7316438930974
 30
0.0
 42
0.1622604489947316
  0
VERTEX
  5
524
  8
DEFAULT
 62
     5
 10
-631.7834059712213
 20
106.8361955086228
 30
0.0
  0
VERTEX
  5
525
  8
DEFAULT
 62
     5
 10
-627.9562454773941
 20
106.3423683481289
 30
0.0
 42
-0.1724509721436027
  0
VERTEX
  5
526
  8
DEFAULT
 62
     5
 10
-630.1919700501651
 20
102.3743906300685
 30
0.0
 42
-0.1746967243539272
  0
VERTEX
  5
527
  8
DEFAULT
 62
     5
 10
-634.6248393020114
 20
101.0337263728203
 30
0.0
 42
-0.2163976905724208
  0
VERTEX
  5
528
  8
DEFAULT
 62
     5
 10
-639.6595629959758
 20
103.0447222877352
 30
0.0
 42
-0.1943870566321239
  0
VERTEX
  5
529
  8
DEFAULT
 62
     5
 10
-641.5364923909744
 20
108.6128166148642
 30
0.0
 42
-0.1945054615972518
  0
VERTEX
  5
52A
  8
DEFAULT
 62
     5
 10
-639.660527516866
 20
114.2146682312373
 30
0.0
 42
-0.2157801631579652
  0
VERTEX
  5
52B
  8
DEFAULT
 62
     5
 10
-634.5862603502309
 20
116.2189115580056
 30
0.0
 42
-0.1599423076957961
  0
VERTEX
  5
52C
  8
DEFAULT
 62
     5
 10
-630.4234512961679
 20
115.0904400127847
 30
0.0
 42
-0.1682635697126383
  0
SEQEND
  5
52D
  8
DEFAULT
 62
     5
  0
POLYLINE
  5
52E
  8
DEFAULT
 62
     5
 66
     1
 10
0.0
 20
0.0
 30
0.0
 70
     1
  0
VERTEX
  5
52F
  8
DEFAULT
 62
     5
 10
-652.1537763415917
 20
101.4040967431907
 30
0.0
  0
VERTEX
  5
530
  8
DEFAULT
 62
     5
 10
-655.9809368354188
 20
101.4040967431907
 30
0.0
  0
VERTEX
  5
531
  8
DEFAULT
 62
     5
 10
-655.9809368354188
 20
108.7787123241591
 30
0.0
 42
0.0659043403441872
  0
VERTEX
  5
532
  8
DEFAULT
 62
     5
 10
-656.2220632903242
 20
111.8072617657448
 30
0.0
 42
0.1600130695765348
  0
VERTEX
  5
533
  8
DEFAULT
 62
     5
 10
-657.0052420083213
 20
112.8749694367942
 30
0.0
 42
0.1575149176298861
  0
VERTEX
  5
534
  8
DEFAULT
 62
     5
 10
-658.3092544717398
 20
113.2559485950426
 30
0.0
 42
0.1576987046345159
  0
VERTEX
  5
535
  8
DEFAULT
 62
     5
 10
-660.0617616138097
 20
112.7119672901701
 30
0.0
 42
0.168437182261708
  0
VERTEX
  5
536
  8
DEFAULT
 62
     5
 10
-661.1256121432131
 20
111.2700311651893
 30
0.0
 42
0.0659809918576428
  0
VERTEX
  5
537
  8
DEFAULT
 62
     5
 10
-661.4130356008509
 20
107.9492356615144
 30
0.0
  0
VERTEX
  5
538
  8
DEFAULT
 62
     5
 10
-661.4130356008509
 20
101.4040967431907
 30
0.0
  0
VERTEX
  5
539
  8
DEFAULT
 62
     5
 10
-665.2401960946781
 20
101.4040967431907
 30
0.0
  0
VERTEX
  5
53A
  8
DEFAULT
 62
     5
 10
-665.2401960946781
 20
115.8485411876351
 30
0.0
  0
VERTEX
  5
53B
  8
DEFAULT
 62
     5
 10
-661.6599491810978
 20
115.8485411876351
 30
0.0
  0
VERTEX
  5
53C
  8
DEFAULT
 62
     5
 10
-661.6599491810978
 20
113.7420614722441
 30
0.0
 42
-0.2486296121988405
  0
VERTEX
  5
53D
  8
DEFAULT
 62
     5
 10
-656.9531588221623
 20
116.2189115580056
 30
0.0
 42
-0.1053164015607509
  0
VERTEX
  5
53E
  8
DEFAULT
 62
     5
 10
-654.6682436839881
 20
115.7617361913415
 30
0.0
 42
-0.1292191717088465
  0
VERTEX
  5
53F
  8
DEFAULT
 62
     5
 10
-653.1018853060785
 20
114.5956483314006
 30
0.0
 42
-0.1054932374262569
  0
VERTEX
  5
540
  8
DEFAULT
 62
     5
 10
-652.3621090862282
 20
112.9858874553443
 30
0.0
 42
-0.0533641385177038
  0
VERTEX
  5
541
  8
DEFAULT
 62
     5
 10
-652.1537763415917
 20
110.4067990971303
 30
0.0
  0
SEQEND
  5
542
  8
DEFAULT
 62
     5
  0
POLYLINE
  5
543
  8
DEFAULT
 62
     5
 66
     1
 10
0.0
 20
0.0
 30
0.0
 70
     1
  0
VERTEX
  5
544
  8
DEFAULT
 62
     5
 10
-683.959331190711
 20
101.4040967431907
 30
0.0
  0
VERTEX
  5
545
  8
DEFAULT
 62
     5
 10
-688.5735294280114
 20
115.8485411876351
 30
0.0
  0
VERTEX
  5
546
  8
DEFAULT
 62
     5
 10
-684.8254577633558
 20
115.8485411876351
 30
0.0
  0
VERTEX
  5
547
  8
DEFAULT
 62
     5
 10
-682.092047004615
 20
106.3828782255199
 30
0.0
  0
VERTEX
  5
548
  8
DEFAULT
 62
     5
 10
-679.5264609969497
 20
115.8485411876351
 30
0.0
  0
VERTEX
  5
549
  8
DEFAULT
 62
     5
 10
-675.8169701679044
 20
115.8485411876351
 30
0.0
  0
VERTEX
  5
54A
  8
DEFAULT
 62
     5
 10
-673.4500716959731
 20
106.3828782255199
 30
0.0
  0
VERTEX
  5
54B
  8
DEFAULT
 62
     5
 10
-670.7089447701102
 20
115.8485411876351
 30
0.0
  0
VERTEX
  5
54C
  8
DEFAULT
 62
     5
 10
-666.9685911564065
 20
115.8485411876351
 30
0.0
  0
VERTEX
  5
54D
  8
DEFAULT
 62
     5
 10
-671.5731423009744
 20
101.4040967431907
 30
0.0
  0
VERTEX
  5
54E
  8
DEFAULT
 62
     5
 10
-675.2016152590677
 20
101.4040967431907
 30
0.0
  0
VERTEX
  5
54F
  8
DEFAULT
 62
     5
 10
-677.6476025601705
 20
110.6942206709383
 30
0.0
  0
VERTEX
  5
550
  8
DEFAULT
 62
     5
 10
-680.1707515324943
 20
101.4040967431907
 30
0.0
  0
SEQEND
  5
551
  8
DEFAULT
 62
     5
  0
POLYLINE
  5
552
  8
DEFAULT
 62
     5
 66
     1
 10
0.0
 20
0.0
 30
0.0
 70
     1
  0
VERTEX
  5
553
  8
DEFAULT
 62
     5
 10
-700.6722948601102
 20
108.6263199073278
 30
0.0
 42
0.1807696907208542
  0
VERTEX
  5
554
  8
DEFAULT
 62
     5
 10
-699.6730662884394
 20
105.2814123233113
 30
0.0
 42
0.2292871242715198
  0
VERTEX
  5
555
  8
DEFAULT
 62
     5
 10
-697.2097176113118
 20
104.1201461259067
 30
0.0
 42
0.2303193461660737
  0
VERTEX
  5
556
  8
DEFAULT
 62
     5
 10
-694.7511905967204
 20
105.2814123233113
 30
0.0
 42
0.1794408075869417
  0
VERTEX
  5
557
  8
DEFAULT
 62
     5
 10
-693.7587146131966
 20
108.6533264922551
 30
0.0
 42
0.1800932450793705
  0
VERTEX
  5
558
  8
DEFAULT
 62
     5
 10
-694.7511905967204
 20
111.9712265494294
 30
0.0
 42
0.2303192267206421
  0
VERTEX
  5
559
  8
DEFAULT
 62
     5
 10
-697.2097176113118
 20
113.1324918049189
 30
0.0
 42
0.2292870050707829
  0
VERTEX
  5
55A
  8
DEFAULT
 62
     5
 10
-699.6730662884395
 20
111.9712265494294
 30
0.0
 42
0.1807697890868614
  0
SEQEND
  5
55B
  8
DEFAULT
 62
     5
  0
POLYLINE
  5
55C
  8
DEFAULT
 62
     5
 66
     1
 10
0.0
 20
0.0
 30
0.0
 70
     1
  0
VERTEX
  5
55D
  8
DEFAULT
 62
     5
 10
-704.4994553539374
 20
108.8307945684033
 30
0.0
 42
-0.1222574291832596
  0
VERTEX
  5
55E
  8
DEFAULT
 62
     5
 10
-703.5667777817796
 20
112.5383572975829
 30
0.0
 42
-0.1509199207836141
  0
VERTEX
  5
55F
  8
DEFAULT
 62
     5
 10
-700.9240301028934
 20
115.2746606770796
 30
0.0
 42
-0.1287246067143989
  0
VERTEX
  5
560
  8
DEFAULT
 62
     5
 10
-697.1055493551637
 20
116.2189115580055
 30
0.0
 42
-0.2109274079128423
  0
VERTEX
  5
561
  8
DEFAULT
 62
     5
 10
-691.7660445951966
 20
114.0777081486502
 30
0.0
 42
-0.2026212639801916
  0
VERTEX
  5
562
  8
DEFAULT
 62
     5
 10
-689.6846405391225
 20
108.6668297847188
 30
0.0
 42
-0.2022295973323084
  0
VERTEX
  5
563
  8
DEFAULT
 62
     5
 10
-691.786298591977
 20
103.2019363671028
 30
0.0
 42
-0.2115506096600903
  0
VERTEX
  5
564
  8
DEFAULT
 62
     5
 10
-697.0785446540663
 20
101.0337263728204
 30
0.0
 42
-0.1188796278362377
  0
VERTEX
  5
565
  8
DEFAULT
 62
     5
 10
-700.8430122319414
 20
101.9365047392948
 30
0.0
 42
-0.1582355798320184
  0
VERTEX
  5
566
  8
DEFAULT
 62
     5
 10
-703.5667777817796
 20
104.5840750226324
 30
0.0
 42
-0.1239053267140266
  0
SEQEND
  5
567
  8
DEFAULT
 62
     5
  0
POLYLINE
  5
568
  8
DEFAULT
 62
     5
 66
     1
 10
0.0
 20
0.0
 30
0.0
 70
     1
  0
VERTEX
  5
569
  8
DEFAULT
 62
     5
 10
-717.5858751070238
 20
108.8944529471605
 30
0.0
 42
0.1276841436789029
  0
VERTEX
  5
56A
  8
DEFAULT
 62
     5
 10
-716.9570169057232
 20
105.5109645275336
 30
0.0
 42
0.282075680087895
  0
VERTEX
  5
56B
  8
DEFAULT
 62
     5
 10
-714.4107194320334
 20
103.9966893357832
 30
0.0
 42
0.2392668132723685
  0
VERTEX
  5
56C
  8
DEFAULT
 62
     5
 10
-712.2000724024092
 20
105.1319134691508
 30
0.0
 42
0.1689742320291622
  0
VERTEX
  5
56D
  8
DEFAULT
 62
     5
 10
-711.2895788107276
 20
108.5240825767901
 30
0.0
 42
0.163806851263277
  0
VERTEX
  5
56E
  8
DEFAULT
 62
     5
 10
-712.1740303383723
 20
112.1486955674925
 30
0.0
 42
0.2405029912267989
  0
VERTEX
  5
56F
  8
DEFAULT
 62
     5
 10
-714.4377260169607
 20
113.2559485950424
 30
0.0
 42
0.2351273436094579
  0
VERTEX
  5
570
  8
DEFAULT
 62
     5
 10
-716.6811676987686
 20
112.1621988599561
 30
0.0
 42
0.1734205701458986
  0
SEQEND
  5
571
  8
DEFAULT
 62
     5
  0
POLYLINE
  5
572
  8
DEFAULT
 62
     5
 66
     1
 10
0.0
 20
0.0
 30
0.0
 70
     1
  0
VERTEX
  5
573
  8
DEFAULT
 62
     5
 10
-707.4624183169003
 20
101.4040967431907
 30
0.0
  0
VERTEX
  5
574
  8
DEFAULT
 62
     5
 10
-711.0426652304806
 20
101.4040967431907
 30
0.0
  0
VERTEX
  5
575
  8
DEFAULT
 62
     5
 10
-711.0426652304806
 20
103.5105783424115
 30
0.0
 42
-0.1195257890911978
  0
VERTEX
  5
576
  8
DEFAULT
 62
     5
 10
-713.0941681970417
 20
101.6577619696694
 30
0.0
 42
-0.1234715217774124
  0
VERTEX
  5
577
  8
DEFAULT
 62
     5
 10
-715.4793935078029
 20
101.0337263728203
 30
0.0
 42
-0.2283648896821288
  0
VERTEX
  5
578
  8
DEFAULT
 62
     5
 10
-719.6692082048783
 20
103.0514739339671
 30
0.0
 42
-0.1826315182993571
  0
VERTEX
  5
579
  8
DEFAULT
 62
     5
 10
-721.4130356008509
 20
108.6803330771824
 30
0.0
 42
-0.1842914998158377
  0
VERTEX
  5
57A
  8
DEFAULT
 62
     5
 10
-719.7126107030252
 20
114.2966515649945
 30
0.0
 42
-0.2252478569574944
  0
VERTEX
  5
57B
  8
DEFAULT
 62
     5
 10
-715.4138060872652
 20
116.2189115580054
 30
0.0
 42
-0.2270824258515767
  0
VERTEX
  5
57C
  8
DEFAULT
 62
     5
 10
-711.2895788107274
 20
114.2204562984937
 30
0.0
  0
VERTEX
  5
57D
  8
DEFAULT
 62
     5
 10
-711.2895788107274
 20
121.2806399530672
 30
0.0
  0
VERTEX
  5
57E
  8
DEFAULT
 62
     5
 10
-707.4624183169003
 20
121.2806399530672
 30
0.0
  0
SEQEND
  5
57F
  8
DEFAULT
 62
     5
  0
POLYLINE
  5
580
  8
DEFAULT
 62
     5
 66
     1
 10
0.0
 20
0.0
 30
0.0
 70
     1
  0
VERTEX
  5
581
  8
DEFAULT
 62
     5
 10
-743.6352578230732
 20
101.4040967431907
 30
0.0
  0
VERTEX
  5
582
  8
DEFAULT
 62
     5
 10
-743.6352578230732
 20
121.2806399530672
 30
0.0
  0
VERTEX
  5
583
  8
DEFAULT
 62
     5
 10
-739.808097329246
 20
121.2806399530672
 30
0.0
  0
VERTEX
  5
584
  8
DEFAULT
 62
     5
 10
-739.808097329246
 20
110.7617371332565
 30
0.0
  0
VERTEX
  5
585
  8
DEFAULT
 62
     5
 10
-735.4253803379484
 20
115.8485411876351
 30
0.0
  0
VERTEX
  5
586
  8
DEFAULT
 62
     5
 10
-730.734022313257
 20
115.8485411876351
 30
0.0
  0
VERTEX
  5
587
  8
DEFAULT
 62
     5
 10
-735.6993005031226
 20
110.4762427173992
 30
0.0
  0
VERTEX
  5
588
  8
DEFAULT
 62
     5
 10
-730.48710873301
 20
101.4040967431907
 30
0.0
  0
VERTEX
  5
589
  8
DEFAULT
 62
     5
 10
-734.5611828070842
 20
101.4040967431907
 30
0.0
  0
VERTEX
  5
58A
  8
DEFAULT
 62
     5
 10
-738.154933013128
 20
107.8161355463182
 30
0.0
  0
VERTEX
  5
58B
  8
DEFAULT
 62
     5
 10
-739.808097329246
 20
106.0279401893937
 30
0.0
  0
VERTEX
  5
58C
  8
DEFAULT
 62
     5
 10
-739.808097329246
 20
101.4040967431907
 30
0.0
  0
SEQEND
  5
58D
  8
DEFAULT
 62
     5
  0
POLYLINE
  5
58E
  8
DEFAULT
 62
     5
 66
     1
 10
0.0
 20
0.0
 30
0.0
 70
     1
  0
VERTEX
  5
58F
  8
DEFAULT
 62
     5
 10
-746.5982207860361
 20
111.6510103234376
 30
0.0
  0
VERTEX
  5
590
  8
DEFAULT
 62
     5
 10
-750.4253812798632
 20
111.0337263728203
 30
0.0
 42
0.1809968098175538
  0
VERTEX
  5
591
  8
DEFAULT
 62
     5
 10
-751.27993265991
 20
112.6975004187311
 30
0.0
 42
0.1804760167669766
  0
VERTEX
  5
592
  8
DEFAULT
 62
     5
 10
-753.0083286635532
 20
113.2559485950425
 30
0.0
 42
0.2329674834671517
  0
VERTEX
  5
593
  8
DEFAULT
 62
     5
 10
-755.2633436541295
 20
112.2528628817257
 30
0.0
 42
0.1695179555119853
  0
VERTEX
  5
594
  8
DEFAULT
 62
     5
 10
-756.1043936255422
 20
108.896381988941
 30
0.0
 42
0.1610966817175036
  0
VERTEX
  5
595
  8
DEFAULT
 62
     5
 10
-755.2430887154339
 20
105.1994289895542
 30
0.0
 42
0.2405540491093905
  0
VERTEX
  5
596
  8
DEFAULT
 62
     5
 10
-752.9311669923325
 20
104.1201461259066
 30
0.0
 42
0.1883458441868976
  0
VERTEX
  5
597
  8
DEFAULT
 62
     5
 10
-751.1555113488962
 20
104.7316438930974
 30
0.0
 42
0.1622604489948328
  0
VERTEX
  5
598
  8
DEFAULT
 62
     5
 10
-750.1784676996164
 20
106.8361955086228
 30
0.0
  0
VERTEX
  5
599
  8
DEFAULT
 62
     5
 10
-746.3513072057892
 20
106.3423683481289
 30
0.0
 42
-0.1724509721436151
  0
VERTEX
  5
59A
  8
DEFAULT
 62
     5
 10
-748.5870317785601
 20
102.3743906300686
 30
0.0
 42
-0.174696724353927
  0
VERTEX
  5
59B
  8
DEFAULT
 62
     5
 10
-753.0199010304065
 20
101.0337263728203
 30
0.0
 42
-0.2163976905724526
  0
VERTEX
  5
59C
  8
DEFAULT
 62
     5
 10
-758.0546247243707
 20
103.0447222877353
 30
0.0
 42
-0.194387056632128
  0
VERTEX
  5
59D
  8
DEFAULT
 62
     5
 10
-759.9315541193695
 20
108.6128166148642
 30
0.0
 42
-0.1945054615972597
  0
VERTEX
  5
59E
  8
DEFAULT
 62
     5
 10
-758.0555892452611
 20
114.2146682312373
 30
0.0
 42
-0.215780163157973
  0
VERTEX
  5
59F
  8
DEFAULT
 62
     5
 10
-752.9813220786259
 20
116.2189115580056
 30
0.0
 42
-0.1599423076957961
  0
VERTEX
  5
5A0
  8
DEFAULT
 62
     5
 10
-748.8185130245629
 20
115.0904400127847
 30
0.0
 42
-0.1682635697126465
  0
SEQEND
  5
5A1
  8
DEFAULT
 62
     5
  0
POLYLINE
  5
5A2
  8
DEFAULT
 62
     5
 66
     1
 10
0.0
 20
0.0
 30
0.0
 70
     1
  0
VERTEX
  5
5A3
  8
DEFAULT
 62
     5
 10
-773.0179738724559
 20
108.6263199073278
 30
0.0
 42
0.1807696907208091
  0
VERTEX
  5
5A4
  8
DEFAULT
 62
     5
 10
-772.0187453007852
 20
105.2814123233114
 30
0.0
 42
0.2292871242715368
  0
VERTEX
  5
5A5
  8
DEFAULT
 62
     5
 10
-769.5553966236575
 20
104.1201461259066
 30
0.0
 42
0.2303193461660497
  0
VERTEX
  5
5A6
  8
DEFAULT
 62
     5
 10
-767.0968696090663
 20
105.2814123233113
 30
0.0
 42
0.1794408075869243
  0
VERTEX
  5
5A7
  8
DEFAULT
 62
     5
 10
-766.1043936255422
 20
108.6533264922551
 30
0.0
 42
0.1800932450793483
  0
VERTEX
  5
5A8
  8
DEFAULT
 62
     5
 10
-767.0968696090663
 20
111.9712265494294
 30
0.0
 42
0.2303192267206436
  0
VERTEX
  5
5A9
  8
DEFAULT
 62
     5
 10
-769.5553966236575
 20
113.132491804919
 30
0.0
 42
0.2292870050707779
  0
VERTEX
  5
5AA
  8
DEFAULT
 62
     5
 10
-772.0187453007852
 20
111.9712265494293
 30
0.0
 42
0.1807697890868326
  0
SEQEND
  5
5AB
  8
DEFAULT
 62
     5
  0
POLYLINE
  5
5AC
  8
DEFAULT
 62
     5
 66
     1
 10
0.0
 20
0.0
 30
0.0
 70
     1
  0
VERTEX
  5
5AD
  8
DEFAULT
 62
     5
 10
-776.845134366283
 20
108.8307945684033
 30
0.0
 42
-0.1222574291832899
  0
VERTEX
  5
5AE
  8
DEFAULT
 62
     5
 10
-775.9124567941253
 20
112.538357297583
 30
0.0
 42
-0.1509199207836141
  0
VERTEX
  5
5AF
  8
DEFAULT
 62
     5
 10
-773.2697091152392
 20
115.2746606770796
 30
0.0
 42
-0.1287246067143991
  0
VERTEX
  5
5B0
  8
DEFAULT
 62
     5
 10
-769.4512283675094
 20
116.2189115580055
 30
0.0
 42
-0.21092740791283
  0
VERTEX
  5
5B1
  8
DEFAULT
 62
     5
 10
-764.1117236075423
 20
114.0777081486502
 30
0.0
 42
-0.2026212639801962
  0
VERTEX
  5
5B2
  8
DEFAULT
 62
     5
 10
-762.0303195514682
 20
108.6668297847188
 30
0.0
 42
-0.2022295973322981
  0
VERTEX
  5
5B3
  8
DEFAULT
 62
     5
 10
-764.1319776043229
 20
103.2019363671029
 30
0.0
 42
-0.2115506096600945
  0
VERTEX
  5
5B4
  8
DEFAULT
 62
     5
 10
-769.424223666412
 20
101.0337263728203
 30
0.0
 42
-0.1188796278362239
  0
VERTEX
  5
5B5
  8
DEFAULT
 62
     5
 10
-773.1886912442872
 20
101.9365047392949
 30
0.0
 42
-0.1582355798320156
  0
VERTEX
  5
5B6
  8
DEFAULT
 62
     5
 10
-775.9124567941253
 20
104.5840750226323
 30
0.0
 42
-0.1239053267140544
  0
SEQEND
  5
5B7
  8
DEFAULT
 62
     5
  0
POLYLINE
  5
5B8
  8
DEFAULT
 62
     5
 66
     1
 10
0.0
 20
0.0
 30
0.0
 70
     1
  0
VERTEX
  5
5B9
  8
DEFAULT
 62
     5
 10
-779.8080973292459
 20
101.4040967431907
 30
0.0
  0
VERTEX
  5
5BA
  8
DEFAULT
 62
     5
 10
-783.6352578230732
 20
101.4040967431907
 30
0.0
  0
VERTEX
  5
5BB
  8
DEFAULT
 62
     5
 10
-783.6352578230732
 20
108.7787123241591
 30
0.0
 42
0.0659043403442164
  0
VERTEX
  5
5BC
  8
DEFAULT
 62
     5
 10
-783.8763842779786
 20
111.8072617657448
 30
0.0
 42
0.1600130695765347
  0
VERTEX
  5
5BD
  8
DEFAULT
 62
     5
 10
-784.6595629959758
 20
112.8749694367943
 30
0.0
 42
0.1575149176297648
  0
VERTEX
  5
5BE
  8
DEFAULT
 62
     5
 10
-785.9635754593942
 20
113.2559485950426
 30
0.0
 42
0.1576987046345322
  0
VERTEX
  5
5BF
  8
DEFAULT
 62
     5
 10
-787.7160826014641
 20
112.7119672901701
 30
0.0
 42
0.1684371822617972
  0
VERTEX
  5
5C0
  8
DEFAULT
 62
     5
 10
-788.7799331308673
 20
111.2700311651893
 30
0.0
 42
0.0659809918576853
  0
VERTEX
  5
5C1
  8
DEFAULT
 62
     5
 10
-789.0673565885053
 20
107.9492356615144
 30
0.0
  0
VERTEX
  5
5C2
  8
DEFAULT
 62
     5
 10
-789.0673565885053
 20
101.4040967431907
 30
0.0
  0
VERTEX
  5
5C3
  8
DEFAULT
 62
     5
 10
-792.8945170823324
 20
101.4040967431907
 30
0.0
  0
VERTEX
  5
5C4
  8
DEFAULT
 62
     5
 10
-792.8945170823324
 20
115.8485411876351
 30
0.0
  0
VERTEX
  5
5C5
  8
DEFAULT
 62
     5
 10
-789.3142701687522
 20
115.8485411876351
 30
0.0
  0
VERTEX
  5
5C6
  8
DEFAULT
 62
     5
 10
-789.3142701687522
 20
113.7420614722441
 30
0.0
 42
-0.2486296121988452
  0
VERTEX
  5
5C7
  8
DEFAULT
 62
     5
 10
-784.6074798098166
 20
116.2189115580055
 30
0.0
 42
-0.1053164015608162
  0
VERTEX
  5
5C8
  8
DEFAULT
 62
     5
 10
-782.3225646716425
 20
115.7617361913415
 30
0.0
 42
-0.1292191717088406
  0
VERTEX
  5
5C9
  8
DEFAULT
 62
     5
 10
-780.756206293733
 20
114.5956483314005
 30
0.0
 42
-0.1054932374261991
  0
VERTEX
  5
5CA
  8
DEFAULT
 62
     5
 10
-780.0164300738825
 20
112.9858874553443
 30
0.0
 42
-0.0533641385177068
  0
VERTEX
  5
5CB
  8
DEFAULT
 62
     5
 10
-779.8080973292459
 20
110.4067990971303
 30
0.0
  0
SEQEND
  5
5CC
  8
DEFAULT
 62
     5
  0
POLYLINE
  5
5CD
  8
DEFAULT
 62
     5
 66
     1
 10
0.0
 20
0.0
 30
0.0
 70
     1
  0
VERTEX
  5
5CE
  8
DEFAULT
 62
     5
 10
-812.8945170823324
 20
101.4040967431907
 30
0.0
  0
VERTEX
  5
5CF
  8
DEFAULT
 62
     5
 10
-812.8945170823324
 20
121.2806399530672
 30
0.0
  0
VERTEX
  5
5D0
  8
DEFAULT
 62
     5
 10
-808.8204430082583
 20
121.2806399530672
 30
0.0
  0
VERTEX
  5
5D1
  8
DEFAULT
 62
     5
 10
-808.8204430082583
 20
112.5807952748395
 30
0.0
  0
VERTEX
  5
5D2
  8
DEFAULT
 62
     5
 10
-800.6800091434023
 20
121.2806399530672
 30
0.0
  0
VERTEX
  5
5D3
  8
DEFAULT
 62
     5
 10
-795.3019235478249
 20
121.2806399530672
 30
0.0
  0
VERTEX
  5
5D4
  8
DEFAULT
 62
     5
 10
-802.8192844528921
 20
113.5761657629492
 30
0.0
  0
VERTEX
  5
5D5
  8
DEFAULT
 62
     5
 10
-794.9315531774545
 20
101.4040967431907
 30
0.0
  0
VERTEX
  5
5D6
  8
DEFAULT
 62
     5
 10
-800.2016143171527
 20
101.4040967431907
 30
0.0
  0
VERTEX
  5
5D7
  8
DEFAULT
 62
     5
 10
-805.6317840408043
 20
110.6903625873772
 30
0.0
  0
VERTEX
  5
5D8
  8
DEFAULT
 62
     5
 10
-808.8204430082583
 20
107.4226166745816
 30
0.0
  0
VERTEX
  5
5D9
  8
DEFAULT
 62
     5
 10
-808.8204430082583
 20
101.4040967431907
 30
0.0
  0
SEQEND
  5
5DA
  8
DEFAULT
 62
     5
  0
LINE
  5
5DC
  8
SEAT
  6
CONTINUOUS
 62
     5
 10
-882.984278835571
 20
-772.1760215272911
 30
0.0
 11
-882.984278835571
 21
-701.6760215272911
 31
0.0
  0
ARC
  5
5DD
  8
SEAT
  6
CONTINUOUS
 62
     5
 10
-844.984278835571
 20
-772.1760215272911
 30
0.0
 40
38.00000000000004
 50
180.0
 51
270.0
  0
LINE
  5
5DE
  8
SEAT
  6
CONTINUOUS
 62
     5
 10
-876.984278835571
 20
-695.6760215272911
 30
0.0
 11
-869.984278835571
 21
-695.6760215272911
 31
0.0
  0
LINE
  5
5DF
  8
SEAT
  6
CONTINUOUS
 62
     5
 10
-342.984278835571
 20
-810.1760215272911
 30
0.0
 11
-844.984278835571
 21
-810.1760215272911
 31
0.0
  0
LINE
  5
5E0
  8
SEAT
  6
CONTINUOUS
 62
     5
 10
-863.984278835571
 20
-701.6760215272911
 30
0.0
 11
-863.984278835571
 21
-715.1760215272911
 31
0.0
  0
ARC
  5
5E1
  8
SEAT
  6
CONTINUOUS
 62
     5
 10
-342.984278835571
 20
-772.1760215272911
 30
0.0
 40
37.99999999999998
 50
270.0
 51
0.0
  0
LINE
  5
5E2
  8
SEAT
  6
CONTINUOUS
 62
     5
 10
-857.984278835571
 20
-721.1760215272911
 30
0.0
 11
-850.984278835571
 21
-721.1760215272911
 31
0.0
  0
LINE
  5
5E3
  8
SEAT
  6
CONTINUOUS
 62
     5
 10
-304.984278835571
 20
-701.6760215272911
 30
0.0
 11
-304.984278835571
 21
-772.1760215272911
 31
0.0
  0
LINE
  5
5E4
  8
SEAT
  6
CONTINUOUS
 62
     5
 10
-844.984278835571
 20
-715.1760215272911
 30
0.0
 11
-844.984278835571
 21
-479.6760215272911
 31
0.0
  0
LINE
  5
5E5
  8
SEAT
  6
CONTINUOUS
 62
     5
 10
-317.984278835571
 20
-695.6760215272911
 30
0.0
 11
-310.984278835571
 21
-695.6760215272911
 31
0.0
  0
LINE
  5
5E6
  8
SEAT
  6
CONTINUOUS
 62
     5
 10
-850.984278835571
 20
-473.6760215272911
 30
0.0
 11
-876.984278835571
 21
-473.6760215272911
 31
0.0
  0
LINE
  5
5E7
  8
SEAT
  6
CONTINUOUS
 62
     5
 10
-323.984278835571
 20
-715.1760215272911
 30
0.0
 11
-323.984278835571
 21
-701.6760215272911
 31
0.0
  0
LINE
  5
5E8
  8
SEAT
  6
CONTINUOUS
 62
     5
 10
-882.984278835571
 20
-467.6760215272911
 30
0.0
 11
-882.984278835571
 21
-371.6760215272911
 31
0.0
  0
LINE
  5
5E9
  8
SEAT
  6
CONTINUOUS
 62
     5
 10
-336.984278835571
 20
-721.1760215272911
 30
0.0
 11
-329.984278835571
 21
-721.1760215272911
 31
0.0
  0
LINE
  5
5EA
  8
SEAT
  6
CONTINUOUS
 62
     5
 10
-876.984278835571
 20
-365.6760215272911
 30
0.0
 11
-869.984278835571
 21
-365.6760215272911
 31
0.0
  0
LINE
  5
5EB
  8
SEAT
  6
CONTINUOUS
 62
     5
 10
-342.984278835571
 20
-479.6760215272911
 30
0.0
 11
-342.984278835571
 21
-715.1760215272911
 31
0.0
  0
LINE
  5
5EC
  8
SEAT
  6
CONTINUOUS
 62
     5
 10
-863.984278835571
 20
-371.6760215272911
 30
0.0
 11
-863.984278835571
 21
-385.1760215272911
 31
0.0
  0
LINE
  5
5ED
  8
SEAT
  6
CONTINUOUS
 62
     5
 10
-310.984278835571
 20
-473.6760215272911
 30
0.0
 11
-336.984278835571
 21
-473.6760215272911
 31
0.0
  0
LINE
  5
5EE
  8
SEAT
  6
CONTINUOUS
 62
     5
 10
-857.984278835571
 20
-391.1760215272911
 30
0.0
 11
-850.984278835571
 21
-391.1760215272911
 31
0.0
  0
LINE
  5
5EF
  8
SEAT
  6
CONTINUOUS
 62
     5
 10
-844.984278835571
 20
-385.1760215272911
 30
0.0
 11
-844.984278835571
 21
-292.1760215272911
 31
0.0
  0
LINE
  5
5F0
  8
SEAT
  6
CONTINUOUS
 62
     5
 10
-304.984278835571
 20
-371.6760215272911
 30
0.0
 11
-304.984278835571
 21
-467.6760215272911
 31
0.0
  0
ARC
  5
5F1
  8
SEAT
  6
CONTINUOUS
 62
     5
 10
-806.984278835571
 20
-292.1760215272911
 30
0.0
 40
38.00000000000001
 50
90.0
 51
180.0
  0
LINE
  5
5F2
  8
SEAT
  6
CONTINUOUS
 62
     5
 10
-317.984278835571
 20
-365.6760215272911
 30
0.0
 11
-310.984278835571
 21
-365.6760215272911
 31
0.0
  0
LINE
  5
5F3
  8
SEAT
  6
CONTINUOUS
 62
     5
 10
-806.984278835571
 20
-254.1760215272911
 30
0.0
 11
-380.984278835571
 21
-254.1760215272911
 31
0.0
  0
LINE
  5
5F4
  8
SEAT
  6
CONTINUOUS
 62
     5
 10
-323.984278835571
 20
-385.1760215272911
 30
0.0
 11
-323.984278835571
 21
-371.6760215272911
 31
0.0
  0
ARC
  5
5F5
  8
SEAT
  6
CONTINUOUS
 62
     5
 10
-380.984278835571
 20
-292.1760215272911
 30
0.0
 40
38.00000000000001
 50
0.0
 51
90.0
  0
LINE
  5
5F6
  8
SEAT
  6
CONTINUOUS
 62
     5
 10
-336.984278835571
 20
-391.1760215272911
 30
0.0
 11
-329.984278835571
 21
-391.1760215272911
 31
0.0
  0
LINE
  5
5F7
  8
SEAT
  6
CONTINUOUS
 62
     5
 10
-342.984278835571
 20
-292.1760215272911
 30
0.0
 11
-342.984278835571
 21
-385.1760215272911
 31
0.0
  0
ARC
  5
5F8
  8
SEAT
  6
CONTINUOUS
 62
     5
 10
-336.984278835571
 20
-385.1760215272911
 30
0.0
 40
6.000000000000005
 50
180.0
 51
270.0
  0
ARC
  5
5F9
  8
SEAT
  6
CONTINUOUS
 62
     5
 10
-329.984278835571
 20
-385.1760215272911
 30
0.0
 40
6.000000000000005
 50
270.0
 51
0.0
  0
ARC
  5
5FA
  8
SEAT
  6
CONTINUOUS
 62
     5
 10
-850.984278835571
 20
-385.1760215272911
 30
0.0
 40
6.000000000000005
 50
270.0
 51
0.0
  0
ARC
  5
5FB
  8
SEAT
  6
CONTINUOUS
 62
     5
 10
-317.984278835571
 20
-371.6760215272911
 30
0.0
 40
6.000000000000005
 50
90.0
 51
180.0
  0
ARC
  5
5FC
  8
SEAT
  6
CONTINUOUS
 62
     5
 10
-857.984278835571
 20
-385.1760215272911
 30
0.0
 40
6.000000000000005
 50
180.0
 51
270.0
  0
ARC
  5
5FD
  8
SEAT
  6
CONTINUOUS
 62
     5
 10
-310.984278835571
 20
-371.6760215272911
 30
0.0
 40
6.000000000000005
 50
0.0
 51
90.0
  0
ARC
  5
5FE
  8
SEAT
  6
CONTINUOUS
 62
     5
 10
-869.984278835571
 20
-371.6760215272911
 30
0.0
 40
6.000000000000005
 50
0.0
 51
90.0
  0
ARC
  5
5FF
  8
SEAT
  6
CONTINUOUS
 62
     5
 10
-310.984278835571
 20
-467.6760215272911
 30
0.0
 40
6.000000000000005
 50
270.0
 51
0.0
  0
ARC
  5
600
  8
SEAT
  6
CONTINUOUS
 62
     5
 10
-876.984278835571
 20
-371.6760215272911
 30
0.0
 40
6.000000000000005
 50
90.0
 51
180.0
  0
ARC
  5
601
  8
SEAT
  6
CONTINUOUS
 62
     5
 10
-336.984278835571
 20
-479.6760215272911
 30
0.0
 40
5.999999999999998
 50
90.0
 51
180.0
  0
ARC
  5
602
  8
SEAT
  6
CONTINUOUS
 62
     5
 10
-876.984278835571
 20
-467.6760215272911
 30
0.0
 40
6.000000000000005
 50
180.0
 51
270.0
  0
ARC
  5
603
  8
SEAT
  6
CONTINUOUS
 62
     5
 10
-336.984278835571
 20
-715.1760215272911
 30
0.0
 40
6.000000000000005
 50
180.0
 51
270.0
  0
ARC
  5
604
  8
SEAT
  6
CONTINUOUS
 62
     5
 10
-850.984278835571
 20
-479.6760215272911
 30
0.0
 40
6.000000000000005
 50
0.0
 51
90.0
  0
ARC
  5
605
  8
SEAT
  6
CONTINUOUS
 62
     5
 10
-329.984278835571
 20
-715.1760215272911
 30
0.0
 40
6.000000000000005
 50
270.0
 51
0.0
  0
ARC
  5
606
  8
SEAT
  6
CONTINUOUS
 62
     5
 10
-850.984278835571
 20
-715.1760215272911
 30
0.0
 40
6.000000000000005
 50
270.0
 51
0.0
  0
ARC
  5
607
  8
SEAT
  6
CONTINUOUS
 62
     5
 10
-317.984278835571
 20
-701.6760215272911
 30
0.0
 40
6.000000000000005
 50
90.0
 51
180.0
  0
ARC
  5
608
  8
SEAT
  6
CONTINUOUS
 62
     5
 10
-857.984278835571
 20
-715.1760215272911
 30
0.0
 40
6.000000000000005
 50
180.0
 51
270.0
  0
ARC
  5
609
  8
SEAT
  6
CONTINUOUS
 62
     5
 10
-310.984278835571
 20
-701.6760215272911
 30
0.0
 40
6.000000000000005
 50
0.0
 51
90.0
  0
ARC
  5
60A
  8
SEAT
  6
CONTINUOUS
 62
     5
 10
-869.984278835571
 20
-701.6760215272911
 30
0.0
 40
6.000000000000005
 50
0.0
 51
90.0
  0
ARC
  5
60B
  8
SEAT
  6
CONTINUOUS
 62
     5
 10
-876.984278835571
 20
-701.6760215272911
 30
0.0
 40
6.000000000000005
 50
90.0
 51
180.0
  0
LINE
  5
60C
  8
SEAT
  6
CONTINUOUS
 62
     5
 10
-754.484278835571
 20
-337.1760215272911
 30
0.0
 11
-433.484278835571
 21
-337.1760215272911
 31
0.0
  0
LINE
  5
60D
  8
SEAT
  6
CONTINUOUS
 62
     5
 10
-427.484278835571
 20
-331.1760215272911
 30
0.0
 11
-427.484278835571
 21
-321.1760215272911
 31
0.0
  0
LINE
  5
60E
  8
SEAT
  6
CONTINUOUS
 62
     5
 10
-433.484278835571
 20
-315.1760215272911
 30
0.0
 11
-754.484278835571
 21
-315.1760215272911
 31
0.0
  0
LINE
  5
60F
  8
SEAT
  6
CONTINUOUS
 62
     5
 10
-760.484278835571
 20
-321.1760215272911
 30
0.0
 11
-760.484278835571
 21
-331.1760215272911
 31
0.0
  0
ARC
  5
610
  8
SEAT
  6
CONTINUOUS
 62
     5
 10
-754.484278835571
 20
-321.1760215272911
 30
0.0
 40
6.000000000000005
 50
90.0
 51
180.0
  0
ARC
  5
611
  8
SEAT
  6
CONTINUOUS
 62
     5
 10
-433.484278835571
 20
-321.1760215272911
 30
0.0
 40
6.000000000000005
 50
0.0
 51
90.0
  0
ARC
  5
612
  8
SEAT
  6
CONTINUOUS
 62
     5
 10
-754.484278835571
 20
-331.1760215272911
 30
0.0
 40
6.000000000000005
 50
180.0
 51
270.0
  0
ARC
  5
613
  8
SEAT
  6
CONTINUOUS
 62
     5
 10
-433.484278835571
 20
-331.1760215272911
 30
0.0
 40
6.000000000000005
 50
270.0
 51
0.0
  0
ARC
  5
615
  8
LEGS
  6
CONTINUOUS
 62
     5
 10
227.8457719685691
 20
10.46637508820729
 30
0.0
 40
18.99999999999999
 50
108.0
 51
209.9999999999999
  0
LINE
  5
616
  8
LEGS
  6
CONTINUOUS
 62
     5
 10
211.3912892966691
 20
0.9663750882072861
 30
0.0
 11
257.5037078354691
 21
-78.90267668079271
 31
0.0
  0
LINE
  5
617
  8
LEGS
  6
CONTINUOUS
 62
     5
 10
268.0868676142691
 20
43.51928192200728
 30
0.0
 11
221.9744490754691
 21
28.53644889790729
 31
0.0
  0
ARC
  5
618
  8
LEGS
  6
CONTINUOUS
 62
     5
 10
273.9581905073691
 20
-69.40267668079271
 30
0.0
 40
18.99999999999997
 50
210.0
 51
359.9999999999999
  0
ARC
  5
619
  8
LEGS
  6
CONTINUOUS
 62
     5
 10
273.9581905073691
 20
25.44920811240729
 30
0.0
 40
19.00000000000005
 50
0.0
 51
107.9999999999999
  0
LINE
  5
61A
  8
LEGS
  6
CONTINUOUS
 62
     5
 10
292.9581905073691
 20
-69.40267668079271
 30
0.0
 11
292.9581905073691
 21
25.44920811240729
 31
0.0
  0
ARC
  5
61B
  8
LEGS
  6
CONTINUOUS
 62
     5
 10
-9.38855550543093
 20
10.66674295090729
 30
0.0
 40
6.000000000000001
 50
108.0
 51
198.0
  0
ARC
  5
61C
  8
LEGS
  6
CONTINUOUS
 62
     5
 10
92.37449173816907
 20
43.73156134900728
 30
0.0
 40
5.999999999999997
 50
18.00000000000001
 51
108.0
  0
ARC
  5
61D
  8
LEGS
  6
CONTINUOUS
 62
     5
 10
-7.22543654473094
 20
4.009347336807281
 30
0.0
 40
5.999999999999997
 50
198.0
 51
288.0
  0
ARC
  5
61E
  8
LEGS
  6
CONTINUOUS
 62
     5
 10
94.53761069876907
 20
37.0741657349073
 30
0.0
 40
6.000000000000001
 50
288.0
 51
18.00000000000001
  0
LINE
  5
61F
  8
LEGS
  6
CONTINUOUS
 62
     5
 10
-5.371334578530934
 20
-1.696991760892701
 30
0.0
 11
96.39171266506906
 21
31.36782663720729
 31
0.0
  0
LINE
  5
620
  8
LEGS
  6
CONTINUOUS
 62
     5
 10
100.243949796569
 20
38.92826770120729
 30
0.0
 11
98.08083083596904
 21
45.5856633153073
 31
0.0
  0
LINE
  5
621
  8
LEGS
  6
CONTINUOUS
 62
     5
 10
-15.09489460313094
 20
8.812640984607299
 30
0.0
 11
-12.93177564253094
 21
2.155245370607304
 31
0.0
  0
LINE
  5
622
  8
LEGS
  6
CONTINUOUS
 62
     5
 10
90.52038977196906
 20
49.43790044680728
 30
0.0
 11
-11.24265747163093
 21
16.37308204870729
 31
0.0
  0
ARC
  5
623
  8
LEGS
  6
CONTINUOUS
 62
     5
 10
-112.4731681145309
 20
23.96259091420728
 30
0.0
 40
6.000000000000002
 50
25.0
 51
108.0
  0
ARC
  5
624
  8
LEGS
  6
CONTINUOUS
 62
     5
 10
-82.76900578773095
 20
33.6140583143073
 30
0.0
 40
5.99999999999999
 50
108.0
 51
205.0
  0
ARC
  5
625
  8
LEGS
  6
CONTINUOUS
 62
     5
 10
-90.09124731713095
 20
4.358825867807298
 30
0.0
 40
5.999999999999997
 50
205.0000000000001
 51
295.0000000000001
  0
ARC
  5
626
  8
LEGS
  6
CONTINUOUS
 62
     5
 10
-83.74709280783094
 20
7.317153700007282
 30
0.0
 40
5.999999999999996
 50
295.0000000000001
 51
25.00000000000006
  0
LINE
  5
627
  8
LEGS
  6
CONTINUOUS
 62
     5
 10
-87.55553774673095
 20
-1.079020854392724
 30
0.0
 11
-81.21138323743094
 21
1.879306977707301
 31
0.0
  0
LINE
  5
628
  8
LEGS
  6
CONTINUOUS
 62
     5
 10
-78.30924608563095
 20
9.852863270407283
 30
0.0
 11
-88.20685251003093
 21
31.0783487439073
 31
0.0
  0
LINE
  5
629
  8
LEGS
  6
CONTINUOUS
 62
     5
 10
-84.62310775403094
 20
39.3203974121073
 30
0.0
 11
171.2889077690691
 21
122.4712517582073
 31
0.0
  0
LINE
  5
62A
  8
LEGS
  6
CONTINUOUS
 62
     5
 10
-107.0353213923309
 20
26.4983004847073
 30
0.0
 11
-95.52909403933094
 21
1.82311629730728
 31
0.0
  0
ARC
  5
62B
  8
LEGS
  6
CONTINUOUS
 62
     5
 10
168.353246322469
 20
131.5062886630073
 30
0.0
 40
9.500000000000002
 50
287.9999999999999
 51
90.0
  0
LINE
  5
62C
  8
LEGS
  6
CONTINUOUS
 62
     5
 10
-160.6532656726309
 20
14.6167015966073
 30
0.0
 11
-114.3272700807309
 21
29.66893001200728
 31
0.0
  0
LINE
  5
62D
  8
LEGS
  6
CONTINUOUS
 62
     5
 10
168.353246322469
 20
141.0062886630073
 30
0.0
 11
-170.5418094926309
 21
141.0062886630073
 31
0.0
  0
ARC
  5
62E
  8
LEGS
  6
CONTINUOUS
 62
     5
 10
-170.5418094926309
 20
45.0505101181073
 30
0.0
 40
32.0
 50
180.0
 51
288.0
  0
ARC
  5
62F
  8
LEGS
  6
CONTINUOUS
 62
     5
 10
-170.5418094926309
 20
109.0062886630073
 30
0.0
 40
32.0
 50
90.0
 51
180.0
  0
LINE
  5
630
  8
LEGS
  6
CONTINUOUS
 62
     5
 10
-202.5418094926309
 20
109.0062886630073
 30
0.0
 11
-202.5418094926309
 21
45.0505101181073
 31
0.0
  0
ARC
  5
631
  8
LEGS
  6
CONTINUOUS
 62
     5
 10
337.9581905073691
 20
103.5487598923073
 30
0.0
 40
6.000000000000001
 50
0.0
 51
108.0
  0
ARC
  5
632
  8
LEGS
  6
CONTINUOUS
 62
     5
 10
306.6232138326691
 20
105.9849554806073
 30
0.0
 40
5.999999999999987
 50
198.0000000000001
 51
288.0000000000001
  0
ARC
  5
633
  8
LEGS
  6
CONTINUOUS
 62
     5
 10
304.4600948719691
 20
112.6423510946073
 30
0.0
 40
6.000000000000001
 50
108.0
 51
198.0
  0
ARC
  5
634
  8
LEGS
  6
CONTINUOUS
 62
     5
 10
337.9581905073691
 20
136.1440888437073
 30
0.0
 40
6.000000000000005
 50
288.0
 51
0.0
  0
ARC
  5
635
  8
LEGS
  6
CONTINUOUS
 62
     5
 10
-193.8642310574309
 20
198.5062886630073
 30
0.0
 40
5.999999999999978
 50
24.99999999999981
 51
90.0
  0
ARC
  5
636
  8
LEGS
  6
CONTINUOUS
 62
     5
 10
-175.248827057931
 20
186.9798449557073
 30
0.0
 40
5.999999999999988
 50
204.9999999999998
 51
294.9999999999998
  0
ARC
  5
637
  8
LEGS
  6
CONTINUOUS
 62
     5
 10
-159.6595155696309
 20
198.5062886630073
 30
0.0
 40
5.999999999999988
 50
90.0
 51
205.0
  0
ARC
  5
638
  8
LEGS
  6
CONTINUOUS
 62
     5
 10
-168.9046725486309
 20
189.9381727878073
 30
0.0
 40
6.000000000000001
 50
295.0000000000001
 51
25.00000000000006
  0
LINE
  5
639
  8
LEGS
  6
CONTINUOUS
 62
     5
 10
-234.0418094926309
 20
204.5062886630073
 30
0.0
 11
-193.8642310574309
 21
204.5062886630073
 31
0.0
  0
LINE
  5
63A
  8
LEGS
  6
CONTINUOUS
 62
     5
 10
-188.4263843352309
 20
201.0419982334073
 30
0.0
 11
-180.6866737801309
 21
184.4441353852073
 31
0.0
  0
ARC
  5
63B
  8
LEGS
  6
CONTINUOUS
 62
     5
 10
-234.0418094926309
 20
172.5062886630073
 30
0.0
 40
32.00000000000003
 50
90.0
 51
180.0
  0
LINE
  5
63C
  8
LEGS
  6
CONTINUOUS
 62
     5
 10
-172.7131174874309
 20
181.5419982334073
 30
0.0
 11
-166.3689629782309
 21
184.5003260656073
 31
0.0
  0
LINE
  5
63D
  8
LEGS
  6
CONTINUOUS
 62
     5
 10
-266.0418094926309
 20
-144.4937113369927
 30
0.0
 11
-266.0418094926309
 21
172.5062886630073
 31
0.0
  0
LINE
  5
63E
  8
LEGS
  6
CONTINUOUS
 62
     5
 10
-163.4668258264309
 20
192.4738823583073
 30
0.0
 11
-165.0973622918309
 21
195.9705790926073
 31
0.0
  0
LINE
  5
63F
  8
LEGS
  6
CONTINUOUS
 62
     5
 10
-159.6595155696309
 20
204.5062886630073
 30
0.0
 11
311.9581905073691
 21
204.5062886630073
 31
0.0
  0
ARC
  5
640
  8
LEGS
  6
CONTINUOUS
 62
     5
 10
-234.0418094926309
 20
-144.4937113369927
 30
0.0
 40
32.0
 50
180.0
 51
270.0
  0
ARC
  5
641
  8
LEGS
  6
CONTINUOUS
 62
     5
 10
311.9581905073691
 20
172.5062886630073
 30
0.0
 40
32.0
 50
0.0
 51
90.0
  0
LINE
  5
642
  8
LEGS
  6
CONTINUOUS
 62
     5
 10
-191.9636545535309
 20
-176.4937113369927
 30
0.0
 11
-234.0418094926309
 21
-176.4937113369927
 31
0.0
  0
ARC
  5
643
  8
LEGS
  6
CONTINUOUS
 62
     5
 10
-191.9636545535309
 20
-144.4937113369927
 30
0.0
 40
32.00000000000002
 50
270.0
 51
320.0
  0
LINE
  5
644
  8
LEGS
  6
CONTINUOUS
 62
     5
 10
343.9581905073691
 20
172.5062886630073
 30
0.0
 11
343.9581905073691
 21
136.1440888437073
 31
0.0
  0
LINE
  5
645
  8
LEGS
  6
CONTINUOUS
 62
     5
 10
-106.4836104638309
 20
-92.40572415739271
 30
0.0
 11
-167.450232373731
 21
-165.0629148469927
 31
0.0
  0
LINE
  5
646
  8
LEGS
  6
CONTINUOUS
 62
     5
 10
339.812292473669
 20
130.4377497459073
 30
0.0
 11
302.6059929057691
 21
118.3486901924073
 31
0.0
  0
ARC
  5
647
  8
LEGS
  6
CONTINUOUS
 62
     5
 10
-38.30565502623094
 20
-149.6138214194927
 30
0.0
 40
88.99999999999999
 50
108.0
 51
140.0
  0
LINE
  5
648
  8
LEGS
  6
CONTINUOUS
 62
     5
 10
298.7537557742691
 20
110.7882491284073
 30
0.0
 11
300.9168747348691
 21
104.1308535143073
 31
0.0
  0
LINE
  5
649
  8
LEGS
  6
CONTINUOUS
 62
     5
 10
81.52889443496906
 20
-17.09707805319272
 30
0.0
 11
-65.80816752563095
 21
-64.96979146929272
 31
0.0
  0
LINE
  5
64A
  8
LEGS
  6
CONTINUOUS
 62
     5
 10
308.4773157988691
 20
100.2786163828073
 30
0.0
 11
336.1040885411691
 21
109.2550989901073
 31
0.0
  0
LINE
  5
64B
  8
LEGS
  6
CONTINUOUS
 62
     5
 10
343.9581905073691
 20
103.5487598923073
 30
0.0
 11
343.9581905073691
 21
-144.4937113369927
 31
0.0
  0
ARC
  5
64C
  8
LEGS
  6
CONTINUOUS
 62
     5
 10
109.031406934369
 20
-101.7411080034927
 30
0.0
 40
88.99999999999999
 50
30.00000000000001
 51
108.0
  0
ARC
  5
64D
  8
LEGS
  6
CONTINUOUS
 62
     5
 10
311.9581905073691
 20
-144.4937113369927
 30
0.0
 40
31.99999999999997
 50
270.0
 51
0.0
  0
LINE
  5
64E
  8
LEGS
  6
CONTINUOUS
 62
     5
 10
245.720586200369
 20
-160.4937113369927
 30
0.0
 11
186.107667871169
 21
-57.24110800349271
 31
0.0
  0
LINE
  5
64F
  8
LEGS
  6
CONTINUOUS
 62
     5
 10
311.9581905073691
 20
-176.4937113369927
 30
0.0
 11
273.4333991214691
 21
-176.4937113369927
 31
0.0
  0
ARC
  5
650
  8
LEGS
  6
CONTINUOUS
 62
     5
 10
273.4333991214691
 20
-144.4937113369927
 30
0.0
 40
32.0
 50
210.0
 51
269.9999999999999
  0
ARC
  5
652
  8
BACK
  6
CONTINUOUS
 62
     5
 10
-868.7511282674309
 20
46.9616582699073
 30
0.0
 40
6.0
 50
90.0
 51
180.0
  0
ARC
  5
653
  8
BACK
  6
CONTINUOUS
 62
     5
 10
-861.7511282674309
 20
46.9616582699073
 30
0.0
 40
6.000000000000004
 50
0.0
 51
90.0
  0
ARC
  5
654
  8
BACK
  6
CONTINUOUS
 62
     5
 10
-880.7511282674309
 20
30.4616582699073
 30
0.0
 40
5.999999999999998
 50
270.0
 51
0.0
  0
ARC
  5
655
  8
BACK
  6
CONTINUOUS
 62
     5
 10
-887.7511282674309
 20
30.4616582699073
 30
0.0
 40
6.000000000000005
 50
180.0
 51
270.0
  0
ARC
  5
656
  8
BACK
  6
CONTINUOUS
 62
     5
 10
-887.7511282674309
 20
-168.0383417300927
 30
0.0
 40
6.000000000000005
 50
180.0
 51
270.0
  0
ARC
  5
657
  8
BACK
  6
CONTINUOUS
 62
     5
 10
-880.7511282674309
 20
-168.0383417300927
 30
0.0
 40
6.000000000000005
 50
270.0
 51
0.0
  0
ARC
  5
658
  8
BACK
  6
CONTINUOUS
 62
     5
 10
-321.7511282674309
 20
30.4616582699073
 30
0.0
 40
5.999999999999998
 50
270.0
 51
0.0
  0
ARC
  5
659
  8
BACK
  6
CONTINUOUS
 62
     5
 10
-868.7511282674309
 20
-154.5383417300927
 30
0.0
 40
6.000000000000005
 50
90.0
 51
180.0
  0
ARC
  5
65A
  8
BACK
  6
CONTINUOUS
 62
     5
 10
-328.7511282674309
 20
30.4616582699073
 30
0.0
 40
6.000000000000005
 50
180.0
 51
270.0
  0
ARC
  5
65B
  8
BACK
  6
CONTINUOUS
 62
     5
 10
-772.7511282674309
 20
-154.5383417300927
 30
0.0
 40
6.000000000000005
 50
0.0
 51
90.0
  0
ARC
  5
65C
  8
BACK
  6
CONTINUOUS
 62
     5
 10
-340.7511282674309
 20
46.9616582699073
 30
0.0
 40
6.0
 50
0.0
 51
90.0
  0
ARC
  5
65D
  8
BACK
  6
CONTINUOUS
 62
     5
 10
-760.7511282674309
 20
-193.5383417300927
 30
0.0
 40
6.000000000000005
 50
180.0
 51
270.0
  0
ARC
  5
65E
  8
BACK
  6
CONTINUOUS
 62
     5
 10
-347.7511282674309
 20
46.9616582699073
 30
0.0
 40
6.000000000000005
 50
90.0
 51
180.0
  0
ARC
  5
65F
  8
BACK
  6
CONTINUOUS
 62
     5
 10
-448.7511282674309
 20
-193.5383417300927
 30
0.0
 40
6.000000000000005
 50
270.0
 51
0.0
  0
ARC
  5
660
  8
BACK
  6
CONTINUOUS
 62
     5
 10
-436.7511282674309
 20
-154.5383417300927
 30
0.0
 40
6.000000000000005
 50
90.0
 51
180.0
  0
ARC
  5
661
  8
BACK
  6
CONTINUOUS
 62
     5
 10
-340.7511282674309
 20
-154.5383417300927
 30
0.0
 40
6.000000000000005
 50
0.0
 51
90.0
  0
ARC
  5
662
  8
BACK
  6
CONTINUOUS
 62
     5
 10
-321.7511282674309
 20
-168.0383417300927
 30
0.0
 40
6.000000000000005
 50
270.0
 51
0.0
  0
ARC
  5
663
  8
BACK
  6
CONTINUOUS
 62
     5
 10
-328.7511282674309
 20
-168.0383417300927
 30
0.0
 40
6.000000000000005
 50
180.0
 51
270.0
  0
LINE
  5
664
  8
BACK
  6
CONTINUOUS
 62
     5
 10
-315.7511282674309
 20
-93.03834173009271
 30
0.0
 11
-315.7511282674309
 21
-168.0383417300927
 31
0.0
  0
LINE
  5
665
  8
BACK
  6
CONTINUOUS
 62
     5
 10
-321.7511282674309
 20
-174.0383417300927
 30
0.0
 11
-328.7511282674309
 21
-174.0383417300927
 31
0.0
  0
ARC
  5
666
  8
BACK
  6
CONTINUOUS
 62
     5
 10
-334.7511282674309
 20
-93.03834173009271
 30
0.0
 40
18.99999999999999
 50
0.0
 51
90.0
  0
LINE
  5
667
  8
BACK
  6
CONTINUOUS
 62
     5
 10
-334.7511282674309
 20
-168.0383417300927
 30
0.0
 11
-334.7511282674309
 21
-154.5383417300927
 31
0.0
  0
ARC
  5
668
  8
BACK
  6
CONTINUOUS
 62
     5
 10
-334.7511282674309
 20
-55.03834173009271
 30
0.0
 40
19.00000000000002
 50
180.0
 51
270.0
  0
LINE
  5
669
  8
BACK
  6
CONTINUOUS
 62
     5
 10
-340.7511282674309
 20
-148.5383417300927
 30
0.0
 11
-436.7511282674309
 21
-148.5383417300927
 31
0.0
  0
LINE
  5
66A
  8
BACK
  6
CONTINUOUS
 62
     5
 10
-442.7511282674309
 20
-154.5383417300927
 30
0.0
 11
-442.7511282674309
 21
-193.5383417300927
 31
0.0
  0
LINE
  5
66B
  8
BACK
  6
CONTINUOUS
 62
     5
 10
-353.7511282674309
 20
46.9616582699073
 30
0.0
 11
-353.7511282674309
 21
-55.03834173009271
 31
0.0
  0
LINE
  5
66C
  8
BACK
  6
CONTINUOUS
 62
     5
 10
-448.7511282674309
 20
-199.5383417300927
 30
0.0
 11
-760.7511282674309
 21
-199.5383417300927
 31
0.0
  0
LINE
  5
66D
  8
BACK
  6
CONTINUOUS
 62
     5
 10
-340.7511282674309
 20
52.9616582699073
 30
0.0
 11
-347.7511282674309
 21
52.9616582699073
 31
0.0
  0
LINE
  5
66E
  8
BACK
  6
CONTINUOUS
 62
     5
 10
-766.7511282674309
 20
-193.5383417300927
 30
0.0
 11
-766.7511282674309
 21
-154.5383417300927
 31
0.0
  0
LINE
  5
66F
  8
BACK
  6
CONTINUOUS
 62
     5
 10
-334.7511282674309
 20
30.4616582699073
 30
0.0
 11
-334.7511282674309
 21
46.9616582699073
 31
0.0
  0
LINE
  5
670
  8
BACK
  6
CONTINUOUS
 62
     5
 10
-772.7511282674309
 20
-148.5383417300927
 30
0.0
 11
-868.7511282674309
 21
-148.5383417300927
 31
0.0
  0
LINE
  5
671
  8
BACK
  6
CONTINUOUS
 62
     5
 10
-321.7511282674309
 20
24.4616582699073
 30
0.0
 11
-328.7511282674309
 21
24.4616582699073
 31
0.0
  0
LINE
  5
672
  8
BACK
  6
CONTINUOUS
 62
     5
 10
-315.7511282674309
 20
200.4616582699073
 30
0.0
 11
-315.7511282674309
 21
30.4616582699073
 31
0.0
  0
LINE
  5
673
  8
BACK
  6
CONTINUOUS
 62
     5
 10
-874.7511282674309
 20
-154.5383417300927
 30
0.0
 11
-874.7511282674309
 21
-168.0383417300927
 31
0.0
  0
ARC
  5
674
  8
BACK
  6
CONTINUOUS
 62
     5
 10
-442.7511282674309
 20
200.4616582699073
 30
0.0
 40
127.0
 50
0.0
 51
90.0
  0
LINE
  5
675
  8
BACK
  6
CONTINUOUS
 62
     5
 10
-880.7511282674309
 20
-174.0383417300927
 30
0.0
 11
-887.7511282674309
 21
-174.0383417300927
 31
0.0
  0
LINE
  5
676
  8
BACK
  6
CONTINUOUS
 62
     5
 10
-893.7511282674309
 20
-168.0383417300927
 30
0.0
 11
-893.7511282674309
 21
-93.03834173009271
 31
0.0
  0
LINE
  5
677
  8
BACK
  6
CONTINUOUS
 62
     5
 10
-766.7511282674309
 20
327.4616582699073
 30
0.0
 11
-442.7511282674309
 21
327.4616582699073
 31
0.0
  0
ARC
  5
678
  8
BACK
  6
CONTINUOUS
 62
     5
 10
-874.7511282674309
 20
-93.03834173009271
 30
0.0
 40
19.00000000000002
 50
90.0
 51
180.0
  0
ARC
  5
679
  8
BACK
  6
CONTINUOUS
 62
     5
 10
-766.7511282674309
 20
200.4616582699073
 30
0.0
 40
127.0
 50
90.0
 51
180.0
  0
ARC
  5
67A
  8
BACK
  6
CONTINUOUS
 62
     5
 10
-874.7511282674309
 20
-55.03834173009271
 30
0.0
 40
19.00000000000002
 50
270.0
 51
0.0
  0
LINE
  5
67B
  8
BACK
  6
CONTINUOUS
 62
     5
 10
-893.7511282674309
 20
30.4616582699073
 30
0.0
 11
-893.7511282674309
 21
200.4616582699073
 31
0.0
  0
LINE
  5
67C
  8
BACK
  6
CONTINUOUS
 62
     5
 10
-855.7511282674309
 20
-55.03834173009271
 30
0.0
 11
-855.7511282674309
 21
46.9616582699073
 31
0.0
  0
LINE
  5
67D
  8
BACK
  6
CONTINUOUS
 62
     5
 10
-880.7511282674309
 20
24.4616582699073
 30
0.0
 11
-887.7511282674309
 21
24.4616582699073
 31
0.0
  0
LINE
  5
67E
  8
BACK
  6
CONTINUOUS
 62
     5
 10
-874.7511282674309
 20
46.9616582699073
 30
0.0
 11
-874.7511282674309
 21
30.4616582699073
 31
0.0
  0
LINE
  5
67F
  8
BACK
  6
CONTINUOUS
 62
     5
 10
-861.7511282674309
 20
52.9616582699073
 30
0.0
 11
-868.7511282674309
 21
52.9616582699073
 31
0.0
  0
ENDSEC
  0
EOF
