  0
SECTION
  2
HEADER
  9
$ACADVER
  1
AC1009
  9
$DWGCODEPAGE
  3
ansi_1252
  9
$INSBASE
 10
0.0
 20
0.0
 30
0.0
  9
$EXTMIN
 10
-386.283693110146
 20
-164.239309324883
 30
0.0
  9
$EXTMAX
 10
415.4760049984552
 20
252.8294091666979
 30
0.0
  9
$LIMMIN
 10
0.0
 20
0.0
  9
$LIMMAX
 10
12.0
 20
9.0
  9
$ORTHOMODE
 70
     0
  9
$REGENMODE
 70
     1
  9
$FILLMODE
 70
     1
  9
$QTEXTMODE
 70
     0
  9
$MIRRTEXT
 70
     1
  9
$DRAGMODE
 70
     2
  9
$LTSCALE
 40
1.0
  9
$OSMODE
 70
    37
  9
$ATTMODE
 70
     1
  9
$TEXTSIZE
 40
0.2
  9
$TRACEWID
 40
0.05
  9
$TEXTSTYLE
  7
STANDARD
  9
$CLAYER
  8
DEFAULT
  9
$CELTYPE
  6
BYLAYER
  9
$CECOLOR
 62
   256
  9
$DIMSCALE
 40
1.0
  9
$DIMASZ
 40
0.18
  9
$DIMEXO
 40
0.0625
  9
$DIMDLI
 40
0.38
  9
$DIMRND
 40
0.0
  9
$DIMDLE
 40
0.0
  9
$DIMEXE
 40
0.18
  9
$DIMTP
 40
0.0
  9
$DIMTM
 40
0.0
  9
$DIMTXT
 40
0.18
  9
$DIMCEN
 40
0.09
  9
$DIMTSZ
 40
0.0
  9
$DIMTOL
 70
     0
  9
$DIMLIM
 70
     0
  9
$DIMTIH
 70
     1
  9
$DIMTOH
 70
     1
  9
$DIMSE1
 70
     0
  9
$DIMSE2
 70
     0
  9
$DIMTAD
 70
     0
  9
$DIMZIN
 70
     0
  9
$DIMBLK
  1

  9
$DIMASO
 70
     1
  9
$DIMSHO
 70
     1
  9
$DIMPOST
  1

  9
$DIMAPOST
  1

  9
$DIMALT
 70
     0
  9
$DIMALTD
 70
     2
  9
$DIMALTF
 40
25.4
  9
$DIMLFAC
 40
1.0
  9
$DIMTOFL
 70
     0
  9
$DIMTVP
 40
0.0
  9
$DIMTIX
 70
     0
  9
$DIMSOXD
 70
     0
  9
$DIMSAH
 70
     0
  9
$DIMBLK1
  1

  9
$DIMBLK2
  1

  9
$DIMSTYLE
  2
STANDARD
  9
$DIMCLRD
 70
     0
  9
$DIMCLRE
 70
     0
  9
$DIMCLRT
 70
     0
  9
$DIMTFAC
 40
1.0
  9
$DIMGAP
 40
0.09
  9
$LUNITS
 70
     2
  9
$LUPREC
 70
     4
  9
$SKETCHINC
 40
0.1
  9
$FILLETRAD
 40
0.5
  9
$AUNITS
 70
     0
  9
$AUPREC
 70
     0
  9
$MENU
  1
.
  9
$ELEVATION
 40
0.0
  9
$PELEVATION
 40
0.0
  9
$THICKNESS
 40
0.0
  9
$LIMCHECK
 70
     0
  9
$CHAMFERA
 40
0.0
  9
$CHAMFERB
 40
0.0
  9
$SKPOLY
 70
     0
  9
$TDCREATE
 40
2458793.374090856
  9
$TDUPDATE
 40
2458793.37410875
  9
$TDINDWG
 40
0.0000000116
  9
$TDUSRTIMER
 40
0.0000000116
  9
$USRTIMER
 70
     1
  9
$ANGBASE
 50
0.0
  9
$ANGDIR
 70
     0
  9
$PDMODE
 70
     0
  9
$PDSIZE
 40
0.0
  9
$PLINEWID
 40
0.0
  9
$COORDS
 70
     1
  9
$SPLFRAME
 70
     0
  9
$SPLINETYPE
 70
     6
  9
$SPLINESEGS
 70
     8
  9
$ATTDIA
 70
     0
  9
$ATTREQ
 70
     1
  9
$HANDLING
 70
     1
  9
$HANDSEED
  5
A08
  9
$SURFTAB1
 70
     6
  9
$SURFTAB2
 70
     6
  9
$SURFTYPE
 70
     6
  9
$SURFU
 70
     6
  9
$SURFV
 70
     6
  9
$UCSNAME
  2

  9
$UCSORG
 10
0.0
 20
0.0
 30
0.0
  9
$UCSXDIR
 10
1.0
 20
0.0
 30
0.0
  9
$UCSYDIR
 10
0.0
 20
1.0
 30
0.0
  9
$PUCSNAME
  2

  9
$PUCSORG
 10
0.0
 20
0.0
 30
0.0
  9
$PUCSXDIR
 10
1.0
 20
0.0
 30
0.0
  9
$PUCSYDIR
 10
0.0
 20
1.0
 30
0.0
  9
$USERI1
 70
     0
  9
$USERI2
 70
     0
  9
$USERI3
 70
     0
  9
$USERI4
 70
     0
  9
$USERI5
 70
     0
  9
$USERR1
 40
0.0
  9
$USERR2
 40
0.0
  9
$USERR3
 40
0.0
  9
$USERR4
 40
0.0
  9
$USERR5
 40
0.0
  9
$WORLDVIEW
 70
     1
  9
$SHADEDGE
 70
     3
  9
$SHADEDIF
 70
    70
  9
$TILEMODE
 70
     1
  9
$MAXACTVP
 70
    64
  9
$PLIMCHECK
 70
     0
  9
$PEXTMIN
 10
1.000000000000000E+20
 20
1.000000000000000E+20
 30
1.000000000000000E+20
  9
$PEXTMAX
 10
-1.000000000000000E+20
 20
-1.000000000000000E+20
 30
-1.000000000000000E+20
  9
$PLIMMIN
 10
0.0
 20
0.0
  9
$PLIMMAX
 10
12.0
 20
9.0
  9
$UNITMODE
 70
     0
  9
$VISRETAIN
 70
     1
  9
$PLINEGEN
 70
     0
  9
$PSLTSCALE
 70
     1
  0
ENDSEC
  0
SECTION
  2
TABLES
  0
TABLE
  2
VPORT
 70
     1
  0
VPORT
  2
*ACTIVE
 70
     0
 10
0.0
 20
0.0
 11
1.0
 21
1.0
 12
14.59615594415459
 22
44.29504992090745
 13
0.0
 23
0.0
 14
0.5
 24
0.5
 15
0.5
 25
0.5
 16
0.0
 26
0.0
 36
1.0
 17
0.0
 27
0.0
 37
0.0
 40
425.4100928614126
 41
1.922368335386883
 42
50.0
 43
0.0
 44
0.0
 50
0.0
 51
0.0
 71
     0
 72
   100
 73
     1
 74
     3
 75
     0
 76
     0
 77
     0
 78
     0
  0
ENDTAB
  0
TABLE
  2
LTYPE
 70
     1
  0
LTYPE
  2
CONTINUOUS
 70
     0
  3
Solid line
 72
    65
 73
     0
 40
0.0
  0
ENDTAB
  0
TABLE
  2
LAYER
 70
     5
  0
LAYER
  2
0
 70
     0
 62
     7
  6
CONTINUOUS
  0
LAYER
  2
DEFAULT
 70
     0
 62
     7
  6
CONTINUOUS
  0
LAYER
  2
PAL_3
 70
     0
 62
     7
  6
CONTINUOUS
  0
LAYER
  2
PAL_2
 70
     0
 62
     7
  6
CONTINUOUS
  0
LAYER
  2
PAL_1
 70
     0
 62
     7
  6
CONTINUOUS
  0
ENDTAB
  0
TABLE
  2
STYLE
 70
     1
  0
STYLE
  2
STANDARD
 70
     0
 40
0.0
 41
1.0
 50
0.0
 71
     0
 42
0.2
  3
txt
  4

  0
ENDTAB
  0
TABLE
  2
VIEW
 70
     0
  0
ENDTAB
  0
TABLE
  2
UCS
 70
     0
  0
ENDTAB
  0
TABLE
  2
APPID
 70
     1
  0
APPID
  2
ACAD
 70
     0
  0
ENDTAB
  0
TABLE
  2
DIMSTYLE
 70
     1
  0
DIMSTYLE
  2
STANDARD
 70
     0
  3

  4

  5

  6

  7

 40
1.0
 41
0.18
 42
0.0625
 43
0.38
 44
0.18
 45
0.0
 46
0.0
 47
0.0
 48
0.0
140
0.18
141
0.09
142
0.0
143
25.4
144
1.0
145
0.0
146
1.0
147
0.09
 71
     0
 72
     0
 73
     1
 74
     1
 75
     0
 76
     0
 77
     0
 78
     0
170
     0
171
     2
172
     0
173
     0
174
     0
175
     0
176
     0
177
     0
178
     0
  0
ENDTAB
  0
ENDSEC
  0
SECTION
  2
BLOCKS
  0
BLOCK
  8
0
  2
$MODEL_SPACE
 70
     0
 10
0.0
 20
0.0
 30
0.0
  3
$MODEL_SPACE
  1

  0
ENDBLK
  5
21
  8
0
  0
BLOCK
 67
     1
  8
0
  2
$PAPER_SPACE
 70
     0
 10
0.0
 20
0.0
 30
0.0
  3
$PAPER_SPACE
  1

  0
ENDBLK
  5
1D
 67
     1
  8
0
  0
BLOCK
  8
0
  2
SE
 70
     0
 10
0.0
 20
0.0
 30
0.0
  3
SE
  1

  0
POLYLINE
  5
707
  8
PAL_1
  6
CONTINUOUS
 62
     7
 66
     1
 10
0.0
 20
0.0
 30
0.0
 70
     1
  0
VERTEX
  5
708
  8
PAL_1
  6
CONTINUOUS
 62
     7
 10
64.6045885583
 20
304.5580551467
 30
0.0
  0
VERTEX
  5
709
  8
PAL_1
  6
CONTINUOUS
 62
     7
 10
64.11072880958652
 20
304.5502332069707
 30
0.0
  0
VERTEX
  5
70A
  8
PAL_1
  6
CONTINUOUS
 62
     7
 10
63.61267812595668
 20
304.526489509605
 30
0.0
  0
VERTEX
  5
70B
  8
PAL_1
  6
CONTINUOUS
 62
     7
 10
63.11076273183203
 20
304.4864170794883
 30
0.0
  0
VERTEX
  5
70C
  8
PAL_1
  6
CONTINUOUS
 62
     7
 10
62.60532731500417
 20
304.4296234951589
 30
0.0
  0
VERTEX
  5
70D
  8
PAL_1
  6
CONTINUOUS
 62
     7
 10
62.09673481056876
 20
304.355732701738
 30
0.0
  0
VERTEX
  5
70E
  8
PAL_1
  6
CONTINUOUS
 62
     7
 10
61.5853660911535
 20
304.2643868449167
 30
0.0
  0
VERTEX
  5
70F
  8
PAL_1
  6
CONTINUOUS
 62
     7
 10
61.07161955974315
 20
304.1552481155901
 30
0.0
  0
VERTEX
  5
710
  8
PAL_1
  6
CONTINUOUS
 62
     7
 10
60.55591064198421
 20
304.0280005939262
 30
0.0
  0
VERTEX
  5
711
  8
PAL_1
  6
CONTINUOUS
 62
     7
 10
60.03867117551144
 20
303.8823520809188
 30
0.0
  0
VERTEX
  5
712
  8
PAL_1
  6
CONTINUOUS
 62
     7
 10
59.52034869457377
 20
303.7180359048072
 30
0.0
  0
VERTEX
  5
713
  8
PAL_1
  6
CONTINUOUS
 62
     7
 10
59.00140560904395
 20
303.5348126891823
 30
0.0
  0
VERTEX
  5
714
  8
PAL_1
  6
CONTINUOUS
 62
     7
 10
58.48231827777041
 20
303.3324720691382
 30
0.0
  0
VERTEX
  5
715
  8
PAL_1
  6
CONTINUOUS
 62
     7
 10
57.9635759771619
 20
303.1108343414948
 30
0.0
  0
VERTEX
  5
716
  8
PAL_1
  6
CONTINUOUS
 62
     7
 10
57.44567976687765
 20
302.8697520349233
 30
0.0
  0
VERTEX
  5
717
  8
PAL_1
  6
CONTINUOUS
 62
     7
 10
56.92914125551735
 20
302.609111385763
 30
0.0
  0
VERTEX
  5
718
  8
PAL_1
  6
CONTINUOUS
 62
     7
 10
56.41448127025387
 20
302.3288337054322
 30
0.0
  0
VERTEX
  5
719
  8
PAL_1
  6
CONTINUOUS
 62
     7
 10
55.9022284354133
 20
302.0288766256285
 30
0.0
  0
VERTEX
  5
71A
  8
PAL_1
  6
CONTINUOUS
 62
     7
 10
55.39291766606847
 20
301.7092352079769
 30
0.0
  0
VERTEX
  5
71B
  8
PAL_1
  6
CONTINUOUS
 62
     7
 10
54.88708858375566
 20
301.3699429054289
 30
0.0
  0
VERTEX
  5
71C
  8
PAL_1
  6
CONTINUOUS
 62
     7
 10
54.38528386243649
 20
301.0110723635447
 30
0.0
  0
VERTEX
  5
71D
  8
PAL_1
  6
CONTINUOUS
 62
     7
 10
53.8880475137875
 20
300.632736050793
 30
0.0
  0
VERTEX
  5
71E
  8
PAL_1
  6
CONTINUOUS
 62
     7
 10
53.39592312179587
 20
300.235086708181
 30
0.0
  0
VERTEX
  5
71F
  8
PAL_1
  6
CONTINUOUS
 62
     7
 10
52.90945203745198
 20
299.8183176098666
 30
0.0
  0
VERTEX
  5
720
  8
PAL_1
  6
CONTINUOUS
 62
     7
 10
52.42917154504281
 20
299.3826626278922
 30
0.0
  0
VERTEX
  5
721
  8
PAL_1
  6
CONTINUOUS
 62
     7
 10
51.95561301215204
 20
298.928396095805
 30
0.0
  0
VERTEX
  5
722
  8
PAL_1
  6
CONTINUOUS
 62
     7
 10
51.4893000359461
 20
298.4558324676612
 30
0.0
  0
VERTEX
  5
723
  8
PAL_1
  6
CONTINUOUS
 62
     7
 10
51.03074659866336
 20
297.9653257707417
 30
0.0
  0
VERTEX
  5
724
  8
PAL_1
  6
CONTINUOUS
 62
     7
 10
50.58045524541289
 20
297.4572688522013
 30
0.0
  0
VERTEX
  5
725
  8
PAL_1
  6
CONTINUOUS
 62
     7
 10
50.1389152974268
 20
296.9320924218069
 30
0.0
  0
VERTEX
  5
726
  8
PAL_1
  6
CONTINUOUS
 62
     7
 10
49.70660111378803
 20
296.3902638948678
 30
0.0
  0
VERTEX
  5
727
  8
PAL_1
  6
CONTINUOUS
 62
     7
 10
49.28397041437589
 20
295.8322860413903
 30
0.0
  0
VERTEX
  5
728
  8
PAL_1
  6
CONTINUOUS
 62
     7
 10
48.87146267633363
 20
295.2586954493729
 30
0.0
  0
VERTEX
  5
729
  8
PAL_1
  6
CONTINUOUS
 62
     7
 10
48.46949761577156
 20
294.670060811963
 30
0.0
  0
VERTEX
  5
72A
  8
PAL_1
  6
CONTINUOUS
 62
     7
 10
48.07847376568273
 20
294.0669810499022
 30
0.0
  0
VERTEX
  5
72B
  8
PAL_1
  6
CONTINUOUS
 62
     7
 10
47.69876716017628
 20
293.45008328226
 30
0.0
  0
VERTEX
  5
72C
  8
PAL_1
  6
CONTINUOUS
 62
     7
 10
47.33073013413866
 20
292.8200206598756
 30
0.0
  0
VERTEX
  5
72D
  8
PAL_1
  6
CONTINUOUS
 62
     7
 10
46.97469024632986
 20
292.1774700771705
 30
0.0
  0
VERTEX
  5
72E
  8
PAL_1
  6
CONTINUOUS
 62
     7
 10
46.63094933272822
 20
291.5231297790489
 30
0.0
  0
VERTEX
  5
72F
  8
PAL_1
  6
CONTINUOUS
 62
     7
 10
46.29978269567061
 20
290.8577168804419
 30
0.0
  0
VERTEX
  5
730
  8
PAL_1
  6
CONTINUOUS
 62
     7
 10
45.9814384330154
 20
290.1819648166783
 30
0.0
  0
VERTEX
  5
731
  8
PAL_1
  6
CONTINUOUS
 62
     7
 10
45.67613691020351
 20
289.4966207432652
 30
0.0
  0
VERTEX
  5
732
  8
PAL_1
  6
CONTINUOUS
 62
     7
 10
45.38407037672857
 20
288.8024429038331
 30
0.0
  0
VERTEX
  5
733
  8
PAL_1
  6
CONTINUOUS
 62
     7
 10
45.10540272717161
 20
288.100197984949
 30
0.0
  0
VERTEX
  5
734
  8
PAL_1
  6
CONTINUOUS
 62
     7
 10
44.84026940562737
 20
287.3906584762282
 30
0.0
  0
VERTEX
  5
735
  8
PAL_1
  6
CONTINUOUS
 62
     7
 10
44.58877745106953
 20
286.6746000536974
 30
0.0
  0
VERTEX
  5
736
  8
PAL_1
  6
CONTINUOUS
 62
     7
 10
44.35100567998402
 20
285.9527990036814
 30
0.0
  0
VERTEX
  5
737
  8
PAL_1
  6
CONTINUOUS
 62
     7
 10
44.12700500146421
 20
285.2260297036312
 30
0.0
  0
VERTEX
  5
738
  8
PAL_1
  6
CONTINUOUS
 62
     7
 10
43.9167988589171
 20
284.4950621752895
 30
0.0
  0
VERTEX
  5
739
  8
PAL_1
  6
CONTINUOUS
 62
     7
 10
43.72038379159159
 20
283.7606597244343
 30
0.0
  0
VERTEX
  5
73A
  8
PAL_1
  6
CONTINUOUS
 62
     7
 10
43.53773010831521
 20
283.0235766801601
 30
0.0
  0
VERTEX
  5
73B
  8
PAL_1
  6
CONTINUOUS
 62
     7
 10
43.36878266512125
 20
282.2845562452867
 30
0.0
  0
VERTEX
  5
73C
  8
PAL_1
  6
CONTINUOUS
 62
     7
 10
43.21346173786943
 20
281.5443284680405
 30
0.0
  0
VERTEX
  5
73D
  8
PAL_1
  6
CONTINUOUS
 62
     7
 10
43.07166398051062
 20
280.8036083436656
 30
0.0
  0
VERTEX
  5
73E
  8
PAL_1
  6
CONTINUOUS
 62
     7
 10
42.94326345932009
 20
280.0630940531047
 30
0.0
  0
VERTEX
  5
73F
  8
PAL_1
  6
CONTINUOUS
 62
     7
 10
42.72604411024457
 20
278.5853820607856
 30
0.0
  0
VERTEX
  5
740
  8
PAL_1
  6
CONTINUOUS
 62
     7
 10
42.56038760363898
 20
277.1163838356193
 30
0.0
  0
VERTEX
  5
741
  8
PAL_1
  6
CONTINUOUS
 62
     7
 10
42.44459184086668
 20
275.6609335499521
 30
0.0
  0
VERTEX
  5
742
  8
PAL_1
  6
CONTINUOUS
 62
     7
 10
42.37670935829964
 20
274.2234778984199
 30
0.0
  0
VERTEX
  5
743
  8
PAL_1
  6
CONTINUOUS
 62
     7
 10
42.35458855749999
 20
272.8080551467
 30
0.0
  0
VERTEX
  5
744
  8
PAL_1
  6
CONTINUOUS
 62
     7
 10
42.37670935829964
 20
271.3926323949801
 30
0.0
  0
VERTEX
  5
745
  8
PAL_1
  6
CONTINUOUS
 62
     7
 10
42.44459184086668
 20
269.9551767434479
 30
0.0
  0
VERTEX
  5
746
  8
PAL_1
  6
CONTINUOUS
 62
     7
 10
42.56038760363898
 20
268.4997264577807
 30
0.0
  0
VERTEX
  5
747
  8
PAL_1
  6
CONTINUOUS
 62
     7
 10
42.72604411024457
 20
267.0307282326144
 30
0.0
  0
VERTEX
  5
748
  8
PAL_1
  6
CONTINUOUS
 62
     7
 10
42.94326345932009
 20
265.5530162402954
 30
0.0
  0
VERTEX
  5
749
  8
PAL_1
  6
CONTINUOUS
 62
     7
 10
43.07166398051062
 20
264.8125019497345
 30
0.0
  0
VERTEX
  5
74A
  8
PAL_1
  6
CONTINUOUS
 62
     7
 10
43.21346173786943
 20
264.0717818253596
 30
0.0
  0
VERTEX
  5
74B
  8
PAL_1
  6
CONTINUOUS
 62
     7
 10
43.36878266512125
 20
263.3315540481133
 30
0.0
  0
VERTEX
  5
74C
  8
PAL_1
  6
CONTINUOUS
 62
     7
 10
43.53773010831521
 20
262.5925336132399
 30
0.0
  0
VERTEX
  5
74D
  8
PAL_1
  6
CONTINUOUS
 62
     7
 10
43.72038379159159
 20
261.8554505689658
 30
0.0
  0
VERTEX
  5
74E
  8
PAL_1
  6
CONTINUOUS
 62
     7
 10
43.9167988589171
 20
261.1210481181106
 30
0.0
  0
VERTEX
  5
74F
  8
PAL_1
  6
CONTINUOUS
 62
     7
 10
44.12700500146421
 20
260.3900805897688
 30
0.0
  0
VERTEX
  5
750
  8
PAL_1
  6
CONTINUOUS
 62
     7
 10
44.35100567998402
 20
259.6633112897186
 30
0.0
  0
VERTEX
  5
751
  8
PAL_1
  6
CONTINUOUS
 62
     7
 10
44.58877745106953
 20
258.9415102397027
 30
0.0
  0
VERTEX
  5
752
  8
PAL_1
  6
CONTINUOUS
 62
     7
 10
44.84026940562737
 20
258.2254518171719
 30
0.0
  0
VERTEX
  5
753
  8
PAL_1
  6
CONTINUOUS
 62
     7
 10
45.10540272717161
 20
257.5159123084512
 30
0.0
  0
VERTEX
  5
754
  8
PAL_1
  6
CONTINUOUS
 62
     7
 10
45.38407037672857
 20
256.8136673895669
 30
0.0
  0
VERTEX
  5
755
  8
PAL_1
  6
CONTINUOUS
 62
     7
 10
45.67613691020351
 20
256.1194895501349
 30
0.0
  0
VERTEX
  5
756
  8
PAL_1
  6
CONTINUOUS
 62
     7
 10
45.9814384330154
 20
255.4341454767217
 30
0.0
  0
VERTEX
  5
757
  8
PAL_1
  6
CONTINUOUS
 62
     7
 10
46.29978269567061
 20
254.758393412958
 30
0.0
  0
VERTEX
  5
758
  8
PAL_1
  6
CONTINUOUS
 62
     7
 10
46.63094933272822
 20
254.092980514351
 30
0.0
  0
VERTEX
  5
759
  8
PAL_1
  6
CONTINUOUS
 62
     7
 10
46.97469024632986
 20
253.4386402162295
 30
0.0
  0
VERTEX
  5
75A
  8
PAL_1
  6
CONTINUOUS
 62
     7
 10
47.33073013413866
 20
252.7960896335245
 30
0.0
  0
VERTEX
  5
75B
  8
PAL_1
  6
CONTINUOUS
 62
     7
 10
47.69876716017628
 20
252.16602701114
 30
0.0
  0
VERTEX
  5
75C
  8
PAL_1
  6
CONTINUOUS
 62
     7
 10
48.07847376568273
 20
251.5491292434979
 30
0.0
  0
VERTEX
  5
75D
  8
PAL_1
  6
CONTINUOUS
 62
     7
 10
48.46949761577156
 20
250.946049481437
 30
0.0
  0
VERTEX
  5
75E
  8
PAL_1
  6
CONTINUOUS
 62
     7
 10
48.87146267633363
 20
250.3574148440271
 30
0.0
  0
VERTEX
  5
75F
  8
PAL_1
  6
CONTINUOUS
 62
     7
 10
49.28397041437589
 20
249.7838242520097
 30
0.0
  0
VERTEX
  5
760
  8
PAL_1
  6
CONTINUOUS
 62
     7
 10
49.70660111378803
 20
249.2258463985323
 30
0.0
  0
VERTEX
  5
761
  8
PAL_1
  6
CONTINUOUS
 62
     7
 10
50.1389152974268
 20
248.6840178715931
 30
0.0
  0
VERTEX
  5
762
  8
PAL_1
  6
CONTINUOUS
 62
     7
 10
50.58045524541289
 20
248.1588414411988
 30
0.0
  0
VERTEX
  5
763
  8
PAL_1
  6
CONTINUOUS
 62
     7
 10
51.03074659866336
 20
247.6507845226584
 30
0.0
  0
VERTEX
  5
764
  8
PAL_1
  6
CONTINUOUS
 62
     7
 10
51.4893000359461
 20
247.1602778257388
 30
0.0
  0
VERTEX
  5
765
  8
PAL_1
  6
CONTINUOUS
 62
     7
 10
51.95561301215204
 20
246.687714197595
 30
0.0
  0
VERTEX
  5
766
  8
PAL_1
  6
CONTINUOUS
 62
     7
 10
52.42917154504281
 20
246.2334476655078
 30
0.0
  0
VERTEX
  5
767
  8
PAL_1
  6
CONTINUOUS
 62
     7
 10
52.90945203745198
 20
245.7977926835335
 30
0.0
  0
VERTEX
  5
768
  8
PAL_1
  6
CONTINUOUS
 62
     7
 10
53.39592312179587
 20
245.3810235852191
 30
0.0
  0
VERTEX
  5
769
  8
PAL_1
  6
CONTINUOUS
 62
     7
 10
53.8880475137875
 20
244.9833742426072
 30
0.0
  0
VERTEX
  5
76A
  8
PAL_1
  6
CONTINUOUS
 62
     7
 10
54.38528386243649
 20
244.6050379298554
 30
0.0
  0
VERTEX
  5
76B
  8
PAL_1
  6
CONTINUOUS
 62
     7
 10
54.88708858375566
 20
244.2461673879711
 30
0.0
  0
VERTEX
  5
76C
  8
PAL_1
  6
CONTINUOUS
 62
     7
 10
55.39291766606847
 20
243.9068750854231
 30
0.0
  0
VERTEX
  5
76D
  8
PAL_1
  6
CONTINUOUS
 62
     7
 10
55.9022284354133
 20
243.5872336677715
 30
0.0
  0
VERTEX
  5
76E
  8
PAL_1
  6
CONTINUOUS
 62
     7
 10
56.41448127025387
 20
243.2872765879679
 30
0.0
  0
VERTEX
  5
76F
  8
PAL_1
  6
CONTINUOUS
 62
     7
 10
56.92914125551735
 20
243.006998907637
 30
0.0
  0
VERTEX
  5
770
  8
PAL_1
  6
CONTINUOUS
 62
     7
 10
57.44567976687765
 20
242.7463582584767
 30
0.0
  0
VERTEX
  5
771
  8
PAL_1
  6
CONTINUOUS
 62
     7
 10
57.9635759771619
 20
242.5052759519052
 30
0.0
  0
VERTEX
  5
772
  8
PAL_1
  6
CONTINUOUS
 62
     7
 10
58.48231827777041
 20
242.2836382242618
 30
0.0
  0
VERTEX
  5
773
  8
PAL_1
  6
CONTINUOUS
 62
     7
 10
59.00140560904395
 20
242.0812976042177
 30
0.0
  0
VERTEX
  5
774
  8
PAL_1
  6
CONTINUOUS
 62
     7
 10
59.52034869457377
 20
241.8980743885929
 30
0.0
  0
VERTEX
  5
775
  8
PAL_1
  6
CONTINUOUS
 62
     7
 10
60.03867117551144
 20
241.7337582124812
 30
0.0
  0
VERTEX
  5
776
  8
PAL_1
  6
CONTINUOUS
 62
     7
 10
60.55591064198421
 20
241.5881096994738
 30
0.0
  0
VERTEX
  5
777
  8
PAL_1
  6
CONTINUOUS
 62
     7
 10
61.07161955974315
 20
241.4608621778098
 30
0.0
  0
VERTEX
  5
778
  8
PAL_1
  6
CONTINUOUS
 62
     7
 10
61.5853660911535
 20
241.3517234484833
 30
0.0
  0
VERTEX
  5
779
  8
PAL_1
  6
CONTINUOUS
 62
     7
 10
62.09673481056876
 20
241.260377591662
 30
0.0
  0
VERTEX
  5
77A
  8
PAL_1
  6
CONTINUOUS
 62
     7
 10
62.60532731500417
 20
241.1864867982411
 30
0.0
  0
VERTEX
  5
77B
  8
PAL_1
  6
CONTINUOUS
 62
     7
 10
63.11076273183203
 20
241.1296932139116
 30
0.0
  0
VERTEX
  5
77C
  8
PAL_1
  6
CONTINUOUS
 62
     7
 10
63.61267812595668
 20
241.089620783795
 30
0.0
  0
VERTEX
  5
77D
  8
PAL_1
  6
CONTINUOUS
 62
     7
 10
64.11072880958652
 20
241.0658770864293
 30
0.0
  0
VERTEX
  5
77E
  8
PAL_1
  6
CONTINUOUS
 62
     7
 10
64.6045885583
 20
241.0580551467
 30
0.0
  0
VERTEX
  5
77F
  8
PAL_1
  6
CONTINUOUS
 62
     7
 10
65.09844830701348
 20
241.0658770864293
 30
0.0
  0
VERTEX
  5
780
  8
PAL_1
  6
CONTINUOUS
 62
     7
 10
65.5964989906433
 20
241.089620783795
 30
0.0
  0
VERTEX
  5
781
  8
PAL_1
  6
CONTINUOUS
 62
     7
 10
66.09841438476796
 20
241.1296932139116
 30
0.0
  0
VERTEX
  5
782
  8
PAL_1
  6
CONTINUOUS
 62
     7
 10
66.6038498015958
 20
241.1864867982411
 30
0.0
  0
VERTEX
  5
783
  8
PAL_1
  6
CONTINUOUS
 62
     7
 10
67.11244230603123
 20
241.260377591662
 30
0.0
  0
VERTEX
  5
784
  8
PAL_1
  6
CONTINUOUS
 62
     7
 10
67.62381102544649
 20
241.3517234484833
 30
0.0
  0
VERTEX
  5
785
  8
PAL_1
  6
CONTINUOUS
 62
     7
 10
68.13755755685683
 20
241.4608621778098
 30
0.0
  0
VERTEX
  5
786
  8
PAL_1
  6
CONTINUOUS
 62
     7
 10
68.65326647461579
 20
241.5881096994738
 30
0.0
  0
VERTEX
  5
787
  8
PAL_1
  6
CONTINUOUS
 62
     7
 10
69.17050594108855
 20
241.7337582124812
 30
0.0
  0
VERTEX
  5
788
  8
PAL_1
  6
CONTINUOUS
 62
     7
 10
69.68882842202622
 20
241.8980743885929
 30
0.0
  0
VERTEX
  5
789
  8
PAL_1
  6
CONTINUOUS
 62
     7
 10
70.20777150755605
 20
242.0812976042177
 30
0.0
  0
VERTEX
  5
78A
  8
PAL_1
  6
CONTINUOUS
 62
     7
 10
70.72685883882959
 20
242.2836382242618
 30
0.0
  0
VERTEX
  5
78B
  8
PAL_1
  6
CONTINUOUS
 62
     7
 10
71.24560113943811
 20
242.5052759519052
 30
0.0
  0
VERTEX
  5
78C
  8
PAL_1
  6
CONTINUOUS
 62
     7
 10
71.76349734972237
 20
242.7463582584767
 30
0.0
  0
VERTEX
  5
78D
  8
PAL_1
  6
CONTINUOUS
 62
     7
 10
72.28003586108265
 20
243.006998907637
 30
0.0
  0
VERTEX
  5
78E
  8
PAL_1
  6
CONTINUOUS
 62
     7
 10
72.79469584634616
 20
243.2872765879679
 30
0.0
  0
VERTEX
  5
78F
  8
PAL_1
  6
CONTINUOUS
 62
     7
 10
73.30694868118668
 20
243.5872336677715
 30
0.0
  0
VERTEX
  5
790
  8
PAL_1
  6
CONTINUOUS
 62
     7
 10
73.81625945053155
 20
243.9068750854231
 30
0.0
  0
VERTEX
  5
791
  8
PAL_1
  6
CONTINUOUS
 62
     7
 10
74.32208853284436
 20
244.2461673879711
 30
0.0
  0
VERTEX
  5
792
  8
PAL_1
  6
CONTINUOUS
 62
     7
 10
74.82389325416351
 20
244.6050379298554
 30
0.0
  0
VERTEX
  5
793
  8
PAL_1
  6
CONTINUOUS
 62
     7
 10
75.3211296028125
 20
244.9833742426072
 30
0.0
  0
VERTEX
  5
794
  8
PAL_1
  6
CONTINUOUS
 62
     7
 10
75.81325399480411
 20
245.3810235852191
 30
0.0
  0
VERTEX
  5
795
  8
PAL_1
  6
CONTINUOUS
 62
     7
 10
76.29972507914803
 20
245.7977926835335
 30
0.0
  0
VERTEX
  5
796
  8
PAL_1
  6
CONTINUOUS
 62
     7
 10
76.78000557155717
 20
246.2334476655078
 30
0.0
  0
VERTEX
  5
797
  8
PAL_1
  6
CONTINUOUS
 62
     7
 10
77.25356410444796
 20
246.687714197595
 30
0.0
  0
VERTEX
  5
798
  8
PAL_1
  6
CONTINUOUS
 62
     7
 10
77.71987708065389
 20
247.1602778257388
 30
0.0
  0
VERTEX
  5
799
  8
PAL_1
  6
CONTINUOUS
 62
     7
 10
78.17843051793665
 20
247.6507845226584
 30
0.0
  0
VERTEX
  5
79A
  8
PAL_1
  6
CONTINUOUS
 62
     7
 10
78.62872187118714
 20
248.1588414411988
 30
0.0
  0
VERTEX
  5
79B
  8
PAL_1
  6
CONTINUOUS
 62
     7
 10
79.07026181917321
 20
248.6840178715931
 30
0.0
  0
VERTEX
  5
79C
  8
PAL_1
  6
CONTINUOUS
 62
     7
 10
79.50257600281198
 20
249.2258463985323
 30
0.0
  0
VERTEX
  5
79D
  8
PAL_1
  6
CONTINUOUS
 62
     7
 10
79.92520670222412
 20
249.7838242520097
 30
0.0
  0
VERTEX
  5
79E
  8
PAL_1
  6
CONTINUOUS
 62
     7
 10
80.33771444026637
 20
250.3574148440271
 30
0.0
  0
VERTEX
  5
79F
  8
PAL_1
  6
CONTINUOUS
 62
     7
 10
80.73967950082846
 20
250.946049481437
 30
0.0
  0
VERTEX
  5
7A0
  8
PAL_1
  6
CONTINUOUS
 62
     7
 10
81.13070335091729
 20
251.5491292434979
 30
0.0
  0
VERTEX
  5
7A1
  8
PAL_1
  6
CONTINUOUS
 62
     7
 10
81.51040995642374
 20
252.16602701114
 30
0.0
  0
VERTEX
  5
7A2
  8
PAL_1
  6
CONTINUOUS
 62
     7
 10
81.87844698246134
 20
252.7960896335245
 30
0.0
  0
VERTEX
  5
7A3
  8
PAL_1
  6
CONTINUOUS
 62
     7
 10
82.23448687027013
 20
253.4386402162295
 30
0.0
  0
VERTEX
  5
7A4
  8
PAL_1
  6
CONTINUOUS
 62
     7
 10
82.57822778387175
 20
254.092980514351
 30
0.0
  0
VERTEX
  5
7A5
  8
PAL_1
  6
CONTINUOUS
 62
     7
 10
82.90939442092936
 20
254.758393412958
 30
0.0
  0
VERTEX
  5
7A6
  8
PAL_1
  6
CONTINUOUS
 62
     7
 10
83.22773868358458
 20
255.4341454767217
 30
0.0
  0
VERTEX
  5
7A7
  8
PAL_1
  6
CONTINUOUS
 62
     7
 10
83.53304020639652
 20
256.1194895501349
 30
0.0
  0
VERTEX
  5
7A8
  8
PAL_1
  6
CONTINUOUS
 62
     7
 10
83.82510673987144
 20
256.8136673895669
 30
0.0
  0
VERTEX
  5
7A9
  8
PAL_1
  6
CONTINUOUS
 62
     7
 10
84.10377438942844
 20
257.5159123084512
 30
0.0
  0
VERTEX
  5
7AA
  8
PAL_1
  6
CONTINUOUS
 62
     7
 10
84.36890771097264
 20
258.2254518171719
 30
0.0
  0
VERTEX
  5
7AB
  8
PAL_1
  6
CONTINUOUS
 62
     7
 10
84.62039966553048
 20
258.9415102397027
 30
0.0
  0
VERTEX
  5
7AC
  8
PAL_1
  6
CONTINUOUS
 62
     7
 10
84.85817143661598
 20
259.6633112897186
 30
0.0
  0
VERTEX
  5
7AD
  8
PAL_1
  6
CONTINUOUS
 62
     7
 10
85.08217211513578
 20
260.3900805897688
 30
0.0
  0
VERTEX
  5
7AE
  8
PAL_1
  6
CONTINUOUS
 62
     7
 10
85.29237825768291
 20
261.1210481181106
 30
0.0
  0
VERTEX
  5
7AF
  8
PAL_1
  6
CONTINUOUS
 62
     7
 10
85.48879332500842
 20
261.8554505689658
 30
0.0
  0
VERTEX
  5
7B0
  8
PAL_1
  6
CONTINUOUS
 62
     7
 10
85.67144700828477
 20
262.5925336132399
 30
0.0
  0
VERTEX
  5
7B1
  8
PAL_1
  6
CONTINUOUS
 62
     7
 10
85.84039445147874
 20
263.3315540481133
 30
0.0
  0
VERTEX
  5
7B2
  8
PAL_1
  6
CONTINUOUS
 62
     7
 10
85.99571537873055
 20
264.0717818253596
 30
0.0
  0
VERTEX
  5
7B3
  8
PAL_1
  6
CONTINUOUS
 62
     7
 10
86.13751313608938
 20
264.8125019497345
 30
0.0
  0
VERTEX
  5
7B4
  8
PAL_1
  6
CONTINUOUS
 62
     7
 10
86.26591365727991
 20
265.5530162402954
 30
0.0
  0
VERTEX
  5
7B5
  8
PAL_1
  6
CONTINUOUS
 62
     7
 10
86.48313300635542
 20
267.0307282326144
 30
0.0
  0
VERTEX
  5
7B6
  8
PAL_1
  6
CONTINUOUS
 62
     7
 10
86.648789512961
 20
268.4997264577807
 30
0.0
  0
VERTEX
  5
7B7
  8
PAL_1
  6
CONTINUOUS
 62
     7
 10
86.7645852757333
 20
269.9551767434479
 30
0.0
  0
VERTEX
  5
7B8
  8
PAL_1
  6
CONTINUOUS
 62
     7
 10
86.83246775830033
 20
271.3926323949801
 30
0.0
  0
VERTEX
  5
7B9
  8
PAL_1
  6
CONTINUOUS
 62
     7
 10
86.8545885591
 20
272.8080551467
 30
0.0
  0
VERTEX
  5
7BA
  8
PAL_1
  6
CONTINUOUS
 62
     7
 10
86.83246775830033
 20
274.2234778984199
 30
0.0
  0
VERTEX
  5
7BB
  8
PAL_1
  6
CONTINUOUS
 62
     7
 10
86.7645852757333
 20
275.6609335499521
 30
0.0
  0
VERTEX
  5
7BC
  8
PAL_1
  6
CONTINUOUS
 62
     7
 10
86.648789512961
 20
277.1163838356193
 30
0.0
  0
VERTEX
  5
7BD
  8
PAL_1
  6
CONTINUOUS
 62
     7
 10
86.48313300635542
 20
278.5853820607856
 30
0.0
  0
VERTEX
  5
7BE
  8
PAL_1
  6
CONTINUOUS
 62
     7
 10
86.26591365727991
 20
280.0630940531047
 30
0.0
  0
VERTEX
  5
7BF
  8
PAL_1
  6
CONTINUOUS
 62
     7
 10
86.13751313608938
 20
280.8036083436656
 30
0.0
  0
VERTEX
  5
7C0
  8
PAL_1
  6
CONTINUOUS
 62
     7
 10
85.99571537873055
 20
281.5443284680405
 30
0.0
  0
VERTEX
  5
7C1
  8
PAL_1
  6
CONTINUOUS
 62
     7
 10
85.84039445147874
 20
282.2845562452867
 30
0.0
  0
VERTEX
  5
7C2
  8
PAL_1
  6
CONTINUOUS
 62
     7
 10
85.67144700828477
 20
283.0235766801601
 30
0.0
  0
VERTEX
  5
7C3
  8
PAL_1
  6
CONTINUOUS
 62
     7
 10
85.48879332500842
 20
283.7606597244343
 30
0.0
  0
VERTEX
  5
7C4
  8
PAL_1
  6
CONTINUOUS
 62
     7
 10
85.29237825768291
 20
284.4950621752895
 30
0.0
  0
VERTEX
  5
7C5
  8
PAL_1
  6
CONTINUOUS
 62
     7
 10
85.08217211513578
 20
285.2260297036312
 30
0.0
  0
VERTEX
  5
7C6
  8
PAL_1
  6
CONTINUOUS
 62
     7
 10
84.85817143661598
 20
285.9527990036814
 30
0.0
  0
VERTEX
  5
7C7
  8
PAL_1
  6
CONTINUOUS
 62
     7
 10
84.62039966553048
 20
286.6746000536974
 30
0.0
  0
VERTEX
  5
7C8
  8
PAL_1
  6
CONTINUOUS
 62
     7
 10
84.36890771097264
 20
287.3906584762282
 30
0.0
  0
VERTEX
  5
7C9
  8
PAL_1
  6
CONTINUOUS
 62
     7
 10
84.10377438942844
 20
288.100197984949
 30
0.0
  0
VERTEX
  5
7CA
  8
PAL_1
  6
CONTINUOUS
 62
     7
 10
83.82510673987144
 20
288.8024429038331
 30
0.0
  0
VERTEX
  5
7CB
  8
PAL_1
  6
CONTINUOUS
 62
     7
 10
83.53304020639652
 20
289.4966207432652
 30
0.0
  0
VERTEX
  5
7CC
  8
PAL_1
  6
CONTINUOUS
 62
     7
 10
83.22773868358458
 20
290.1819648166783
 30
0.0
  0
VERTEX
  5
7CD
  8
PAL_1
  6
CONTINUOUS
 62
     7
 10
82.90939442092936
 20
290.8577168804419
 30
0.0
  0
VERTEX
  5
7CE
  8
PAL_1
  6
CONTINUOUS
 62
     7
 10
82.57822778387175
 20
291.5231297790489
 30
0.0
  0
VERTEX
  5
7CF
  8
PAL_1
  6
CONTINUOUS
 62
     7
 10
82.23448687027013
 20
292.1774700771705
 30
0.0
  0
VERTEX
  5
7D0
  8
PAL_1
  6
CONTINUOUS
 62
     7
 10
81.87844698246134
 20
292.8200206598756
 30
0.0
  0
VERTEX
  5
7D1
  8
PAL_1
  6
CONTINUOUS
 62
     7
 10
81.51040995642374
 20
293.45008328226
 30
0.0
  0
VERTEX
  5
7D2
  8
PAL_1
  6
CONTINUOUS
 62
     7
 10
81.13070335091729
 20
294.0669810499022
 30
0.0
  0
VERTEX
  5
7D3
  8
PAL_1
  6
CONTINUOUS
 62
     7
 10
80.73967950082846
 20
294.670060811963
 30
0.0
  0
VERTEX
  5
7D4
  8
PAL_1
  6
CONTINUOUS
 62
     7
 10
80.33771444026637
 20
295.2586954493729
 30
0.0
  0
VERTEX
  5
7D5
  8
PAL_1
  6
CONTINUOUS
 62
     7
 10
79.92520670222412
 20
295.8322860413903
 30
0.0
  0
VERTEX
  5
7D6
  8
PAL_1
  6
CONTINUOUS
 62
     7
 10
79.50257600281198
 20
296.3902638948678
 30
0.0
  0
VERTEX
  5
7D7
  8
PAL_1
  6
CONTINUOUS
 62
     7
 10
79.07026181917321
 20
296.9320924218069
 30
0.0
  0
VERTEX
  5
7D8
  8
PAL_1
  6
CONTINUOUS
 62
     7
 10
78.62872187118714
 20
297.4572688522013
 30
0.0
  0
VERTEX
  5
7D9
  8
PAL_1
  6
CONTINUOUS
 62
     7
 10
78.17843051793665
 20
297.9653257707417
 30
0.0
  0
VERTEX
  5
7DA
  8
PAL_1
  6
CONTINUOUS
 62
     7
 10
77.71987708065389
 20
298.4558324676612
 30
0.0
  0
VERTEX
  5
7DB
  8
PAL_1
  6
CONTINUOUS
 62
     7
 10
77.25356410444796
 20
298.928396095805
 30
0.0
  0
VERTEX
  5
7DC
  8
PAL_1
  6
CONTINUOUS
 62
     7
 10
76.78000557155717
 20
299.3826626278922
 30
0.0
  0
VERTEX
  5
7DD
  8
PAL_1
  6
CONTINUOUS
 62
     7
 10
76.29972507914803
 20
299.8183176098666
 30
0.0
  0
VERTEX
  5
7DE
  8
PAL_1
  6
CONTINUOUS
 62
     7
 10
75.81325399480411
 20
300.235086708181
 30
0.0
  0
VERTEX
  5
7DF
  8
PAL_1
  6
CONTINUOUS
 62
     7
 10
75.3211296028125
 20
300.632736050793
 30
0.0
  0
VERTEX
  5
7E0
  8
PAL_1
  6
CONTINUOUS
 62
     7
 10
74.82389325416351
 20
301.0110723635447
 30
0.0
  0
VERTEX
  5
7E1
  8
PAL_1
  6
CONTINUOUS
 62
     7
 10
74.32208853284436
 20
301.3699429054289
 30
0.0
  0
VERTEX
  5
7E2
  8
PAL_1
  6
CONTINUOUS
 62
     7
 10
73.81625945053155
 20
301.7092352079769
 30
0.0
  0
VERTEX
  5
7E3
  8
PAL_1
  6
CONTINUOUS
 62
     7
 10
73.30694868118668
 20
302.0288766256285
 30
0.0
  0
VERTEX
  5
7E4
  8
PAL_1
  6
CONTINUOUS
 62
     7
 10
72.79469584634616
 20
302.3288337054322
 30
0.0
  0
VERTEX
  5
7E5
  8
PAL_1
  6
CONTINUOUS
 62
     7
 10
72.28003586108265
 20
302.609111385763
 30
0.0
  0
VERTEX
  5
7E6
  8
PAL_1
  6
CONTINUOUS
 62
     7
 10
71.76349734972237
 20
302.8697520349233
 30
0.0
  0
VERTEX
  5
7E7
  8
PAL_1
  6
CONTINUOUS
 62
     7
 10
71.24560113943811
 20
303.1108343414948
 30
0.0
  0
VERTEX
  5
7E8
  8
PAL_1
  6
CONTINUOUS
 62
     7
 10
70.72685883882959
 20
303.3324720691382
 30
0.0
  0
VERTEX
  5
7E9
  8
PAL_1
  6
CONTINUOUS
 62
     7
 10
70.20777150755605
 20
303.5348126891823
 30
0.0
  0
VERTEX
  5
7EA
  8
PAL_1
  6
CONTINUOUS
 62
     7
 10
69.68882842202622
 20
303.7180359048072
 30
0.0
  0
VERTEX
  5
7EB
  8
PAL_1
  6
CONTINUOUS
 62
     7
 10
69.17050594108855
 20
303.8823520809188
 30
0.0
  0
VERTEX
  5
7EC
  8
PAL_1
  6
CONTINUOUS
 62
     7
 10
68.65326647461579
 20
304.0280005939262
 30
0.0
  0
VERTEX
  5
7ED
  8
PAL_1
  6
CONTINUOUS
 62
     7
 10
68.13755755685683
 20
304.1552481155901
 30
0.0
  0
VERTEX
  5
7EE
  8
PAL_1
  6
CONTINUOUS
 62
     7
 10
67.62381102544649
 20
304.2643868449167
 30
0.0
  0
VERTEX
  5
7EF
  8
PAL_1
  6
CONTINUOUS
 62
     7
 10
67.11244230603123
 20
304.355732701738
 30
0.0
  0
VERTEX
  5
7F0
  8
PAL_1
  6
CONTINUOUS
 62
     7
 10
66.6038498015958
 20
304.4296234951589
 30
0.0
  0
VERTEX
  5
7F1
  8
PAL_1
  6
CONTINUOUS
 62
     7
 10
66.09841438476796
 20
304.4864170794883
 30
0.0
  0
VERTEX
  5
7F2
  8
PAL_1
  6
CONTINUOUS
 62
     7
 10
65.5964989906433
 20
304.526489509605
 30
0.0
  0
VERTEX
  5
7F3
  8
PAL_1
  6
CONTINUOUS
 62
     7
 10
65.09844830701348
 20
304.5502332069707
 30
0.0
  0
SEQEND
  5
7F4
  8
PAL_1
  6
CONTINUOUS
 62
     7
  0
ARC
  5
7F5
  8
PAL_1
  6
CONTINUOUS
 62
     7
 10
54.959120362
 20
382.316915883
 30
0.0
 40
19.00000000000001
 50
315.0000000000001
 51
79.88828381050003
  0
LINE
  5
7F6
  8
PAL_1
  6
CONTINUOUS
 62
     7
 10
56.4624529345
 20
356.9501907704
 30
0.0
 11
68.3941492046
 21
368.8818870404
 31
0.0
  0
ARC
  5
7F7
  8
PAL_1
  6
CONTINUOUS
 62
     7
 10
70.6045885583
 20
342.8080551467
 30
0.0
 40
20.00000000000001
 50
135.0
 51
315.0000000000001
  0
LINE
  5
7F8
  8
PAL_1
  6
CONTINUOUS
 62
     7
 10
94.1222906076
 20
338.0414859485
 30
0.0
 11
84.746724182
 21
328.6659195229
 31
0.0
  0
ARC
  5
7F9
  8
PAL_1
  6
CONTINUOUS
 62
     7
 10
116.7497076055
 20
315.4140689505
 30
0.0
 40
31.99999999999999
 50
23.96264656240001
 51
135.0
  0
ARC
  5
7FA
  8
PAL_1
  6
CONTINUOUS
 62
     7
 10
-220.9863205326
 20
165.3080551467
 30
0.0
 40
401.5909090909093
 50
0.0
 51
23.9626465624
  0
ARC
  5
7FB
  8
PAL_1
  6
CONTINUOUS
 62
     7
 10
38.1045885583
 20
165.3080551467
 30
0.0
 40
142.4999999999982
 50
180.0
 51
0.0
  0
ARC
  5
7FC
  8
PAL_1
  6
CONTINUOUS
 62
     7
 10
297.1954976492
 20
165.3080551467
 30
0.0
 40
401.5909090909013
 50
154.6948869989
 51
180.0
  0
ARC
  5
7FD
  8
PAL_1
  6
CONTINUOUS
 62
     7
 10
38.1045885583
 20
287.8080551467
 30
0.0
 40
115.0
 50
79.8882838105
 51
154.6948869989
  0
ENDBLK
  5
7FF
  8
0
  0
BLOCK
  8
0
  2
SE1
 70
     0
 10
0.0
 20
0.0
 30
0.0
  3
SE1
  1

  0
ARC
  5
801
  8
PAL_2
  6
CONTINUOUS
 62
     7
 10
411.6349300778
 20
231.7561236055
 30
0.0
 40
203.2233369814007
 50
149.9271949858
 51
227.6515514956
  0
ARC
  5
802
  8
PAL_2
  6
CONTINUOUS
 62
     7
 10
313.4115930964
 20
288.6319307696
 30
0.0
 40
89.72143669627798
 50
117.0936063392
 51
149.9271949858
  0
ARC
  5
803
  8
PAL_2
  6
CONTINUOUS
 62
     7
 10
285.3008384774
 20
343.580281269
 30
0.0
 40
28.0
 50
15.00000000000001
 51
117.0936063392001
  0
LINE
  5
804
  8
PAL_2
  6
CONTINUOUS
 62
     7
 10
312.3467616135
 20
350.8272145319
 30
0.0
 11
325.3375202678
 21
302.3450432052
 31
0.0
  0
ARC
  5
805
  8
PAL_2
  6
CONTINUOUS
 62
     7
 10
337.4115930964
 20
305.580281269
 30
0.0
 40
12.5
 50
194.9999999999999
 51
352.0
  0
LINE
  5
806
  8
PAL_2
  6
CONTINUOUS
 62
     7
 10
349.7899439557
 20
303.840617507
 30
0.0
 11
354.5407228471
 21
337.6441657887
 31
0.0
  0
ARC
  5
807
  8
PAL_2
  6
CONTINUOUS
 62
     7
 10
370.385011947
 20
335.4173961733
 30
0.0
 40
16.00000000000001
 50
39.39217559709996
 51
172.0000000000001
  0
ARC
  5
808
  8
PAL_2
  6
CONTINUOUS
 62
     7
 10
313.4115930964
 20
288.6319307696
 30
0.0
 40
89.721436696278
 50
30.07280501419999
 51
39.39217559709996
  0
ARC
  5
809
  8
PAL_2
  6
CONTINUOUS
 62
     7
 10
215.188256115
 20
231.7561236055
 30
0.0
 40
203.2233369814007
 50
312.3484485044
 51
30.07280501419999
  0
ARC
  5
80A
  8
PAL_2
  6
CONTINUOUS
 62
     7
 10
313.4115930964
 20
123.9932846126
 30
0.0
 40
57.41300334360812
 50
227.6515514955999
 51
312.3484485044
  0
POLYLINE
  5
80B
  8
PAL_2
  6
CONTINUOUS
 62
     7
 66
     1
 10
0.0
 20
0.0
 30
0.0
 70
     1
  0
VERTEX
  5
80C
  8
PAL_2
  6
CONTINUOUS
 62
     7
 10
298.863958331214
 20
297.706437009733
 30
0.0
  0
VERTEX
  5
80D
  8
PAL_2
  6
CONTINUOUS
 62
     7
 10
298.5400142971764
 20
297.8520580231739
 30
0.0
  0
VERTEX
  5
80E
  8
PAL_2
  6
CONTINUOUS
 62
     7
 10
298.2091002876576
 20
297.9898629118849
 30
0.0
  0
VERTEX
  5
80F
  8
PAL_2
  6
CONTINUOUS
 62
     7
 10
297.8713205685245
 20
298.1195201914185
 30
0.0
  0
VERTEX
  5
810
  8
PAL_2
  6
CONTINUOUS
 62
     7
 10
297.5267953131381
 20
298.2407010749288
 30
0.0
  0
VERTEX
  5
811
  8
PAL_2
  6
CONTINUOUS
 62
     7
 10
297.1756609441694
 20
298.3530805738422
 30
0.0
  0
VERTEX
  5
812
  8
PAL_2
  6
CONTINUOUS
 62
     7
 10
296.8180704199493
 20
298.4563386390262
 30
0.0
  0
VERTEX
  5
813
  8
PAL_2
  6
CONTINUOUS
 62
     7
 10
296.4541934601736
 20
298.5501613376381
 30
0.0
  0
VERTEX
  5
814
  8
PAL_2
  6
CONTINUOUS
 62
     7
 10
296.0842167059449
 20
298.634242060201
 30
0.0
  0
VERTEX
  5
815
  8
PAL_2
  6
CONTINUOUS
 62
     7
 10
295.7083438093698
 20
298.7082827518269
 30
0.0
  0
VERTEX
  5
816
  8
PAL_2
  6
CONTINUOUS
 62
     7
 10
295.3267954482281
 20
298.7719951609146
 30
0.0
  0
VERTEX
  5
817
  8
PAL_2
  6
CONTINUOUS
 62
     7
 10
294.9398092616103
 20
298.8251020980674
 30
0.0
  0
VERTEX
  5
818
  8
PAL_2
  6
CONTINUOUS
 62
     7
 10
294.5476397028631
 20
298.8673386974626
 30
0.0
  0
VERTEX
  5
819
  8
PAL_2
  6
CONTINUOUS
 62
     7
 10
294.1505578067043
 20
298.8984536724202
 30
0.0
  0
VERTEX
  5
81A
  8
PAL_2
  6
CONTINUOUS
 62
     7
 10
293.7488508679555
 20
298.9182105565142
 30
0.0
  0
VERTEX
  5
81B
  8
PAL_2
  6
CONTINUOUS
 62
     7
 10
293.3428220299954
 20
298.9263889212332
 30
0.0
  0
VERTEX
  5
81C
  8
PAL_2
  6
CONTINUOUS
 62
     7
 10
292.9327897817502
 20
298.922785560945
 30
0.0
  0
VERTEX
  5
81D
  8
PAL_2
  6
CONTINUOUS
 62
     7
 10
292.5190873628091
 20
298.907215635761
 30
0.0
  0
VERTEX
  5
81E
  8
PAL_2
  6
CONTINUOUS
 62
     7
 10
292.1020620770642
 20
298.8795137628425
 30
0.0
  0
VERTEX
  5
81F
  8
PAL_2
  6
CONTINUOUS
 62
     7
 10
291.6820745161311
 20
298.8395350467375
 30
0.0
  0
VERTEX
  5
820
  8
PAL_2
  6
CONTINUOUS
 62
     7
 10
291.2594976946814
 20
298.7871560395062
 30
0.0
  0
VERTEX
  5
821
  8
PAL_2
  6
CONTINUOUS
 62
     7
 10
290.8347161007163
 20
298.7222756216693
 30
0.0
  0
VERTEX
  5
822
  8
PAL_2
  6
CONTINUOUS
 62
     7
 10
290.4081246647035
 20
298.6448157954196
 30
0.0
  0
VERTEX
  5
823
  8
PAL_2
  6
CONTINUOUS
 62
     7
 10
289.980127652389
 20
298.5547223820484
 30
0.0
  0
VERTEX
  5
824
  8
PAL_2
  6
CONTINUOUS
 62
     7
 10
289.5511374869541
 20
298.4519656161746
 30
0.0
  0
VERTEX
  5
825
  8
PAL_2
  6
CONTINUOUS
 62
     7
 10
289.1215735070148
 20
298.3365406301108
 30
0.0
  0
VERTEX
  5
826
  8
PAL_2
  6
CONTINUOUS
 62
     7
 10
288.6918606677268
 20
298.2084678225406
 30
0.0
  0
VERTEX
  5
827
  8
PAL_2
  6
CONTINUOUS
 62
     7
 10
288.2624281929729
 20
298.0677931066297
 30
0.0
  0
VERTEX
  5
828
  8
PAL_2
  6
CONTINUOUS
 62
     7
 10
287.833708187231
 20
297.9145880337123
 30
0.0
  0
VERTEX
  5
829
  8
PAL_2
  6
CONTINUOUS
 62
     7
 10
287.4061342162636
 20
297.7489497897901
 30
0.0
  0
VERTEX
  5
82A
  8
PAL_2
  6
CONTINUOUS
 62
     7
 10
286.9801398662087
 20
297.5710010632279
 30
0.0
  0
VERTEX
  5
82B
  8
PAL_2
  6
CONTINUOUS
 62
     7
 10
286.5561572909807
 20
297.380889783219
 30
0.0
  0
VERTEX
  5
82C
  8
PAL_2
  6
CONTINUOUS
 62
     7
 10
286.1346157581098
 20
297.1787887297977
 30
0.0
  0
VERTEX
  5
82D
  8
PAL_2
  6
CONTINUOUS
 62
     7
 10
285.7159402032402
 20
296.9648950173916
 30
0.0
  0
VERTEX
  5
82E
  8
PAL_2
  6
CONTINUOUS
 62
     7
 10
285.3005498034835
 20
296.7394294550995
 30
0.0
  0
VERTEX
  5
82F
  8
PAL_2
  6
CONTINUOUS
 62
     7
 10
284.8888565796753
 20
296.5026357880467
 30
0.0
  0
VERTEX
  5
830
  8
PAL_2
  6
CONTINUOUS
 62
     7
 10
284.4812640373084
 20
296.2547798252804
 30
0.0
  0
VERTEX
  5
831
  8
PAL_2
  6
CONTINUOUS
 62
     7
 10
284.0781658555333
 20
295.9961484607151
 30
0.0
  0
VERTEX
  5
832
  8
PAL_2
  6
CONTINUOUS
 62
     7
 10
283.6799446331153
 20
295.7270485945985
 30
0.0
  0
VERTEX
  5
833
  8
PAL_2
  6
CONTINUOUS
 62
     7
 10
283.2869706996383
 20
295.4478059638384
 30
0.0
  0
VERTEX
  5
834
  8
PAL_2
  6
CONTINUOUS
 62
     7
 10
282.8996009995488
 20
295.1587638902831
 30
0.0
  0
VERTEX
  5
835
  8
PAL_2
  6
CONTINUOUS
 62
     7
 10
282.5181780558639
 20
294.8602819566938
 30
0.0
  0
VERTEX
  5
836
  8
PAL_2
  6
CONTINUOUS
 62
     7
 10
282.1430290195183
 20
294.5527346206534
 30
0.0
  0
VERTEX
  5
837
  8
PAL_2
  6
CONTINUOUS
 62
     7
 10
281.774464809433
 20
294.2365097770465
 30
0.0
  0
VERTEX
  5
838
  8
PAL_2
  6
CONTINUOUS
 62
     7
 10
281.412779347446
 20
293.9120072799851
 30
0.0
  0
VERTEX
  5
839
  8
PAL_2
  6
CONTINUOUS
 62
     7
 10
281.0582488912866
 20
293.5796374351775
 30
0.0
  0
VERTEX
  5
83A
  8
PAL_2
  6
CONTINUOUS
 62
     7
 10
280.7111314678
 20
293.2398194737156
 30
0.0
  0
VERTEX
  5
83B
  8
PAL_2
  6
CONTINUOUS
 62
     7
 10
280.3716664076579
 20
292.8929800181136
 30
0.0
  0
VERTEX
  5
83C
  8
PAL_2
  6
CONTINUOUS
 62
     7
 10
280.0400739818445
 20
292.539551551168
 30
0.0
  0
VERTEX
  5
83D
  8
PAL_2
  6
CONTINUOUS
 62
     7
 10
279.7165551392796
 20
292.1799708978288
 30
0.0
  0
VERTEX
  5
83E
  8
PAL_2
  6
CONTINUOUS
 62
     7
 10
279.4012913440724
 20
291.8146777297981
 30
0.0
  0
VERTEX
  5
83F
  8
PAL_2
  6
CONTINUOUS
 62
     7
 10
279.0944445100647
 20
291.4441131019975
 30
0.0
  0
VERTEX
  5
840
  8
PAL_2
  6
CONTINUOUS
 62
     7
 10
278.7961570295712
 20
291.0687180294024
 30
0.0
  0
VERTEX
  5
841
  8
PAL_2
  6
CONTINUOUS
 62
     7
 10
278.5065518925234
 20
290.6889321120244
 30
0.0
  0
VERTEX
  5
842
  8
PAL_2
  6
CONTINUOUS
 62
     7
 10
278.225732891616
 20
290.3051922150613
 30
0.0
  0
VERTEX
  5
843
  8
PAL_2
  6
CONTINUOUS
 62
     7
 10
277.9537849085152
 20
289.9179312104275
 30
0.0
  0
VERTEX
  5
844
  8
PAL_2
  6
CONTINUOUS
 62
     7
 10
277.6907742757349
 20
289.5275767850499
 30
0.0
  0
VERTEX
  5
845
  8
PAL_2
  6
CONTINUOUS
 62
     7
 10
277.4367492084254
 20
289.134550320471
 30
0.0
  0
VERTEX
  5
846
  8
PAL_2
  6
CONTINUOUS
 62
     7
 10
277.1917403000267
 20
288.7392658474645
 30
0.0
  0
VERTEX
  5
847
  8
PAL_2
  6
CONTINUOUS
 62
     7
 10
276.9557610755427
 20
288.3421290785298
 30
0.0
  0
VERTEX
  5
848
  8
PAL_2
  6
CONTINUOUS
 62
     7
 10
276.7288085960687
 20
287.9435365203312
 30
0.0
  0
VERTEX
  5
849
  8
PAL_2
  6
CONTINUOUS
 62
     7
 10
276.5108641081535
 20
287.5438746673622
 30
0.0
  0
VERTEX
  5
84A
  8
PAL_2
  6
CONTINUOUS
 62
     7
 10
276.3018937316067
 20
287.1435192773794
 30
0.0
  0
VERTEX
  5
84B
  8
PAL_2
  6
CONTINUOUS
 62
     7
 10
276.1018491794443
 20
286.7428347284551
 30
0.0
  0
VERTEX
  5
84C
  8
PAL_2
  6
CONTINUOUS
 62
     7
 10
275.9106685038136
 20
286.3421734568512
 30
0.0
  0
VERTEX
  5
84D
  8
PAL_2
  6
CONTINUOUS
 62
     7
 10
275.7266327326354
 20
285.9381804615843
 30
0.0
  0
VERTEX
  5
84E
  8
PAL_2
  6
CONTINUOUS
 62
     7
 10
275.5482767200035
 20
285.5273823805825
 30
0.0
  0
VERTEX
  5
84F
  8
PAL_2
  6
CONTINUOUS
 62
     7
 10
275.3759102670703
 20
285.1099583007003
 30
0.0
  0
VERTEX
  5
850
  8
PAL_2
  6
CONTINUOUS
 62
     7
 10
275.2098435419081
 20
284.6861054496716
 30
0.0
  0
VERTEX
  5
851
  8
PAL_2
  6
CONTINUOUS
 62
     7
 10
275.0503861694251
 20
284.2560394061951
 30
0.0
  0
VERTEX
  5
852
  8
PAL_2
  6
CONTINUOUS
 62
     7
 10
274.8978462760662
 20
283.8199942381656
 30
0.0
  0
VERTEX
  5
853
  8
PAL_2
  6
CONTINUOUS
 62
     7
 10
274.7525294926498
 20
283.378222563822
 30
0.0
  0
VERTEX
  5
854
  8
PAL_2
  6
CONTINUOUS
 62
     7
 10
274.6147379192769
 20
282.9309955308865
 30
0.0
  0
VERTEX
  5
855
  8
PAL_2
  6
CONTINUOUS
 62
     7
 10
274.4847690568363
 20
282.4786027091449
 30
0.0
  0
VERTEX
  5
856
  8
PAL_2
  6
CONTINUOUS
 62
     7
 10
274.3629147102166
 20
282.0213518923798
 30
0.0
  0
VERTEX
  5
857
  8
PAL_2
  6
CONTINUOUS
 62
     7
 10
274.2494598688927
 20
281.5595688061023
 30
0.0
  0
VERTEX
  5
858
  8
PAL_2
  6
CONTINUOUS
 62
     7
 10
274.1446815711063
 20
281.0935967181439
 30
0.0
  0
VERTEX
  5
859
  8
PAL_2
  6
CONTINUOUS
 62
     7
 10
274.0488477583564
 20
280.6237959498584
 30
0.0
  0
VERTEX
  5
85A
  8
PAL_2
  6
CONTINUOUS
 62
     7
 10
273.962216127385
 20
280.15054328644
 30
0.0
  0
VERTEX
  5
85B
  8
PAL_2
  6
CONTINUOUS
 62
     7
 10
273.8850329872478
 20
279.6742312856916
 30
0.0
  0
VERTEX
  5
85C
  8
PAL_2
  6
CONTINUOUS
 62
     7
 10
273.817532129405
 20
279.1952674854512
 30
0.0
  0
VERTEX
  5
85D
  8
PAL_2
  6
CONTINUOUS
 62
     7
 10
273.75993371904
 20
278.7140735108131
 30
0.0
  0
VERTEX
  5
85E
  8
PAL_2
  6
CONTINUOUS
 62
     7
 10
273.7124432160025
 20
278.231084083247
 30
0.0
  0
VERTEX
  5
85F
  8
PAL_2
  6
CONTINUOUS
 62
     7
 10
273.6752503338761
 20
277.7467459346987
 30
0.0
  0
VERTEX
  5
860
  8
PAL_2
  6
CONTINUOUS
 62
     7
 10
273.6485280456768
 20
277.2615166307656
 30
0.0
  0
VERTEX
  5
861
  8
PAL_2
  6
CONTINUOUS
 62
     7
 10
273.6324316445937
 20
276.7758633080301
 30
0.0
  0
VERTEX
  5
862
  8
PAL_2
  6
CONTINUOUS
 62
     7
 10
273.6270978679891
 20
276.290261331616
 30
0.0
  0
VERTEX
  5
863
  8
PAL_2
  6
CONTINUOUS
 62
     7
 10
273.6326440925681
 20
275.8051928799833
 30
0.0
  0
VERTEX
  5
864
  8
PAL_2
  6
CONTINUOUS
 62
     7
 10
273.6491676082213
 20
275.3211454648687
 30
0.0
  0
VERTEX
  5
865
  8
PAL_2
  6
CONTINUOUS
 62
     7
 10
273.6767449775323
 20
274.8386103951231
 30
0.0
  0
VERTEX
  5
866
  8
PAL_2
  6
CONTINUOUS
 62
     7
 10
273.7154314873254
 20
274.3580811939435
 30
0.0
  0
VERTEX
  5
867
  8
PAL_2
  6
CONTINUOUS
 62
     7
 10
273.7652606979273
 20
273.8800519796702
 30
0.0
  0
VERTEX
  5
868
  8
PAL_2
  6
CONTINUOUS
 62
     7
 10
273.8262440950179
 20
273.4050158208711
 30
0.0
  0
VERTEX
  5
869
  8
PAL_2
  6
CONTINUOUS
 62
     7
 10
273.898370848081
 20
272.9334630768811
 30
0.0
  0
VERTEX
  5
86A
  8
PAL_2
  6
CONTINUOUS
 62
     7
 10
273.9816076785253
 20
272.4658797352793
 30
0.0
  0
VERTEX
  5
86B
  8
PAL_2
  6
CONTINUOUS
 62
     7
 10
274.075898839563
 20
272.0027457579683
 30
0.0
  0
VERTEX
  5
86C
  8
PAL_2
  6
CONTINUOUS
 62
     7
 10
274.181166208905
 20
271.5445334475662
 30
0.0
  0
VERTEX
  5
86D
  8
PAL_2
  6
CONTINUOUS
 62
     7
 10
274.2973094942808
 20
271.0917058457228
 30
0.0
  0
VERTEX
  5
86E
  8
PAL_2
  6
CONTINUOUS
 62
     7
 10
274.4242065507353
 20
270.6447151747388
 30
0.0
  0
VERTEX
  5
86F
  8
PAL_2
  6
CONTINUOUS
 62
     7
 10
274.561713807604
 20
270.2040013334855
 30
0.0
  0
VERTEX
  5
870
  8
PAL_2
  6
CONTINUOUS
 62
     7
 10
274.7096668020417
 20
269.7699904581202
 30
0.0
  0
VERTEX
  5
871
  8
PAL_2
  6
CONTINUOUS
 62
     7
 10
274.8678808149913
 20
269.3430935574552
 30
0.0
  0
VERTEX
  5
872
  8
PAL_2
  6
CONTINUOUS
 62
     7
 10
275.0361516045493
 20
268.9237052320914
 30
0.0
  0
VERTEX
  5
873
  8
PAL_2
  6
CONTINUOUS
 62
     7
 10
275.214256230813
 20
268.512202485574
 30
0.0
  0
VERTEX
  5
874
  8
PAL_2
  6
CONTINUOUS
 62
     7
 10
275.4019539655143
 20
268.1089436348873
 30
0.0
  0
VERTEX
  5
875
  8
PAL_2
  6
CONTINUOUS
 62
     7
 10
275.5989872790428
 20
267.7142673265882
 30
0.0
  0
VERTEX
  5
876
  8
PAL_2
  6
CONTINUOUS
 62
     7
 10
275.8050828968668
 20
267.3284916638037
 30
0.0
  0
VERTEX
  5
877
  8
PAL_2
  6
CONTINUOUS
 62
     7
 10
276.0199529168708
 20
266.9519134482024
 30
0.0
  0
VERTEX
  5
878
  8
PAL_2
  6
CONTINUOUS
 62
     7
 10
276.2432959787432
 20
266.5848075399093
 30
0.0
  0
VERTEX
  5
879
  8
PAL_2
  6
CONTINUOUS
 62
     7
 10
276.474798476286
 20
266.2274263371909
 30
0.0
  0
VERTEX
  5
87A
  8
PAL_2
  6
CONTINUOUS
 62
     7
 10
276.7141358033611
 20
265.8799993765955
 30
0.0
  0
VERTEX
  5
87B
  8
PAL_2
  6
CONTINUOUS
 62
     7
 10
276.9609736241507
 20
265.5427330531334
 30
0.0
  0
VERTEX
  5
87C
  8
PAL_2
  6
CONTINUOUS
 62
     7
 10
277.2149691584765
 20
265.2158104590067
 30
0.0
  0
VERTEX
  5
87D
  8
PAL_2
  6
CONTINUOUS
 62
     7
 10
277.475772473095
 20
264.8993913383924
 30
0.0
  0
VERTEX
  5
87E
  8
PAL_2
  6
CONTINUOUS
 62
     7
 10
277.743027770158
 20
264.5936121548358
 30
0.0
  0
VERTEX
  5
87F
  8
PAL_2
  6
CONTINUOUS
 62
     7
 10
278.0163746643843
 20
264.2985862669466
 30
0.0
  0
VERTEX
  5
880
  8
PAL_2
  6
CONTINUOUS
 62
     7
 10
278.2954494409301
 20
264.0144042073094
 30
0.0
  0
VERTEX
  5
881
  8
PAL_2
  6
CONTINUOUS
 62
     7
 10
278.5798862864521
 20
263.7411340588373
 30
0.0
  0
VERTEX
  5
882
  8
PAL_2
  6
CONTINUOUS
 62
     7
 10
278.8693184864268
 20
263.4788219222052
 30
0.0
  0
VERTEX
  5
883
  8
PAL_2
  6
CONTINUOUS
 62
     7
 10
279.1633795824041
 20
263.2274924675162
 30
0.0
  0
VERTEX
  5
884
  8
PAL_2
  6
CONTINUOUS
 62
     7
 10
279.4617044835244
 20
262.9871495629656
 30
0.0
  0
VERTEX
  5
885
  8
PAL_2
  6
CONTINUOUS
 62
     7
 10
279.7639305273071
 20
262.7577769729823
 30
0.0
  0
VERTEX
  5
886
  8
PAL_2
  6
CONTINUOUS
 62
     7
 10
280.0696984854115
 20
262.5393391181422
 30
0.0
  0
VERTEX
  5
887
  8
PAL_2
  6
CONTINUOUS
 62
     7
 10
280.3786535107629
 20
262.331781889052
 30
0.0
  0
VERTEX
  5
888
  8
PAL_2
  6
CONTINUOUS
 62
     7
 10
280.6904460231342
 20
262.1350335063997
 30
0.0
  0
VERTEX
  5
889
  8
PAL_2
  6
CONTINUOUS
 62
     7
 10
281.0047325309461
 20
261.9490054194481
 30
0.0
  0
VERTEX
  5
88A
  8
PAL_2
  6
CONTINUOUS
 62
     7
 10
281.3211763877049
 20
261.7735932353977
 30
0.0
  0
VERTEX
  5
88B
  8
PAL_2
  6
CONTINUOUS
 62
     7
 10
281.639448482127
 20
261.6086776722734
 30
0.0
  0
VERTEX
  5
88C
  8
PAL_2
  6
CONTINUOUS
 62
     7
 10
281.959227861586
 20
261.454125528267
 30
0.0
  0
VERTEX
  5
88D
  8
PAL_2
  6
CONTINUOUS
 62
     7
 10
282.2831718956237
 20
261.3085045148262
 30
0.0
  0
VERTEX
  5
88E
  8
PAL_2
  6
CONTINUOUS
 62
     7
 10
282.6140859051424
 20
261.1706996261151
 30
0.0
  0
VERTEX
  5
88F
  8
PAL_2
  6
CONTINUOUS
 62
     7
 10
282.9518656242756
 20
261.0410423465815
 30
0.0
  0
VERTEX
  5
890
  8
PAL_2
  6
CONTINUOUS
 62
     7
 10
283.2963908796619
 20
260.9198614630712
 30
0.0
  0
VERTEX
  5
891
  8
PAL_2
  6
CONTINUOUS
 62
     7
 10
283.6475252486307
 20
260.8074819641578
 30
0.0
  0
VERTEX
  5
892
  8
PAL_2
  6
CONTINUOUS
 62
     7
 10
284.0051157728507
 20
260.7042238989738
 30
0.0
  0
VERTEX
  5
893
  8
PAL_2
  6
CONTINUOUS
 62
     7
 10
284.3689927326265
 20
260.6104012003618
 30
0.0
  0
VERTEX
  5
894
  8
PAL_2
  6
CONTINUOUS
 62
     7
 10
284.7389694868551
 20
260.5263204777991
 30
0.0
  0
VERTEX
  5
895
  8
PAL_2
  6
CONTINUOUS
 62
     7
 10
285.1148423834303
 20
260.4522797861731
 30
0.0
  0
VERTEX
  5
896
  8
PAL_2
  6
CONTINUOUS
 62
     7
 10
285.496390744572
 20
260.3885673770856
 30
0.0
  0
VERTEX
  5
897
  8
PAL_2
  6
CONTINUOUS
 62
     7
 10
285.8833769311898
 20
260.3354604399328
 30
0.0
  0
VERTEX
  5
898
  8
PAL_2
  6
CONTINUOUS
 62
     7
 10
286.2755464899369
 20
260.2932238405375
 30
0.0
  0
VERTEX
  5
899
  8
PAL_2
  6
CONTINUOUS
 62
     7
 10
286.6726283860957
 20
260.2621088655799
 30
0.0
  0
VERTEX
  5
89A
  8
PAL_2
  6
CONTINUOUS
 62
     7
 10
287.0743353248445
 20
260.2423519814859
 30
0.0
  0
VERTEX
  5
89B
  8
PAL_2
  6
CONTINUOUS
 62
     7
 10
287.4803641628047
 20
260.2341736167669
 30
0.0
  0
VERTEX
  5
89C
  8
PAL_2
  6
CONTINUOUS
 62
     7
 10
287.8903964110499
 20
260.2377769770551
 30
0.0
  0
VERTEX
  5
89D
  8
PAL_2
  6
CONTINUOUS
 62
     7
 10
288.3040988299909
 20
260.253346902239
 30
0.0
  0
VERTEX
  5
89E
  8
PAL_2
  6
CONTINUOUS
 62
     7
 10
288.7211241157359
 20
260.2810487751576
 30
0.0
  0
VERTEX
  5
89F
  8
PAL_2
  6
CONTINUOUS
 62
     7
 10
289.1411116766691
 20
260.3210274912625
 30
0.0
  0
VERTEX
  5
8A0
  8
PAL_2
  6
CONTINUOUS
 62
     7
 10
289.5636884981187
 20
260.373406498494
 30
0.0
  0
VERTEX
  5
8A1
  8
PAL_2
  6
CONTINUOUS
 62
     7
 10
289.9884700920838
 20
260.4382869163309
 30
0.0
  0
VERTEX
  5
8A2
  8
PAL_2
  6
CONTINUOUS
 62
     7
 10
290.4150615280966
 20
260.5157467425804
 30
0.0
  0
VERTEX
  5
8A3
  8
PAL_2
  6
CONTINUOUS
 62
     7
 10
290.8430585404112
 20
260.6058401559517
 30
0.0
  0
VERTEX
  5
8A4
  8
PAL_2
  6
CONTINUOUS
 62
     7
 10
291.2720487058458
 20
260.7085969218253
 30
0.0
  0
VERTEX
  5
8A5
  8
PAL_2
  6
CONTINUOUS
 62
     7
 10
291.7016126857852
 20
260.8240219078892
 30
0.0
  0
VERTEX
  5
8A6
  8
PAL_2
  6
CONTINUOUS
 62
     7
 10
292.1313255250732
 20
260.9520947154595
 30
0.0
  0
VERTEX
  5
8A7
  8
PAL_2
  6
CONTINUOUS
 62
     7
 10
292.5607579998272
 20
261.0927694313704
 30
0.0
  0
VERTEX
  5
8A8
  8
PAL_2
  6
CONTINUOUS
 62
     7
 10
292.9894780055691
 20
261.2459745042878
 30
0.0
  0
VERTEX
  5
8A9
  8
PAL_2
  6
CONTINUOUS
 62
     7
 10
293.4170519765365
 20
261.41161274821
 30
0.0
  0
VERTEX
  5
8AA
  8
PAL_2
  6
CONTINUOUS
 62
     7
 10
293.8430463265914
 20
261.5895614747722
 30
0.0
  0
VERTEX
  5
8AB
  8
PAL_2
  6
CONTINUOUS
 62
     7
 10
294.2670289018193
 20
261.7796727547811
 30
0.0
  0
VERTEX
  5
8AC
  8
PAL_2
  6
CONTINUOUS
 62
     7
 10
294.6885704346902
 20
261.9817738082024
 30
0.0
  0
VERTEX
  5
8AD
  8
PAL_2
  6
CONTINUOUS
 62
     7
 10
295.1072459895599
 20
262.1956675206085
 30
0.0
  0
VERTEX
  5
8AE
  8
PAL_2
  6
CONTINUOUS
 62
     7
 10
295.5226363893165
 20
262.4211330829007
 30
0.0
  0
VERTEX
  5
8AF
  8
PAL_2
  6
CONTINUOUS
 62
     7
 10
295.9343296131248
 20
262.6579267499534
 30
0.0
  0
VERTEX
  5
8B0
  8
PAL_2
  6
CONTINUOUS
 62
     7
 10
296.3419221554917
 20
262.9057827127197
 30
0.0
  0
VERTEX
  5
8B1
  8
PAL_2
  6
CONTINUOUS
 62
     7
 10
296.7450203372668
 20
263.164414077285
 30
0.0
  0
VERTEX
  5
8B2
  8
PAL_2
  6
CONTINUOUS
 62
     7
 10
297.1432415596847
 20
263.4335139434015
 30
0.0
  0
VERTEX
  5
8B3
  8
PAL_2
  6
CONTINUOUS
 62
     7
 10
297.5362154931617
 20
263.7127565741617
 30
0.0
  0
VERTEX
  5
8B4
  8
PAL_2
  6
CONTINUOUS
 62
     7
 10
297.9235851932512
 20
264.0017986477169
 30
0.0
  0
VERTEX
  5
8B5
  8
PAL_2
  6
CONTINUOUS
 62
     7
 10
298.3050081369363
 20
264.3002805813064
 30
0.0
  0
VERTEX
  5
8B6
  8
PAL_2
  6
CONTINUOUS
 62
     7
 10
298.6801571732818
 20
264.6078279173468
 30
0.0
  0
VERTEX
  5
8B7
  8
PAL_2
  6
CONTINUOUS
 62
     7
 10
299.0487213833671
 20
264.9240527609537
 30
0.0
  0
VERTEX
  5
8B8
  8
PAL_2
  6
CONTINUOUS
 62
     7
 10
299.4104068453541
 20
265.2485552580151
 30
0.0
  0
VERTEX
  5
8B9
  8
PAL_2
  6
CONTINUOUS
 62
     7
 10
299.7649373015135
 20
265.5809251028227
 30
0.0
  0
VERTEX
  5
8BA
  8
PAL_2
  6
CONTINUOUS
 62
     7
 10
300.1120547250002
 20
265.9207430642845
 30
0.0
  0
VERTEX
  5
8BB
  8
PAL_2
  6
CONTINUOUS
 62
     7
 10
300.4515197851422
 20
266.2675825198864
 30
0.0
  0
VERTEX
  5
8BC
  8
PAL_2
  6
CONTINUOUS
 62
     7
 10
300.7831122109557
 20
266.6210109868322
 30
0.0
  0
VERTEX
  5
8BD
  8
PAL_2
  6
CONTINUOUS
 62
     7
 10
301.1066310535205
 20
266.9805916401714
 30
0.0
  0
VERTEX
  5
8BE
  8
PAL_2
  6
CONTINUOUS
 62
     7
 10
301.4218948487276
 20
267.345884808202
 30
0.0
  0
VERTEX
  5
8BF
  8
PAL_2
  6
CONTINUOUS
 62
     7
 10
301.7287416827352
 20
267.7164494360025
 30
0.0
  0
VERTEX
  5
8C0
  8
PAL_2
  6
CONTINUOUS
 62
     7
 10
302.0270291632288
 20
268.0918445085977
 30
0.0
  0
VERTEX
  5
8C1
  8
PAL_2
  6
CONTINUOUS
 62
     7
 10
302.3166343002767
 20
268.4716304259758
 30
0.0
  0
VERTEX
  5
8C2
  8
PAL_2
  6
CONTINUOUS
 62
     7
 10
302.597453301184
 20
268.8553703229389
 30
0.0
  0
VERTEX
  5
8C3
  8
PAL_2
  6
CONTINUOUS
 62
     7
 10
302.8694012842849
 20
269.2426313275725
 30
0.0
  0
VERTEX
  5
8C4
  8
PAL_2
  6
CONTINUOUS
 62
     7
 10
303.1324119170651
 20
269.6329857529502
 30
0.0
  0
VERTEX
  5
8C5
  8
PAL_2
  6
CONTINUOUS
 62
     7
 10
303.3864369843745
 20
270.026012217529
 30
0.0
  0
VERTEX
  5
8C6
  8
PAL_2
  6
CONTINUOUS
 62
     7
 10
303.6314458927733
 20
270.4212966905356
 30
0.0
  0
VERTEX
  5
8C7
  8
PAL_2
  6
CONTINUOUS
 62
     7
 10
303.8674251172573
 20
270.8184334594702
 30
0.0
  0
VERTEX
  5
8C8
  8
PAL_2
  6
CONTINUOUS
 62
     7
 10
304.0943775967313
 20
271.2170260176687
 30
0.0
  0
VERTEX
  5
8C9
  8
PAL_2
  6
CONTINUOUS
 62
     7
 10
304.3123220846466
 20
271.6166878706378
 30
0.0
  0
VERTEX
  5
8CA
  8
PAL_2
  6
CONTINUOUS
 62
     7
 10
304.5212924611932
 20
272.0170432606204
 30
0.0
  0
VERTEX
  5
8CB
  8
PAL_2
  6
CONTINUOUS
 62
     7
 10
304.7213370133557
 20
272.4177278095449
 30
0.0
  0
VERTEX
  5
8CC
  8
PAL_2
  6
CONTINUOUS
 62
     7
 10
304.9125176889864
 20
272.8183890811488
 30
0.0
  0
VERTEX
  5
8CD
  8
PAL_2
  6
CONTINUOUS
 62
     7
 10
305.0965534601647
 20
273.2223820764157
 30
0.0
  0
VERTEX
  5
8CE
  8
PAL_2
  6
CONTINUOUS
 62
     7
 10
305.2749094727965
 20
273.6331801574174
 30
0.0
  0
VERTEX
  5
8CF
  8
PAL_2
  6
CONTINUOUS
 62
     7
 10
305.4472759257297
 20
274.0506042372996
 30
0.0
  0
VERTEX
  5
8D0
  8
PAL_2
  6
CONTINUOUS
 62
     7
 10
305.6133426508919
 20
274.4744570883283
 30
0.0
  0
VERTEX
  5
8D1
  8
PAL_2
  6
CONTINUOUS
 62
     7
 10
305.7728000233749
 20
274.9045231318049
 30
0.0
  0
VERTEX
  5
8D2
  8
PAL_2
  6
CONTINUOUS
 62
     7
 10
305.9253399167338
 20
275.3405682998344
 30
0.0
  0
VERTEX
  5
8D3
  8
PAL_2
  6
CONTINUOUS
 62
     7
 10
306.0706567001501
 20
275.782339974178
 30
0.0
  0
VERTEX
  5
8D4
  8
PAL_2
  6
CONTINUOUS
 62
     7
 10
306.2084482735231
 20
276.2295670071136
 30
0.0
  0
VERTEX
  5
8D5
  8
PAL_2
  6
CONTINUOUS
 62
     7
 10
306.3384171359637
 20
276.6819598288551
 30
0.0
  0
VERTEX
  5
8D6
  8
PAL_2
  6
CONTINUOUS
 62
     7
 10
306.4602714825835
 20
277.1392106456203
 30
0.0
  0
VERTEX
  5
8D7
  8
PAL_2
  6
CONTINUOUS
 62
     7
 10
306.5737263239074
 20
277.6009937318979
 30
0.0
  0
VERTEX
  5
8D8
  8
PAL_2
  6
CONTINUOUS
 62
     7
 10
306.6785046216937
 20
278.0669658198561
 30
0.0
  0
VERTEX
  5
8D9
  8
PAL_2
  6
CONTINUOUS
 62
     7
 10
306.7743384344436
 20
278.5367665881417
 30
0.0
  0
VERTEX
  5
8DA
  8
PAL_2
  6
CONTINUOUS
 62
     7
 10
306.860970065415
 20
279.0100192515601
 30
0.0
  0
VERTEX
  5
8DB
  8
PAL_2
  6
CONTINUOUS
 62
     7
 10
306.9381532055523
 20
279.4863312523085
 30
0.0
  0
VERTEX
  5
8DC
  8
PAL_2
  6
CONTINUOUS
 62
     7
 10
307.0056540633951
 20
279.965295052549
 30
0.0
  0
VERTEX
  5
8DD
  8
PAL_2
  6
CONTINUOUS
 62
     7
 10
307.0632524737601
 20
280.4464890271869
 30
0.0
  0
VERTEX
  5
8DE
  8
PAL_2
  6
CONTINUOUS
 62
     7
 10
307.1107429767976
 20
280.9294784547531
 30
0.0
  0
VERTEX
  5
8DF
  8
PAL_2
  6
CONTINUOUS
 62
     7
 10
307.147935858924
 20
281.4138166033015
 30
0.0
  0
VERTEX
  5
8E0
  8
PAL_2
  6
CONTINUOUS
 62
     7
 10
307.1746581471234
 20
281.8990459072345
 30
0.0
  0
VERTEX
  5
8E1
  8
PAL_2
  6
CONTINUOUS
 62
     7
 10
307.1907545482066
 20
282.3846992299701
 30
0.0
  0
VERTEX
  5
8E2
  8
PAL_2
  6
CONTINUOUS
 62
     7
 10
307.1960883248111
 20
282.870301206384
 30
0.0
  0
VERTEX
  5
8E3
  8
PAL_2
  6
CONTINUOUS
 62
     7
 10
307.1905421002321
 20
283.3553696580169
 30
0.0
  0
VERTEX
  5
8E4
  8
PAL_2
  6
CONTINUOUS
 62
     7
 10
307.1740185845787
 20
283.8394170731313
 30
0.0
  0
VERTEX
  5
8E5
  8
PAL_2
  6
CONTINUOUS
 62
     7
 10
307.1464412152678
 20
284.321952142877
 30
0.0
  0
VERTEX
  5
8E6
  8
PAL_2
  6
CONTINUOUS
 62
     7
 10
307.1077547054747
 20
284.8024813440566
 30
0.0
  0
VERTEX
  5
8E7
  8
PAL_2
  6
CONTINUOUS
 62
     7
 10
307.0579254948729
 20
285.2805105583299
 30
0.0
  0
VERTEX
  5
8E8
  8
PAL_2
  6
CONTINUOUS
 62
     7
 10
306.9969420977823
 20
285.7555467171291
 30
0.0
  0
VERTEX
  5
8E9
  8
PAL_2
  6
CONTINUOUS
 62
     7
 10
306.9248153447191
 20
286.2270994611191
 30
0.0
  0
VERTEX
  5
8EA
  8
PAL_2
  6
CONTINUOUS
 62
     7
 10
306.8415785142749
 20
286.6946828027208
 30
0.0
  0
VERTEX
  5
8EB
  8
PAL_2
  6
CONTINUOUS
 62
     7
 10
306.7472873532371
 20
287.1578167800317
 30
0.0
  0
VERTEX
  5
8EC
  8
PAL_2
  6
CONTINUOUS
 62
     7
 10
306.6420199838951
 20
287.6160290904339
 30
0.0
  0
VERTEX
  5
8ED
  8
PAL_2
  6
CONTINUOUS
 62
     7
 10
306.5258766985193
 20
288.0688566922773
 30
0.0
  0
VERTEX
  5
8EE
  8
PAL_2
  6
CONTINUOUS
 62
     7
 10
306.3989796420649
 20
288.5158473632613
 30
0.0
  0
VERTEX
  5
8EF
  8
PAL_2
  6
CONTINUOUS
 62
     7
 10
306.2614723851962
 20
288.9565612045147
 30
0.0
  0
VERTEX
  5
8F0
  8
PAL_2
  6
CONTINUOUS
 62
     7
 10
306.1135193907585
 20
289.39057207988
 30
0.0
  0
VERTEX
  5
8F1
  8
PAL_2
  6
CONTINUOUS
 62
     7
 10
305.9553053778088
 20
289.8174689805449
 30
0.0
  0
VERTEX
  5
8F2
  8
PAL_2
  6
CONTINUOUS
 62
     7
 10
305.7870345882508
 20
290.2368573059086
 30
0.0
  0
VERTEX
  5
8F3
  8
PAL_2
  6
CONTINUOUS
 62
     7
 10
305.6089299619871
 20
290.6483600524261
 30
0.0
  0
VERTEX
  5
8F4
  8
PAL_2
  6
CONTINUOUS
 62
     7
 10
305.4212322272857
 20
291.0516189031127
 30
0.0
  0
VERTEX
  5
8F5
  8
PAL_2
  6
CONTINUOUS
 62
     7
 10
305.2241989137574
 20
291.4462952114119
 30
0.0
  0
VERTEX
  5
8F6
  8
PAL_2
  6
CONTINUOUS
 62
     7
 10
305.0181032959334
 20
291.8320708741963
 30
0.0
  0
VERTEX
  5
8F7
  8
PAL_2
  6
CONTINUOUS
 62
     7
 10
304.8032332759295
 20
292.2086490897979
 30
0.0
  0
VERTEX
  5
8F8
  8
PAL_2
  6
CONTINUOUS
 62
     7
 10
304.5798902140569
 20
292.5757549980908
 30
0.0
  0
VERTEX
  5
8F9
  8
PAL_2
  6
CONTINUOUS
 62
     7
 10
304.3483877165141
 20
292.9331362008094
 30
0.0
  0
VERTEX
  5
8FA
  8
PAL_2
  6
CONTINUOUS
 62
     7
 10
304.1090503894391
 20
293.2805631614047
 30
0.0
  0
VERTEX
  5
8FB
  8
PAL_2
  6
CONTINUOUS
 62
     7
 10
303.8622125686495
 20
293.6178294848667
 30
0.0
  0
VERTEX
  5
8FC
  8
PAL_2
  6
CONTINUOUS
 62
     7
 10
303.6082170343237
 20
293.9447520789935
 30
0.0
  0
VERTEX
  5
8FD
  8
PAL_2
  6
CONTINUOUS
 62
     7
 10
303.3474137197051
 20
294.2611711996077
 30
0.0
  0
VERTEX
  5
8FE
  8
PAL_2
  6
CONTINUOUS
 62
     7
 10
303.080158422642
 20
294.5669503831642
 30
0.0
  0
VERTEX
  5
8FF
  8
PAL_2
  6
CONTINUOUS
 62
     7
 10
302.8068115284156
 20
294.8619762710535
 30
0.0
  0
VERTEX
  5
900
  8
PAL_2
  6
CONTINUOUS
 62
     7
 10
302.5277367518698
 20
295.1461583306906
 30
0.0
  0
VERTEX
  5
901
  8
PAL_2
  6
CONTINUOUS
 62
     7
 10
302.243299906348
 20
295.4194284791628
 30
0.0
  0
VERTEX
  5
902
  8
PAL_2
  6
CONTINUOUS
 62
     7
 10
301.9538677063732
 20
295.6817406157948
 30
0.0
  0
VERTEX
  5
903
  8
PAL_2
  6
CONTINUOUS
 62
     7
 10
301.6598066103958
 20
295.9330700704838
 30
0.0
  0
VERTEX
  5
904
  8
PAL_2
  6
CONTINUOUS
 62
     7
 10
301.3614817092756
 20
296.1734129750344
 30
0.0
  0
VERTEX
  5
905
  8
PAL_2
  6
CONTINUOUS
 62
     7
 10
301.0592556654927
 20
296.4027855650176
 30
0.0
  0
VERTEX
  5
906
  8
PAL_2
  6
CONTINUOUS
 62
     7
 10
300.7534877073884
 20
296.6212234198578
 30
0.0
  0
VERTEX
  5
907
  8
PAL_2
  6
CONTINUOUS
 62
     7
 10
300.444532682037
 20
296.828780648948
 30
0.0
  0
VERTEX
  5
908
  8
PAL_2
  6
CONTINUOUS
 62
     7
 10
300.1327401696657
 20
297.0255290316003
 30
0.0
  0
VERTEX
  5
909
  8
PAL_2
  6
CONTINUOUS
 62
     7
 10
299.8184536618539
 20
297.2115571185519
 30
0.0
  0
VERTEX
  5
90A
  8
PAL_2
  6
CONTINUOUS
 62
     7
 10
299.502009805095
 20
297.3869693026023
 30
0.0
  0
VERTEX
  5
90B
  8
PAL_2
  6
CONTINUOUS
 62
     7
 10
299.183737710673
 20
297.5518848657267
 30
0.0
  0
SEQEND
  5
90C
  8
PAL_2
  6
CONTINUOUS
 62
     7
  0
ENDBLK
  5
90E
  8
0
  0
BLOCK
  8
0
  2
SE2
 70
     0
 10
0.0
 20
0.0
 30
0.0
  3
SE2
  1

  0
POLYLINE
  5
910
  8
PAL_3
  6
CONTINUOUS
 62
     7
 66
     1
 10
0.0
 20
0.0
 30
0.0
 70
     1
  0
VERTEX
  5
911
  8
PAL_3
  6
CONTINUOUS
 62
     7
 10
532.3642866669
 20
283.8005825075
 30
0.0
  0
VERTEX
  5
912
  8
PAL_3
  6
CONTINUOUS
 62
     7
 10
531.887073876047
 20
283.7927605677707
 30
0.0
  0
VERTEX
  5
913
  8
PAL_3
  6
CONTINUOUS
 62
     7
 10
531.4058114177471
 20
283.769016870405
 30
0.0
  0
VERTEX
  5
914
  8
PAL_3
  6
CONTINUOUS
 62
     7
 10
530.9208145200932
 20
283.7289444402883
 30
0.0
  0
VERTEX
  5
915
  8
PAL_3
  6
CONTINUOUS
 62
     7
 10
530.4324162521868
 20
283.6721508559589
 30
0.0
  0
VERTEX
  5
916
  8
PAL_3
  6
CONTINUOUS
 62
     7
 10
529.9409673153566
 20
283.598260062538
 30
0.0
  0
VERTEX
  5
917
  8
PAL_3
  6
CONTINUOUS
 62
     7
 10
529.446835743827
 20
283.5069142057167
 30
0.0
  0
VERTEX
  5
918
  8
PAL_3
  6
CONTINUOUS
 62
     7
 10
528.9504065112686
 20
283.3977754763901
 30
0.0
  0
VERTEX
  5
919
  8
PAL_3
  6
CONTINUOUS
 62
     7
 10
528.4520810402163
 20
283.2705279547262
 30
0.0
  0
VERTEX
  5
91A
  8
PAL_3
  6
CONTINUOUS
 62
     7
 10
527.9522766119798
 20
283.1248794417188
 30
0.0
  0
VERTEX
  5
91B
  8
PAL_3
  6
CONTINUOUS
 62
     7
 10
527.4514256753841
 20
282.9605632656072
 30
0.0
  0
VERTEX
  5
91C
  8
PAL_3
  6
CONTINUOUS
 62
     7
 10
526.9499750534524
 20
282.7773400499825
 30
0.0
  0
VERTEX
  5
91D
  8
PAL_3
  6
CONTINUOUS
 62
     7
 10
526.4483850479928
 20
282.5749994299383
 30
0.0
  0
VERTEX
  5
91E
  8
PAL_3
  6
CONTINUOUS
 62
     7
 10
525.9471284429512
 20
282.3533617022948
 30
0.0
  0
VERTEX
  5
91F
  8
PAL_3
  6
CONTINUOUS
 62
     7
 10
525.4466894083353
 20
282.1122793957233
 30
0.0
  0
VERTEX
  5
920
  8
PAL_3
  6
CONTINUOUS
 62
     7
 10
524.9475623075108
 20
281.851638746563
 30
0.0
  0
VERTEX
  5
921
  8
PAL_3
  6
CONTINUOUS
 62
     7
 10
524.4502504116787
 20
281.5713610662322
 30
0.0
  0
VERTEX
  5
922
  8
PAL_3
  6
CONTINUOUS
 62
     7
 10
523.9552645263673
 20
281.2714039864285
 30
0.0
  0
VERTEX
  5
923
  8
PAL_3
  6
CONTINUOUS
 62
     7
 10
523.4631215358045
 20
280.9517625687769
 30
0.0
  0
VERTEX
  5
924
  8
PAL_3
  6
CONTINUOUS
 62
     7
 10
522.9743428720363
 20
280.6124702662289
 30
0.0
  0
VERTEX
  5
925
  8
PAL_3
  6
CONTINUOUS
 62
     7
 10
522.4894529166438
 20
280.2535997243447
 30
0.0
  0
VERTEX
  5
926
  8
PAL_3
  6
CONTINUOUS
 62
     7
 10
522.008977343831
 20
279.875263411593
 30
0.0
  0
VERTEX
  5
927
  8
PAL_3
  6
CONTINUOUS
 62
     7
 10
521.5334414145293
 20
279.477614068981
 30
0.0
  0
VERTEX
  5
928
  8
PAL_3
  6
CONTINUOUS
 62
     7
 10
521.0633682319433
 20
279.0608449706667
 30
0.0
  0
VERTEX
  5
929
  8
PAL_3
  6
CONTINUOUS
 62
     7
 10
520.5992769696528
 20
278.6251899886922
 30
0.0
  0
VERTEX
  5
92A
  8
PAL_3
  6
CONTINUOUS
 62
     7
 10
520.1416810839754
 20
278.170923456605
 30
0.0
  0
VERTEX
  5
92B
  8
PAL_3
  6
CONTINUOUS
 62
     7
 10
519.6910865227344
 20
277.6983598284612
 30
0.0
  0
VERTEX
  5
92C
  8
PAL_3
  6
CONTINUOUS
 62
     7
 10
519.2479899429243
 20
277.2078531315416
 30
0.0
  0
VERTEX
  5
92D
  8
PAL_3
  6
CONTINUOUS
 62
     7
 10
518.8128769499311
 20
276.6997962130013
 30
0.0
  0
VERTEX
  5
92E
  8
PAL_3
  6
CONTINUOUS
 62
     7
 10
518.386220371013
 20
276.174619782607
 30
0.0
  0
VERTEX
  5
92F
  8
PAL_3
  6
CONTINUOUS
 62
     7
 10
517.9684785756207
 20
275.6327912556678
 30
0.0
  0
VERTEX
  5
930
  8
PAL_3
  6
CONTINUOUS
 62
     7
 10
517.5600938548736
 20
275.0748134021903
 30
0.0
  0
VERTEX
  5
931
  8
PAL_3
  6
CONTINUOUS
 62
     7
 10
517.1614908720786
 20
274.5012228101729
 30
0.0
  0
VERTEX
  5
932
  8
PAL_3
  6
CONTINUOUS
 62
     7
 10
516.773075195612
 20
273.912588172763
 30
0.0
  0
VERTEX
  5
933
  8
PAL_3
  6
CONTINUOUS
 62
     7
 10
516.3952319247704
 20
273.3095084107022
 30
0.0
  0
VERTEX
  5
934
  8
PAL_3
  6
CONTINUOUS
 62
     7
 10
516.0283244183559
 20
272.69261064306
 30
0.0
  0
VERTEX
  5
935
  8
PAL_3
  6
CONTINUOUS
 62
     7
 10
515.6726931347978
 20
272.0625480206756
 30
0.0
  0
VERTEX
  5
936
  8
PAL_3
  6
CONTINUOUS
 62
     7
 10
515.3286545915498
 20
271.4199974379705
 30
0.0
  0
VERTEX
  5
937
  8
PAL_3
  6
CONTINUOUS
 62
     7
 10
514.9965004503438
 20
270.7656571398489
 30
0.0
  0
VERTEX
  5
938
  8
PAL_3
  6
CONTINUOUS
 62
     7
 10
514.6764967336624
 20
270.1002442412419
 30
0.0
  0
VERTEX
  5
939
  8
PAL_3
  6
CONTINUOUS
 62
     7
 10
514.3688831765149
 20
269.4244921774783
 30
0.0
  0
VERTEX
  5
93A
  8
PAL_3
  6
CONTINUOUS
 62
     7
 10
514.0738727162939
 20
268.7391481040652
 30
0.0
  0
VERTEX
  5
93B
  8
PAL_3
  6
CONTINUOUS
 62
     7
 10
513.7916511221724
 20
268.0449702646331
 30
0.0
  0
VERTEX
  5
93C
  8
PAL_3
  6
CONTINUOUS
 62
     7
 10
513.5223767641955
 20
267.342725345749
 30
0.0
  0
VERTEX
  5
93D
  8
PAL_3
  6
CONTINUOUS
 62
     7
 10
513.2661805209265
 20
266.6331858370282
 30
0.0
  0
VERTEX
  5
93E
  8
PAL_3
  6
CONTINUOUS
 62
     7
 10
513.0231658232835
 20
265.9171274144973
 30
0.0
  0
VERTEX
  5
93F
  8
PAL_3
  6
CONTINUOUS
 62
     7
 10
512.7934088310172
 20
265.1953263644814
 30
0.0
  0
VERTEX
  5
940
  8
PAL_3
  6
CONTINUOUS
 62
     7
 10
512.5769587371842
 20
264.4685570644311
 30
0.0
  0
VERTEX
  5
941
  8
PAL_3
  6
CONTINUOUS
 62
     7
 10
512.3738381949644
 20
263.7375895360895
 30
0.0
  0
VERTEX
  5
942
  8
PAL_3
  6
CONTINUOUS
 62
     7
 10
512.1840438602608
 20
263.0031870852343
 30
0.0
  0
VERTEX
  5
943
  8
PAL_3
  6
CONTINUOUS
 62
     7
 10
512.0075470427271
 20
262.2661040409601
 30
0.0
  0
VERTEX
  5
944
  8
PAL_3
  6
CONTINUOUS
 62
     7
 10
511.6942090668162
 20
260.7868558288405
 30
0.0
  0
VERTEX
  5
945
  8
PAL_3
  6
CONTINUOUS
 62
     7
 10
511.4331185954301
 20
259.3056214139046
 30
0.0
  0
VERTEX
  5
946
  8
PAL_3
  6
CONTINUOUS
 62
     7
 10
511.2232212469023
 20
257.8279094215856
 30
0.0
  0
VERTEX
  5
947
  8
PAL_3
  6
CONTINUOUS
 62
     7
 10
511.0631486674986
 20
256.3589111964193
 30
0.0
  0
VERTEX
  5
948
  8
PAL_3
  6
CONTINUOUS
 62
     7
 10
510.951256132694
 20
254.9034609107521
 30
0.0
  0
VERTEX
  5
949
  8
PAL_3
  6
CONTINUOUS
 62
     7
 10
510.885661823702
 20
253.4660052592199
 30
0.0
  0
VERTEX
  5
94A
  8
PAL_3
  6
CONTINUOUS
 62
     7
 10
510.8642866678749
 20
252.0505825075
 30
0.0
  0
VERTEX
  5
94B
  8
PAL_3
  6
CONTINUOUS
 62
     7
 10
510.885661823702
 20
250.6351597557801
 30
0.0
  0
VERTEX
  5
94C
  8
PAL_3
  6
CONTINUOUS
 62
     7
 10
510.951256132694
 20
249.1977041042478
 30
0.0
  0
VERTEX
  5
94D
  8
PAL_3
  6
CONTINUOUS
 62
     7
 10
511.0631486674986
 20
247.7422538185807
 30
0.0
  0
VERTEX
  5
94E
  8
PAL_3
  6
CONTINUOUS
 62
     7
 10
511.2232212469023
 20
246.2732555934144
 30
0.0
  0
VERTEX
  5
94F
  8
PAL_3
  6
CONTINUOUS
 62
     7
 10
511.4331185954301
 20
244.7955436010953
 30
0.0
  0
VERTEX
  5
950
  8
PAL_3
  6
CONTINUOUS
 62
     7
 10
511.6942090668162
 20
243.3143091861595
 30
0.0
  0
VERTEX
  5
951
  8
PAL_3
  6
CONTINUOUS
 62
     7
 10
512.0075470427271
 20
241.8350609740399
 30
0.0
  0
VERTEX
  5
952
  8
PAL_3
  6
CONTINUOUS
 62
     7
 10
512.1840438602608
 20
241.0979779297657
 30
0.0
  0
VERTEX
  5
953
  8
PAL_3
  6
CONTINUOUS
 62
     7
 10
512.3738381949644
 20
240.3635754789105
 30
0.0
  0
VERTEX
  5
954
  8
PAL_3
  6
CONTINUOUS
 62
     7
 10
512.5769587371842
 20
239.6326079505688
 30
0.0
  0
VERTEX
  5
955
  8
PAL_3
  6
CONTINUOUS
 62
     7
 10
512.7934088310172
 20
238.9058386505186
 30
0.0
  0
VERTEX
  5
956
  8
PAL_3
  6
CONTINUOUS
 62
     7
 10
513.0231658232835
 20
238.1840376005027
 30
0.0
  0
VERTEX
  5
957
  8
PAL_3
  6
CONTINUOUS
 62
     7
 10
513.2661805209265
 20
237.4679791779719
 30
0.0
  0
VERTEX
  5
958
  8
PAL_3
  6
CONTINUOUS
 62
     7
 10
513.5223767641955
 20
236.7584396692511
 30
0.0
  0
VERTEX
  5
959
  8
PAL_3
  6
CONTINUOUS
 62
     7
 10
513.7916511221724
 20
236.0561947503669
 30
0.0
  0
VERTEX
  5
95A
  8
PAL_3
  6
CONTINUOUS
 62
     7
 10
514.0738727162939
 20
235.3620169109349
 30
0.0
  0
VERTEX
  5
95B
  8
PAL_3
  6
CONTINUOUS
 62
     7
 10
514.3688831765149
 20
234.6766728375217
 30
0.0
  0
VERTEX
  5
95C
  8
PAL_3
  6
CONTINUOUS
 62
     7
 10
514.6764967336624
 20
234.0009207737581
 30
0.0
  0
VERTEX
  5
95D
  8
PAL_3
  6
CONTINUOUS
 62
     7
 10
514.9965004503438
 20
233.335507875151
 30
0.0
  0
VERTEX
  5
95E
  8
PAL_3
  6
CONTINUOUS
 62
     7
 10
515.3286545915498
 20
232.6811675770295
 30
0.0
  0
VERTEX
  5
95F
  8
PAL_3
  6
CONTINUOUS
 62
     7
 10
515.6726931347978
 20
232.0386169943245
 30
0.0
  0
VERTEX
  5
960
  8
PAL_3
  6
CONTINUOUS
 62
     7
 10
516.0283244183559
 20
231.40855437194
 30
0.0
  0
VERTEX
  5
961
  8
PAL_3
  6
CONTINUOUS
 62
     7
 10
516.3952319247704
 20
230.7916566042979
 30
0.0
  0
VERTEX
  5
962
  8
PAL_3
  6
CONTINUOUS
 62
     7
 10
516.773075195612
 20
230.188576842237
 30
0.0
  0
VERTEX
  5
963
  8
PAL_3
  6
CONTINUOUS
 62
     7
 10
517.1614908720786
 20
229.5999422048271
 30
0.0
  0
VERTEX
  5
964
  8
PAL_3
  6
CONTINUOUS
 62
     7
 10
517.5600938548736
 20
229.0263516128097
 30
0.0
  0
VERTEX
  5
965
  8
PAL_3
  6
CONTINUOUS
 62
     7
 10
517.9684785756207
 20
228.4683737593323
 30
0.0
  0
VERTEX
  5
966
  8
PAL_3
  6
CONTINUOUS
 62
     7
 10
518.386220371013
 20
227.9265452323931
 30
0.0
  0
VERTEX
  5
967
  8
PAL_3
  6
CONTINUOUS
 62
     7
 10
518.8128769499311
 20
227.4013688019988
 30
0.0
  0
VERTEX
  5
968
  8
PAL_3
  6
CONTINUOUS
 62
     7
 10
519.2479899429243
 20
226.8933118834584
 30
0.0
  0
VERTEX
  5
969
  8
PAL_3
  6
CONTINUOUS
 62
     7
 10
519.6910865227344
 20
226.4028051865388
 30
0.0
  0
VERTEX
  5
96A
  8
PAL_3
  6
CONTINUOUS
 62
     7
 10
520.1416810839754
 20
225.930241558395
 30
0.0
  0
VERTEX
  5
96B
  8
PAL_3
  6
CONTINUOUS
 62
     7
 10
520.5992769696528
 20
225.4759750263078
 30
0.0
  0
VERTEX
  5
96C
  8
PAL_3
  6
CONTINUOUS
 62
     7
 10
521.0633682319433
 20
225.0403200443335
 30
0.0
  0
VERTEX
  5
96D
  8
PAL_3
  6
CONTINUOUS
 62
     7
 10
521.5334414145293
 20
224.623550946019
 30
0.0
  0
VERTEX
  5
96E
  8
PAL_3
  6
CONTINUOUS
 62
     7
 10
522.008977343831
 20
224.2259016034071
 30
0.0
  0
VERTEX
  5
96F
  8
PAL_3
  6
CONTINUOUS
 62
     7
 10
522.4894529166438
 20
223.8475652906554
 30
0.0
  0
VERTEX
  5
970
  8
PAL_3
  6
CONTINUOUS
 62
     7
 10
522.9743428720363
 20
223.4886947487711
 30
0.0
  0
VERTEX
  5
971
  8
PAL_3
  6
CONTINUOUS
 62
     7
 10
523.4631215358045
 20
223.1494024462231
 30
0.0
  0
VERTEX
  5
972
  8
PAL_3
  6
CONTINUOUS
 62
     7
 10
523.9552645263673
 20
222.8297610285714
 30
0.0
  0
VERTEX
  5
973
  8
PAL_3
  6
CONTINUOUS
 62
     7
 10
524.4502504116787
 20
222.5298039487678
 30
0.0
  0
VERTEX
  5
974
  8
PAL_3
  6
CONTINUOUS
 62
     7
 10
524.9475623075108
 20
222.249526268437
 30
0.0
  0
VERTEX
  5
975
  8
PAL_3
  6
CONTINUOUS
 62
     7
 10
525.4466894083353
 20
221.9888856192767
 30
0.0
  0
VERTEX
  5
976
  8
PAL_3
  6
CONTINUOUS
 62
     7
 10
525.9471284429512
 20
221.7478033127052
 30
0.0
  0
VERTEX
  5
977
  8
PAL_3
  6
CONTINUOUS
 62
     7
 10
526.4483850479928
 20
221.5261655850617
 30
0.0
  0
VERTEX
  5
978
  8
PAL_3
  6
CONTINUOUS
 62
     7
 10
526.9499750534524
 20
221.3238249650177
 30
0.0
  0
VERTEX
  5
979
  8
PAL_3
  6
CONTINUOUS
 62
     7
 10
527.4514256753841
 20
221.1406017493928
 30
0.0
  0
VERTEX
  5
97A
  8
PAL_3
  6
CONTINUOUS
 62
     7
 10
527.9522766119798
 20
220.9762855732812
 30
0.0
  0
VERTEX
  5
97B
  8
PAL_3
  6
CONTINUOUS
 62
     7
 10
528.4520810402163
 20
220.8306370602738
 30
0.0
  0
VERTEX
  5
97C
  8
PAL_3
  6
CONTINUOUS
 62
     7
 10
528.9504065112686
 20
220.7033895386099
 30
0.0
  0
VERTEX
  5
97D
  8
PAL_3
  6
CONTINUOUS
 62
     7
 10
529.446835743827
 20
220.5942508092833
 30
0.0
  0
VERTEX
  5
97E
  8
PAL_3
  6
CONTINUOUS
 62
     7
 10
529.9409673153566
 20
220.502904952462
 30
0.0
  0
VERTEX
  5
97F
  8
PAL_3
  6
CONTINUOUS
 62
     7
 10
530.4324162521868
 20
220.4290141590411
 30
0.0
  0
VERTEX
  5
980
  8
PAL_3
  6
CONTINUOUS
 62
     7
 10
530.9208145200932
 20
220.3722205747116
 30
0.0
  0
VERTEX
  5
981
  8
PAL_3
  6
CONTINUOUS
 62
     7
 10
531.4058114177471
 20
220.332148144595
 30
0.0
  0
VERTEX
  5
982
  8
PAL_3
  6
CONTINUOUS
 62
     7
 10
531.887073876047
 20
220.3084044472293
 30
0.0
  0
VERTEX
  5
983
  8
PAL_3
  6
CONTINUOUS
 62
     7
 10
532.3642866669
 20
220.3005825075
 30
0.0
  0
VERTEX
  5
984
  8
PAL_3
  6
CONTINUOUS
 62
     7
 10
532.8414994577529
 20
220.3084044472293
 30
0.0
  0
VERTEX
  5
985
  8
PAL_3
  6
CONTINUOUS
 62
     7
 10
533.3227619160525
 20
220.332148144595
 30
0.0
  0
VERTEX
  5
986
  8
PAL_3
  6
CONTINUOUS
 62
     7
 10
533.8077588137066
 20
220.3722205747116
 30
0.0
  0
VERTEX
  5
987
  8
PAL_3
  6
CONTINUOUS
 62
     7
 10
534.2961570816128
 20
220.4290141590411
 30
0.0
  0
VERTEX
  5
988
  8
PAL_3
  6
CONTINUOUS
 62
     7
 10
534.7876060184431
 20
220.502904952462
 30
0.0
  0
VERTEX
  5
989
  8
PAL_3
  6
CONTINUOUS
 62
     7
 10
535.2817375899727
 20
220.5942508092833
 30
0.0
  0
VERTEX
  5
98A
  8
PAL_3
  6
CONTINUOUS
 62
     7
 10
535.778166822531
 20
220.7033895386099
 30
0.0
  0
VERTEX
  5
98B
  8
PAL_3
  6
CONTINUOUS
 62
     7
 10
536.2764922935836
 20
220.8306370602738
 30
0.0
  0
VERTEX
  5
98C
  8
PAL_3
  6
CONTINUOUS
 62
     7
 10
536.77629672182
 20
220.9762855732812
 30
0.0
  0
VERTEX
  5
98D
  8
PAL_3
  6
CONTINUOUS
 62
     7
 10
537.2771476584157
 20
221.1406017493928
 30
0.0
  0
VERTEX
  5
98E
  8
PAL_3
  6
CONTINUOUS
 62
     7
 10
537.7785982803476
 20
221.3238249650177
 30
0.0
  0
VERTEX
  5
98F
  8
PAL_3
  6
CONTINUOUS
 62
     7
 10
538.2801882858071
 20
221.5261655850617
 30
0.0
  0
VERTEX
  5
990
  8
PAL_3
  6
CONTINUOUS
 62
     7
 10
538.7814448908487
 20
221.7478033127052
 30
0.0
  0
VERTEX
  5
991
  8
PAL_3
  6
CONTINUOUS
 62
     7
 10
539.2818839254647
 20
221.9888856192767
 30
0.0
  0
VERTEX
  5
992
  8
PAL_3
  6
CONTINUOUS
 62
     7
 10
539.7810110262892
 20
222.249526268437
 30
0.0
  0
VERTEX
  5
993
  8
PAL_3
  6
CONTINUOUS
 62
     7
 10
540.2783229221214
 20
222.5298039487678
 30
0.0
  0
VERTEX
  5
994
  8
PAL_3
  6
CONTINUOUS
 62
     7
 10
540.7733088074325
 20
222.8297610285714
 30
0.0
  0
VERTEX
  5
995
  8
PAL_3
  6
CONTINUOUS
 62
     7
 10
541.2654517979955
 20
223.1494024462231
 30
0.0
  0
VERTEX
  5
996
  8
PAL_3
  6
CONTINUOUS
 62
     7
 10
541.7542304617637
 20
223.4886947487711
 30
0.0
  0
VERTEX
  5
997
  8
PAL_3
  6
CONTINUOUS
 62
     7
 10
542.2391204171563
 20
223.8475652906554
 30
0.0
  0
VERTEX
  5
998
  8
PAL_3
  6
CONTINUOUS
 62
     7
 10
542.7195959899691
 20
224.2259016034071
 30
0.0
  0
VERTEX
  5
999
  8
PAL_3
  6
CONTINUOUS
 62
     7
 10
543.1951319192706
 20
224.623550946019
 30
0.0
  0
VERTEX
  5
99A
  8
PAL_3
  6
CONTINUOUS
 62
     7
 10
543.6652051018568
 20
225.0403200443335
 30
0.0
  0
VERTEX
  5
99B
  8
PAL_3
  6
CONTINUOUS
 62
     7
 10
544.129296364147
 20
225.4759750263078
 30
0.0
  0
VERTEX
  5
99C
  8
PAL_3
  6
CONTINUOUS
 62
     7
 10
544.5868922498245
 20
225.930241558395
 30
0.0
  0
VERTEX
  5
99D
  8
PAL_3
  6
CONTINUOUS
 62
     7
 10
545.0374868110654
 20
226.4028051865388
 30
0.0
  0
VERTEX
  5
99E
  8
PAL_3
  6
CONTINUOUS
 62
     7
 10
545.4805833908756
 20
226.8933118834584
 30
0.0
  0
VERTEX
  5
99F
  8
PAL_3
  6
CONTINUOUS
 62
     7
 10
545.9156963838689
 20
227.4013688019988
 30
0.0
  0
VERTEX
  5
9A0
  8
PAL_3
  6
CONTINUOUS
 62
     7
 10
546.3423529627871
 20
227.9265452323931
 30
0.0
  0
VERTEX
  5
9A1
  8
PAL_3
  6
CONTINUOUS
 62
     7
 10
546.7600947581793
 20
228.4683737593323
 30
0.0
  0
VERTEX
  5
9A2
  8
PAL_3
  6
CONTINUOUS
 62
     7
 10
547.1684794789263
 20
229.0263516128097
 30
0.0
  0
VERTEX
  5
9A3
  8
PAL_3
  6
CONTINUOUS
 62
     7
 10
547.5670824617213
 20
229.5999422048271
 30
0.0
  0
VERTEX
  5
9A4
  8
PAL_3
  6
CONTINUOUS
 62
     7
 10
547.9554981381879
 20
230.188576842237
 30
0.0
  0
VERTEX
  5
9A5
  8
PAL_3
  6
CONTINUOUS
 62
     7
 10
548.3333414090296
 20
230.7916566042979
 30
0.0
  0
VERTEX
  5
9A6
  8
PAL_3
  6
CONTINUOUS
 62
     7
 10
548.7002489154443
 20
231.40855437194
 30
0.0
  0
VERTEX
  5
9A7
  8
PAL_3
  6
CONTINUOUS
 62
     7
 10
549.0558801990022
 20
232.0386169943245
 30
0.0
  0
VERTEX
  5
9A8
  8
PAL_3
  6
CONTINUOUS
 62
     7
 10
549.3999187422501
 20
232.6811675770295
 30
0.0
  0
VERTEX
  5
9A9
  8
PAL_3
  6
CONTINUOUS
 62
     7
 10
549.732072883456
 20
233.335507875151
 30
0.0
  0
VERTEX
  5
9AA
  8
PAL_3
  6
CONTINUOUS
 62
     7
 10
550.0520766001374
 20
234.0009207737581
 30
0.0
  0
VERTEX
  5
9AB
  8
PAL_3
  6
CONTINUOUS
 62
     7
 10
550.3596901572848
 20
234.6766728375217
 30
0.0
  0
VERTEX
  5
9AC
  8
PAL_3
  6
CONTINUOUS
 62
     7
 10
550.6547006175063
 20
235.3620169109349
 30
0.0
  0
VERTEX
  5
9AD
  8
PAL_3
  6
CONTINUOUS
 62
     7
 10
550.9369222116276
 20
236.0561947503669
 30
0.0
  0
VERTEX
  5
9AE
  8
PAL_3
  6
CONTINUOUS
 62
     7
 10
551.2061965696046
 20
236.7584396692511
 30
0.0
  0
VERTEX
  5
9AF
  8
PAL_3
  6
CONTINUOUS
 62
     7
 10
551.4623928128736
 20
237.4679791779719
 30
0.0
  0
VERTEX
  5
9B0
  8
PAL_3
  6
CONTINUOUS
 62
     7
 10
551.7054075105166
 20
238.1840376005027
 30
0.0
  0
VERTEX
  5
9B1
  8
PAL_3
  6
CONTINUOUS
 62
     7
 10
551.9351645027826
 20
238.9058386505186
 30
0.0
  0
VERTEX
  5
9B2
  8
PAL_3
  6
CONTINUOUS
 62
     7
 10
552.1516145966156
 20
239.6326079505688
 30
0.0
  0
VERTEX
  5
9B3
  8
PAL_3
  6
CONTINUOUS
 62
     7
 10
552.3547351388357
 20
240.3635754789105
 30
0.0
  0
VERTEX
  5
9B4
  8
PAL_3
  6
CONTINUOUS
 62
     7
 10
552.5445294735393
 20
241.0979779297657
 30
0.0
  0
VERTEX
  5
9B5
  8
PAL_3
  6
CONTINUOUS
 62
     7
 10
552.7210262910728
 20
241.8350609740399
 30
0.0
  0
VERTEX
  5
9B6
  8
PAL_3
  6
CONTINUOUS
 62
     7
 10
553.0343642669837
 20
243.3143091861595
 30
0.0
  0
VERTEX
  5
9B7
  8
PAL_3
  6
CONTINUOUS
 62
     7
 10
553.2954547383698
 20
244.7955436010953
 30
0.0
  0
VERTEX
  5
9B8
  8
PAL_3
  6
CONTINUOUS
 62
     7
 10
553.5053520868976
 20
246.2732555934144
 30
0.0
  0
VERTEX
  5
9B9
  8
PAL_3
  6
CONTINUOUS
 62
     7
 10
553.6654246663012
 20
247.7422538185807
 30
0.0
  0
VERTEX
  5
9BA
  8
PAL_3
  6
CONTINUOUS
 62
     7
 10
553.7773172011058
 20
249.1977041042478
 30
0.0
  0
VERTEX
  5
9BB
  8
PAL_3
  6
CONTINUOUS
 62
     7
 10
553.8429115100978
 20
250.6351597557801
 30
0.0
  0
VERTEX
  5
9BC
  8
PAL_3
  6
CONTINUOUS
 62
     7
 10
553.864286665925
 20
252.0505825075
 30
0.0
  0
VERTEX
  5
9BD
  8
PAL_3
  6
CONTINUOUS
 62
     7
 10
553.8429115100978
 20
253.4660052592199
 30
0.0
  0
VERTEX
  5
9BE
  8
PAL_3
  6
CONTINUOUS
 62
     7
 10
553.7773172011058
 20
254.9034609107521
 30
0.0
  0
VERTEX
  5
9BF
  8
PAL_3
  6
CONTINUOUS
 62
     7
 10
553.6654246663012
 20
256.3589111964193
 30
0.0
  0
VERTEX
  5
9C0
  8
PAL_3
  6
CONTINUOUS
 62
     7
 10
553.5053520868976
 20
257.8279094215856
 30
0.0
  0
VERTEX
  5
9C1
  8
PAL_3
  6
CONTINUOUS
 62
     7
 10
553.2954547383698
 20
259.3056214139046
 30
0.0
  0
VERTEX
  5
9C2
  8
PAL_3
  6
CONTINUOUS
 62
     7
 10
553.0343642669837
 20
260.7868558288405
 30
0.0
  0
VERTEX
  5
9C3
  8
PAL_3
  6
CONTINUOUS
 62
     7
 10
552.7210262910728
 20
262.2661040409601
 30
0.0
  0
VERTEX
  5
9C4
  8
PAL_3
  6
CONTINUOUS
 62
     7
 10
552.5445294735393
 20
263.0031870852343
 30
0.0
  0
VERTEX
  5
9C5
  8
PAL_3
  6
CONTINUOUS
 62
     7
 10
552.3547351388357
 20
263.7375895360895
 30
0.0
  0
VERTEX
  5
9C6
  8
PAL_3
  6
CONTINUOUS
 62
     7
 10
552.1516145966156
 20
264.4685570644311
 30
0.0
  0
VERTEX
  5
9C7
  8
PAL_3
  6
CONTINUOUS
 62
     7
 10
551.9351645027826
 20
265.1953263644814
 30
0.0
  0
VERTEX
  5
9C8
  8
PAL_3
  6
CONTINUOUS
 62
     7
 10
551.7054075105166
 20
265.9171274144973
 30
0.0
  0
VERTEX
  5
9C9
  8
PAL_3
  6
CONTINUOUS
 62
     7
 10
551.4623928128736
 20
266.6331858370282
 30
0.0
  0
VERTEX
  5
9CA
  8
PAL_3
  6
CONTINUOUS
 62
     7
 10
551.2061965696046
 20
267.342725345749
 30
0.0
  0
VERTEX
  5
9CB
  8
PAL_3
  6
CONTINUOUS
 62
     7
 10
550.9369222116276
 20
268.0449702646331
 30
0.0
  0
VERTEX
  5
9CC
  8
PAL_3
  6
CONTINUOUS
 62
     7
 10
550.6547006175063
 20
268.7391481040652
 30
0.0
  0
VERTEX
  5
9CD
  8
PAL_3
  6
CONTINUOUS
 62
     7
 10
550.3596901572848
 20
269.4244921774783
 30
0.0
  0
VERTEX
  5
9CE
  8
PAL_3
  6
CONTINUOUS
 62
     7
 10
550.0520766001374
 20
270.1002442412419
 30
0.0
  0
VERTEX
  5
9CF
  8
PAL_3
  6
CONTINUOUS
 62
     7
 10
549.732072883456
 20
270.7656571398489
 30
0.0
  0
VERTEX
  5
9D0
  8
PAL_3
  6
CONTINUOUS
 62
     7
 10
549.3999187422501
 20
271.4199974379705
 30
0.0
  0
VERTEX
  5
9D1
  8
PAL_3
  6
CONTINUOUS
 62
     7
 10
549.0558801990022
 20
272.0625480206756
 30
0.0
  0
VERTEX
  5
9D2
  8
PAL_3
  6
CONTINUOUS
 62
     7
 10
548.7002489154443
 20
272.69261064306
 30
0.0
  0
VERTEX
  5
9D3
  8
PAL_3
  6
CONTINUOUS
 62
     7
 10
548.3333414090296
 20
273.3095084107022
 30
0.0
  0
VERTEX
  5
9D4
  8
PAL_3
  6
CONTINUOUS
 62
     7
 10
547.9554981381879
 20
273.912588172763
 30
0.0
  0
VERTEX
  5
9D5
  8
PAL_3
  6
CONTINUOUS
 62
     7
 10
547.5670824617213
 20
274.5012228101729
 30
0.0
  0
VERTEX
  5
9D6
  8
PAL_3
  6
CONTINUOUS
 62
     7
 10
547.1684794789263
 20
275.0748134021903
 30
0.0
  0
VERTEX
  5
9D7
  8
PAL_3
  6
CONTINUOUS
 62
     7
 10
546.7600947581793
 20
275.6327912556678
 30
0.0
  0
VERTEX
  5
9D8
  8
PAL_3
  6
CONTINUOUS
 62
     7
 10
546.3423529627871
 20
276.174619782607
 30
0.0
  0
VERTEX
  5
9D9
  8
PAL_3
  6
CONTINUOUS
 62
     7
 10
545.9156963838689
 20
276.6997962130013
 30
0.0
  0
VERTEX
  5
9DA
  8
PAL_3
  6
CONTINUOUS
 62
     7
 10
545.4805833908756
 20
277.2078531315416
 30
0.0
  0
VERTEX
  5
9DB
  8
PAL_3
  6
CONTINUOUS
 62
     7
 10
545.0374868110654
 20
277.6983598284612
 30
0.0
  0
VERTEX
  5
9DC
  8
PAL_3
  6
CONTINUOUS
 62
     7
 10
544.5868922498245
 20
278.170923456605
 30
0.0
  0
VERTEX
  5
9DD
  8
PAL_3
  6
CONTINUOUS
 62
     7
 10
544.129296364147
 20
278.6251899886922
 30
0.0
  0
VERTEX
  5
9DE
  8
PAL_3
  6
CONTINUOUS
 62
     7
 10
543.6652051018568
 20
279.0608449706667
 30
0.0
  0
VERTEX
  5
9DF
  8
PAL_3
  6
CONTINUOUS
 62
     7
 10
543.1951319192706
 20
279.477614068981
 30
0.0
  0
VERTEX
  5
9E0
  8
PAL_3
  6
CONTINUOUS
 62
     7
 10
542.7195959899691
 20
279.875263411593
 30
0.0
  0
VERTEX
  5
9E1
  8
PAL_3
  6
CONTINUOUS
 62
     7
 10
542.2391204171563
 20
280.2535997243447
 30
0.0
  0
VERTEX
  5
9E2
  8
PAL_3
  6
CONTINUOUS
 62
     7
 10
541.7542304617637
 20
280.6124702662289
 30
0.0
  0
VERTEX
  5
9E3
  8
PAL_3
  6
CONTINUOUS
 62
     7
 10
541.2654517979955
 20
280.9517625687769
 30
0.0
  0
VERTEX
  5
9E4
  8
PAL_3
  6
CONTINUOUS
 62
     7
 10
540.7733088074325
 20
281.2714039864285
 30
0.0
  0
VERTEX
  5
9E5
  8
PAL_3
  6
CONTINUOUS
 62
     7
 10
540.2783229221214
 20
281.5713610662322
 30
0.0
  0
VERTEX
  5
9E6
  8
PAL_3
  6
CONTINUOUS
 62
     7
 10
539.7810110262892
 20
281.851638746563
 30
0.0
  0
VERTEX
  5
9E7
  8
PAL_3
  6
CONTINUOUS
 62
     7
 10
539.2818839254647
 20
282.1122793957233
 30
0.0
  0
VERTEX
  5
9E8
  8
PAL_3
  6
CONTINUOUS
 62
     7
 10
538.7814448908487
 20
282.3533617022948
 30
0.0
  0
VERTEX
  5
9E9
  8
PAL_3
  6
CONTINUOUS
 62
     7
 10
538.2801882858071
 20
282.5749994299383
 30
0.0
  0
VERTEX
  5
9EA
  8
PAL_3
  6
CONTINUOUS
 62
     7
 10
537.7785982803476
 20
282.7773400499825
 30
0.0
  0
VERTEX
  5
9EB
  8
PAL_3
  6
CONTINUOUS
 62
     7
 10
537.2771476584157
 20
282.9605632656072
 30
0.0
  0
VERTEX
  5
9EC
  8
PAL_3
  6
CONTINUOUS
 62
     7
 10
536.77629672182
 20
283.1248794417188
 30
0.0
  0
VERTEX
  5
9ED
  8
PAL_3
  6
CONTINUOUS
 62
     7
 10
536.2764922935836
 20
283.2705279547262
 30
0.0
  0
VERTEX
  5
9EE
  8
PAL_3
  6
CONTINUOUS
 62
     7
 10
535.778166822531
 20
283.3977754763901
 30
0.0
  0
VERTEX
  5
9EF
  8
PAL_3
  6
CONTINUOUS
 62
     7
 10
535.2817375899727
 20
283.5069142057167
 30
0.0
  0
VERTEX
  5
9F0
  8
PAL_3
  6
CONTINUOUS
 62
     7
 10
534.7876060184431
 20
283.598260062538
 30
0.0
  0
VERTEX
  5
9F1
  8
PAL_3
  6
CONTINUOUS
 62
     7
 10
534.2961570816128
 20
283.6721508559589
 30
0.0
  0
VERTEX
  5
9F2
  8
PAL_3
  6
CONTINUOUS
 62
     7
 10
533.8077588137066
 20
283.7289444402883
 30
0.0
  0
VERTEX
  5
9F3
  8
PAL_3
  6
CONTINUOUS
 62
     7
 10
533.3227619160525
 20
283.769016870405
 30
0.0
  0
VERTEX
  5
9F4
  8
PAL_3
  6
CONTINUOUS
 62
     7
 10
532.8414994577529
 20
283.7927605677707
 30
0.0
  0
SEQEND
  5
9F5
  8
PAL_3
  6
CONTINUOUS
 62
     7
  0
ARC
  5
9F6
  8
PAL_3
  6
CONTINUOUS
 62
     7
 10
491.3642866669
 20
306.0505825075
 30
0.0
 40
36.49999999999999
 50
56.63064215250004
 51
146.1181248025001
  0
LINE
  5
9F7
  8
PAL_3
  6
CONTINUOUS
 62
     7
 10
534.0627144163
 20
321.63404386
 30
0.0
 11
511.4405342135
 21
336.533270782
 31
0.0
  0
ARC
  5
9F8
  8
PAL_3
  6
CONTINUOUS
 62
     7
 10
559.3642866669
 20
360.0505825075
 30
0.0
 40
45.99999999999999
 50
236.6306421524999
 51
20.92483242759997
  0
ARC
  5
9F9
  8
PAL_3
  6
CONTINUOUS
 62
     7
 10
611.6710739894
 20
380.0505825075
 30
0.0
 40
10.00000000000001
 50
90.0
 51
200.9248324275999
  0
LINE
  5
9FA
  8
PAL_3
  6
CONTINUOUS
 62
     7
 10
697.3642866669
 20
390.0505825075
 30
0.0
 11
611.6710739894
 21
390.0505825075
 31
0.0
  0
LINE
  5
9FB
  8
PAL_3
  6
CONTINUOUS
 62
     7
 10
697.3642866669
 20
40.0505825075
 30
0.0
 11
697.3642866669
 21
390.0505825075
 31
0.0
  0
LINE
  5
9FC
  8
PAL_3
  6
CONTINUOUS
 62
     7
 10
459.3642866669
 20
40.0505825075
 30
0.0
 11
697.3642866669
 21
40.0505825075
 31
0.0
  0
LINE
  5
9FD
  8
PAL_3
  6
CONTINUOUS
 62
     7
 10
459.3642866669
 20
320.8238692101
 30
0.0
 11
459.3642866669
 21
40.0505825075
 31
0.0
  0
ARC
  5
9FE
  8
PAL_3
  6
CONTINUOUS
 62
     7
 10
469.3642866669
 20
320.8238692101
 30
0.0
 40
9.999999999999995
 50
146.1181248025001
 51
180.0
  0
ENDBLK
  5
A00
  8
0
  0
ENDSEC
  0
SECTION
  2
ENTITIES
  0
POLYLINE
  5
6F
  8
DEFAULT
 62
     5
 66
     1
 10
0.0
 20
0.0
 30
0.0
 70
     1
  0
VERTEX
  5
70
  8
DEFAULT
 62
     5
 10
-135.5729496497145
 20
236.6289334932943
 30
0.0
  0
VERTEX
  5
71
  8
DEFAULT
 62
     5
 10
-139.2643082395548
 20
248.1844890488498
 30
0.0
  0
VERTEX
  5
72
  8
DEFAULT
 62
     5
 10
-136.2658509078302
 20
248.1844890488498
 30
0.0
  0
VERTEX
  5
73
  8
DEFAULT
 62
     5
 10
-134.0791223008376
 20
240.6119586791577
 30
0.0
  0
VERTEX
  5
74
  8
DEFAULT
 62
     5
 10
-132.0266534947054
 20
248.1844890488498
 30
0.0
  0
VERTEX
  5
75
  8
DEFAULT
 62
     5
 10
-129.0590608314692
 20
248.1844890488498
 30
0.0
  0
VERTEX
  5
76
  8
DEFAULT
 62
     5
 10
-127.1655420539241
 20
240.6119586791577
 30
0.0
  0
VERTEX
  5
77
  8
DEFAULT
 62
     5
 10
-124.9726405132338
 20
248.1844890488498
 30
0.0
  0
VERTEX
  5
78
  8
DEFAULT
 62
     5
 10
-121.9803576222708
 20
248.1844890488498
 30
0.0
  0
VERTEX
  5
79
  8
DEFAULT
 62
     5
 10
-125.6639985379252
 20
236.6289334932943
 30
0.0
  0
VERTEX
  5
7A
  8
DEFAULT
 62
     5
 10
-128.5667769043998
 20
236.6289334932943
 30
0.0
  0
VERTEX
  5
7B
  8
DEFAULT
 62
     5
 10
-130.5235667452821
 20
244.0610326354924
 30
0.0
  0
VERTEX
  5
7C
  8
DEFAULT
 62
     5
 10
-132.5420859231411
 20
236.6289334932943
 30
0.0
  0
SEQEND
  5
7D
  8
DEFAULT
 62
     5
  0
POLYLINE
  5
7E
  8
DEFAULT
 62
     5
 66
     1
 10
0.0
 20
0.0
 30
0.0
 70
     1
  0
VERTEX
  5
7F
  8
DEFAULT
 62
     5
 10
-118.3877644645293
 20
236.6289334932943
 30
0.0
  0
VERTEX
  5
80
  8
DEFAULT
 62
     5
 10
-122.0791230543696
 20
248.1844890488498
 30
0.0
  0
VERTEX
  5
81
  8
DEFAULT
 62
     5
 10
-119.0806657226451
 20
248.1844890488498
 30
0.0
  0
VERTEX
  5
82
  8
DEFAULT
 62
     5
 10
-116.8939371156525
 20
240.6119586791577
 30
0.0
  0
VERTEX
  5
83
  8
DEFAULT
 62
     5
 10
-114.8414683095202
 20
248.1844890488498
 30
0.0
  0
VERTEX
  5
84
  8
DEFAULT
 62
     5
 10
-111.873875646284
 20
248.1844890488498
 30
0.0
  0
VERTEX
  5
85
  8
DEFAULT
 62
     5
 10
-109.9803568687389
 20
240.6119586791577
 30
0.0
  0
VERTEX
  5
86
  8
DEFAULT
 62
     5
 10
-107.7874553280486
 20
248.1844890488498
 30
0.0
  0
VERTEX
  5
87
  8
DEFAULT
 62
     5
 10
-104.7951724370856
 20
248.1844890488498
 30
0.0
  0
VERTEX
  5
88
  8
DEFAULT
 62
     5
 10
-108.47881335274
 20
236.6289334932943
 30
0.0
  0
VERTEX
  5
89
  8
DEFAULT
 62
     5
 10
-111.3815917192146
 20
236.6289334932943
 30
0.0
  0
VERTEX
  5
8A
  8
DEFAULT
 62
     5
 10
-113.3383815600969
 20
244.0610326354924
 30
0.0
  0
VERTEX
  5
8B
  8
DEFAULT
 62
     5
 10
-115.3569007379559
 20
236.6289334932943
 30
0.0
  0
SEQEND
  5
8C
  8
DEFAULT
 62
     5
  0
POLYLINE
  5
8D
  8
DEFAULT
 62
     5
 66
     1
 10
0.0
 20
0.0
 30
0.0
 70
     1
  0
VERTEX
  5
8E
  8
DEFAULT
 62
     5
 10
-101.2025792793441
 20
236.6289334932943
 30
0.0
  0
VERTEX
  5
8F
  8
DEFAULT
 62
     5
 10
-104.8939378691844
 20
248.1844890488498
 30
0.0
  0
VERTEX
  5
90
  8
DEFAULT
 62
     5
 10
-101.8954805374599
 20
248.1844890488498
 30
0.0
  0
VERTEX
  5
91
  8
DEFAULT
 62
     5
 10
-99.70875193046727
 20
240.6119586791577
 30
0.0
  0
VERTEX
  5
92
  8
DEFAULT
 62
     5
 10
-97.65628312433503
 20
248.1844890488498
 30
0.0
  0
VERTEX
  5
93
  8
DEFAULT
 62
     5
 10
-94.68869046109882
 20
248.1844890488498
 30
0.0
  0
VERTEX
  5
94
  8
DEFAULT
 62
     5
 10
-92.79517168355369
 20
240.6119586791577
 30
0.0
  0
VERTEX
  5
95
  8
DEFAULT
 62
     5
 10
-90.60227014286343
 20
248.1844890488498
 30
0.0
  0
VERTEX
  5
96
  8
DEFAULT
 62
     5
 10
-87.60998725190046
 20
248.1844890488498
 30
0.0
  0
VERTEX
  5
97
  8
DEFAULT
 62
     5
 10
-91.2936281675548
 20
236.6289334932943
 30
0.0
  0
VERTEX
  5
98
  8
DEFAULT
 62
     5
 10
-94.1964065340294
 20
236.6289334932943
 30
0.0
  0
VERTEX
  5
99
  8
DEFAULT
 62
     5
 10
-96.15319637491172
 20
244.0610326354924
 30
0.0
  0
VERTEX
  5
9A
  8
DEFAULT
 62
     5
 10
-98.17171555277069
 20
236.6289334932943
 30
0.0
  0
SEQEND
  5
9B
  8
DEFAULT
 62
     5
  0
POLYLINE
  5
9C
  8
DEFAULT
 62
     5
 66
     1
 10
0.0
 20
0.0
 30
0.0
 70
     1
  0
VERTEX
  5
9D
  8
DEFAULT
 62
     5
 10
-86.32603663461651
 20
236.6289334932943
 30
0.0
  0
VERTEX
  5
9E
  8
DEFAULT
 62
     5
 10
-86.32603663461651
 20
239.690661888356
 30
0.0
  0
VERTEX
  5
9F
  8
DEFAULT
 62
     5
 10
-83.26430823955478
 20
239.690661888356
 30
0.0
  0
VERTEX
  5
A0
  8
DEFAULT
 62
     5
 10
-83.26430823955478
 20
236.6289334932943
 30
0.0
  0
SEQEND
  5
A1
  8
DEFAULT
 62
     5
  0
POLYLINE
  5
A2
  8
DEFAULT
 62
     5
 66
     1
 10
0.0
 20
0.0
 30
0.0
 70
     1
  0
VERTEX
  5
A3
  8
DEFAULT
 62
     5
 10
-70.12850577041897
 20
244.8264643574918
 30
0.0
  0
VERTEX
  5
A4
  8
DEFAULT
 62
     5
 10
-73.1902341654807
 20
244.332637196998
 30
0.0
 42
0.1809968098175646
  0
VERTEX
  5
A5
  8
DEFAULT
 62
     5
 10
-73.87387526951801
 20
245.6636564337266
 30
0.0
 42
0.1804760167670058
  0
VERTEX
  5
A6
  8
DEFAULT
 62
     5
 10
-75.2565920724327
 20
246.1104149747758
 30
0.0
 42
0.2329674834671135
  0
VERTEX
  5
A7
  8
DEFAULT
 62
     5
 10
-77.06060406489362
 20
245.3079464041222
 30
0.0
 42
0.1695179555120405
  0
VERTEX
  5
A8
  8
DEFAULT
 62
     5
 10
-77.73344404202393
 20
242.6227616898945
 30
0.0
 42
0.1610966817174869
  0
VERTEX
  5
A9
  8
DEFAULT
 62
     5
 10
-77.04440011393723
 20
239.6651992903851
 30
0.0
 42
0.2405540491093983
  0
VERTEX
  5
AA
  8
DEFAULT
 62
     5
 10
-75.19486273545603
 20
238.8017729994672
 30
0.0
 42
0.188345844186961
  0
VERTEX
  5
AB
  8
DEFAULT
 62
     5
 10
-73.77433822070705
 20
239.2909712132196
 30
0.0
 42
0.1622604489947951
  0
VERTEX
  5
AC
  8
DEFAULT
 62
     5
 10
-72.99270330128317
 20
240.97461250564
 30
0.0
  0
VERTEX
  5
AD
  8
DEFAULT
 62
     5
 10
-69.93097490622145
 20
240.5795507772449
 30
0.0
 42
-0.1724509721436057
  0
VERTEX
  5
AE
  8
DEFAULT
 62
     5
 10
-71.7195545644382
 20
237.4051686027966
 30
0.0
 42
-0.1746967243539345
  0
VERTEX
  5
AF
  8
DEFAULT
 62
     5
 10
-75.26584996591531
 20
236.332637196998
 30
0.0
 42
-0.2163976905724374
  0
VERTEX
  5
B0
  8
DEFAULT
 62
     5
 10
-79.29362892108675
 20
237.94143392893
 30
0.0
 42
-0.1943870566321038
  0
VERTEX
  5
B1
  8
DEFAULT
 62
     5
 10
-80.7951724370856
 20
242.3959093906331
 30
0.0
 42
-0.194505461597254
  0
VERTEX
  5
B2
  8
DEFAULT
 62
     5
 10
-79.29440053779894
 20
246.8773906837316
 30
0.0
 42
-0.215780163157989
  0
VERTEX
  5
B3
  8
DEFAULT
 62
     5
 10
-75.23498680449086
 20
248.4807853451461
 30
0.0
 42
-0.1599423076958041
  0
VERTEX
  5
B4
  8
DEFAULT
 62
     5
 10
-71.90473956124038
 20
247.5780081089694
 30
0.0
 42
-0.1682635697126376
  0
SEQEND
  5
B5
  8
DEFAULT
 62
     5
  0
POLYLINE
  5
B6
  8
DEFAULT
 62
     5
 66
     1
 10
0.0
 20
0.0
 30
0.0
 70
     1
  0
VERTEX
  5
B7
  8
DEFAULT
 62
     5
 10
-64.69640700498688
 20
236.6289334932943
 30
0.0
  0
VERTEX
  5
B8
  8
DEFAULT
 62
     5
 10
-67.7581354000486
 20
236.6289334932943
 30
0.0
  0
VERTEX
  5
B9
  8
DEFAULT
 62
     5
 10
-67.7581354000486
 20
248.1844890488498
 30
0.0
  0
VERTEX
  5
BA
  8
DEFAULT
 62
     5
 10
-64.89393786918441
 20
248.1844890488498
 30
0.0
  0
VERTEX
  5
BB
  8
DEFAULT
 62
     5
 10
-64.8939378691844
 20
246.5533169393277
 30
0.0
 42
-0.09775505194609
  0
VERTEX
  5
BC
  8
DEFAULT
 62
     5
 10
-63.63930793343242
 20
248.0949830172976
 30
0.0
 42
-0.1561720185079241
  0
VERTEX
  5
BD
  8
DEFAULT
 62
     5
 10
-62.37541859713394
 20
248.4807853451461
 30
0.0
 42
-0.1438170981369868
  0
VERTEX
  5
BE
  8
DEFAULT
 62
     5
 10
-60.44949342473996
 20
247.8989953865244
 30
0.0
  0
VERTEX
  5
BF
  8
DEFAULT
 62
     5
 10
-61.38776427614629
 20
245.2184411261019
 30
0.0
 42
0.1496770151887666
  0
VERTEX
  5
C0
  8
DEFAULT
 62
     5
 10
-62.75196152443601
 20
245.7153532463807
 30
0.0
 42
0.1810970994867303
  0
VERTEX
  5
C1
  8
DEFAULT
 62
     5
 10
-63.78668371133643
 20
245.3611872037327
 30
0.0
 42
0.1501348396488113
  0
VERTEX
  5
C2
  8
DEFAULT
 62
     5
 10
-64.45335075476906
 20
244.0810946700098
 30
0.0
 42
0.050911135964216
  0
VERTEX
  5
C3
  8
DEFAULT
 62
     5
 10
-64.69640700498688
 20
240.2030078499428
 30
0.0
  0
SEQEND
  5
C4
  8
DEFAULT
 62
     5
  0
POLYLINE
  5
C5
  8
DEFAULT
 62
     5
 66
     1
 10
0.0
 20
0.0
 30
0.0
 70
     1
  0
VERTEX
  5
C6
  8
DEFAULT
 62
     5
 10
-56.89393786918441
 20
244.6289334932943
 30
0.0
  0
VERTEX
  5
C7
  8
DEFAULT
 62
     5
 10
-59.65936996794984
 20
245.0239952216893
 30
0.0
 42
-0.1714833175990302
  0
VERTEX
  5
C8
  8
DEFAULT
 62
     5
 10
-58.07989391754984
 20
247.6335637587165
 30
0.0
 42
-0.1608829132837504
  0
VERTEX
  5
C9
  8
DEFAULT
 62
     5
 10
-54.75041829101158
 20
248.4807853451461
 30
0.0
 42
-0.1088364278880888
  0
VERTEX
  5
CA
  8
DEFAULT
 62
     5
 10
-51.7627643467899
 20
247.9954459684866
 30
0.0
 42
-0.1580303644335287
  0
VERTEX
  5
CB
  8
DEFAULT
 62
     5
 10
-50.38081991411941
 20
246.7624213006764
 30
0.0
 42
-0.1088017057953446
  0
VERTEX
  5
CC
  8
DEFAULT
 62
     5
 10
-49.98035762227082
 20
244.0178236066726
 30
0.0
  0
VERTEX
  5
CD
  8
DEFAULT
 62
     5
 10
-49.98035762227081
 20
240.4375763163264
 30
0.0
 42
0.0514080219695323
  0
VERTEX
  5
CE
  8
DEFAULT
 62
     5
 10
-49.81369067302969
 20
238.1837178089036
 30
0.0
 42
0.0692287864232567
  0
VERTEX
  5
CF
  8
DEFAULT
 62
     5
 10
-49.1902341654807
 20
236.6289334932943
 30
0.0
  0
VERTEX
  5
D0
  8
DEFAULT
 62
     5
 10
-52.25196256054244
 20
236.6289334932943
 30
0.0
  0
VERTEX
  5
D1
  8
DEFAULT
 62
     5
 10
-52.5451723899899
 20
237.5239953158809
 30
0.0
  0
VERTEX
  5
D2
  8
DEFAULT
 62
     5
 10
-52.65319571557128
 20
237.8804777157294
 30
0.0
 42
-0.0933244186738312
  0
VERTEX
  5
D3
  8
DEFAULT
 62
     5
 10
-54.32449340119209
 20
236.7199835118029
 30
0.0
 42
-0.1040133466925987
  0
VERTEX
  5
D4
  8
DEFAULT
 62
     5
 10
-56.224183605371
 20
236.332637196998
 30
0.0
 42
-0.1965430357596431
  0
VERTEX
  5
D5
  8
DEFAULT
 62
     5
 10
-59.02896815645903
 20
237.3010018537124
 30
0.0
 42
-0.2154369487651144
  0
VERTEX
  5
D6
  8
DEFAULT
 62
     5
 10
-60.05443169634488
 20
239.7493047584838
 30
0.0
 42
-0.1373780248024394
  0
VERTEX
  5
D7
  8
DEFAULT
 62
     5
 10
-59.59764138450512
 20
241.4962178677733
 30
0.0
 42
-0.1473783213971299
  0
VERTEX
  5
D8
  8
DEFAULT
 62
     5
 10
-58.31754809725027
 20
242.6713720356998
 30
0.0
 42
-0.063440493484715
  0
VERTEX
  5
D9
  8
DEFAULT
 62
     5
 10
-55.94331964331886
 20
243.3835637116207
 30
0.0
 42
0.0472009877729171
  0
VERTEX
  5
DA
  8
DEFAULT
 62
     5
 10
-53.04208601733255
 20
244.1351063328005
 30
0.0
  0
VERTEX
  5
DB
  8
DEFAULT
 62
     5
 10
-53.04208601733254
 20
244.4452917299164
 30
0.0
 42
0.2070921599656485
  0
VERTEX
  5
DC
  8
DEFAULT
 62
     5
 10
-53.45180770972762
 20
245.727699113776
 30
0.0
 42
0.1777887432707924
  0
VERTEX
  5
DD
  8
DEFAULT
 62
     5
 10
-54.99887585821486
 20
246.1104149747758
 30
0.0
 42
0.1651091138038856
  0
VERTEX
  5
DE
  8
DEFAULT
 62
     5
 10
-56.19717777397562
 20
245.7817115300986
 30
0.0
 42
0.1491587679877879
  0
SEQEND
  5
DF
  8
DEFAULT
 62
     5
  0
POLYLINE
  5
E0
  8
DEFAULT
 62
     5
 66
     1
 10
0.0
 20
0.0
 30
0.0
 70
     1
  0
VERTEX
  5
E1
  8
DEFAULT
 62
     5
 10
-53.04208601733255
 20
242.1597976908252
 30
0.0
  0
VERTEX
  5
E2
  8
DEFAULT
 62
     5
 10
-54.82449274185164
 20
241.6922054985464
 30
0.0
 42
0.0811165779560949
  0
VERTEX
  5
E3
  8
DEFAULT
 62
     5
 10
-56.41862800271969
 20
241.159799009506
 30
0.0
 42
0.2517191883486186
  0
VERTEX
  5
E4
  8
DEFAULT
 62
     5
 10
-56.99270330128321
 20
240.0826386569661
 30
0.0
 42
0.204167257455651
  0
VERTEX
  5
E5
  8
DEFAULT
 62
     5
 10
-56.53436975601896
 20
238.9730696489815
 30
0.0
 42
0.2097521333282868
  0
VERTEX
  5
E6
  8
DEFAULT
 62
     5
 10
-55.36615938497043
 20
238.5054767031708
 30
0.0
 42
0.1670482644845578
  0
VERTEX
  5
E7
  8
DEFAULT
 62
     5
 10
-53.85535646842502
 20
239.048687333246
 30
0.0
 42
0.1651612454991387
  0
VERTEX
  5
E8
  8
DEFAULT
 62
     5
 10
-53.1562822766116
 20
240.0610333890243
 30
0.0
 42
0.0593667948163745
  0
VERTEX
  5
E9
  8
DEFAULT
 62
     5
 10
-53.04208601733254
 20
241.5502310376279
 30
0.0
  0
SEQEND
  5
EA
  8
DEFAULT
 62
     5
  0
POLYLINE
  5
EB
  8
DEFAULT
 62
     5
 66
     1
 10
0.0
 20
0.0
 30
0.0
 70
     1
  0
VERTEX
  5
EC
  8
DEFAULT
 62
     5
 10
-48.00504898029551
 20
248.1844890488498
 30
0.0
  0
VERTEX
  5
ED
  8
DEFAULT
 62
     5
 10
-46.42480206671527
 20
248.1844890488498
 30
0.0
  0
VERTEX
  5
EE
  8
DEFAULT
 62
     5
 10
-46.42480206671528
 20
249.0502309434364
 30
0.0
 42
-0.0950504639922879
  0
VERTEX
  5
EF
  8
DEFAULT
 62
     5
 10
-46.11924636987249
 20
251.2138110490627
 30
0.0
 42
-0.1716707163023964
  0
VERTEX
  5
F0
  8
DEFAULT
 62
     5
 10
-44.99347416446344
 20
252.3773909663061
 30
0.0
 42
-0.1257658996646573
  0
VERTEX
  5
F1
  8
DEFAULT
 62
     5
 10
-42.91862847367716
 20
252.8264643574918
 30
0.0
 42
-0.0781428993827053
  0
VERTEX
  5
F2
  8
DEFAULT
 62
     5
 10
-40.40011070869058
 20
252.4314026290968
 30
0.0
  0
VERTEX
  5
F3
  8
DEFAULT
 62
     5
 10
-40.74578896750431
 20
250.2832548577146
 30
0.0
 42
0.0588660059482406
  0
VERTEX
  5
F4
  8
DEFAULT
 62
     5
 10
-42.13467795058471
 20
250.4560939871214
 30
0.0
 42
0.2070684672812355
  0
VERTEX
  5
F5
  8
DEFAULT
 62
     5
 10
-43.07757925579622
 20
250.152082277235
 30
0.0
 42
0.1773524100531778
  0
VERTEX
  5
F6
  8
DEFAULT
 62
     5
 10
-43.36307367165353
 20
248.9838719061865
 30
0.0
  0
VERTEX
  5
F7
  8
DEFAULT
 62
     5
 10
-43.36307367165354
 20
248.1844890488498
 30
0.0
  0
VERTEX
  5
F8
  8
DEFAULT
 62
     5
 10
-41.1902341654807
 20
248.1844890488498
 30
0.0
  0
VERTEX
  5
F9
  8
DEFAULT
 62
     5
 10
-41.1902341654807
 20
245.8141186784794
 30
0.0
  0
VERTEX
  5
FA
  8
DEFAULT
 62
     5
 10
-43.36307367165354
 20
245.8141186784794
 30
0.0
  0
VERTEX
  5
FB
  8
DEFAULT
 62
     5
 10
-43.36307367165354
 20
236.6289334932943
 30
0.0
  0
VERTEX
  5
FC
  8
DEFAULT
 62
     5
 10
-46.42480206671527
 20
236.6289334932943
 30
0.0
  0
VERTEX
  5
FD
  8
DEFAULT
 62
     5
 10
-46.42480206671527
 20
245.8141186784794
 30
0.0
  0
VERTEX
  5
FE
  8
DEFAULT
 62
     5
 10
-48.00504898029551
 20
245.8141186784794
 30
0.0
  0
SEQEND
  5
FF
  8
DEFAULT
 62
     5
  0
POLYLINE
  5
100
  8
DEFAULT
 62
     5
 66
     1
 10
0.0
 20
0.0
 30
0.0
 70
     1
  0
VERTEX
  5
101
  8
DEFAULT
 62
     5
 10
-34.07912305436959
 20
248.1844890488498
 30
0.0
  0
VERTEX
  5
102
  8
DEFAULT
 62
     5
 10
-34.07912305436959
 20
245.8141186784794
 30
0.0
  0
VERTEX
  5
103
  8
DEFAULT
 62
     5
 10
-36.15319712844367
 20
245.8141186784794
 30
0.0
  0
VERTEX
  5
104
  8
DEFAULT
 62
     5
 10
-36.15319712844367
 20
241.0425147763143
 30
0.0
 42
0.0340880666975054
  0
VERTEX
  5
105
  8
DEFAULT
 62
     5
 10
-36.09455501184777
 20
239.3534706598446
 30
0.0
 42
0.1777629698041027
  0
VERTEX
  5
106
  8
DEFAULT
 62
     5
 10
-35.82989424722009
 20
238.9576373147374
 30
0.0
 42
0.1671411134724868
  0
VERTEX
  5
107
  8
DEFAULT
 62
     5
 10
-35.32603606946755
 20
238.8017729994672
 30
0.0
 42
0.0818670423875478
  0
VERTEX
  5
108
  8
DEFAULT
 62
     5
 10
-34.12850501688703
 20
239.0934411025541
 30
0.0
  0
VERTEX
  5
109
  8
DEFAULT
 62
     5
 10
-33.88159219017205
 20
236.7770823949744
 30
0.0
 42
-0.1009135694950926
  0
VERTEX
  5
10A
  8
DEFAULT
 62
     5
 10
-36.26430692087388
 20
236.332637196998
 30
0.0
 42
-0.1023112505794286
  0
VERTEX
  5
10B
  8
DEFAULT
 62
     5
 10
-37.73421490520418
 20
236.6135019125821
 30
0.0
 42
-0.1427327602514155
  0
VERTEX
  5
10C
  8
DEFAULT
 62
     5
 10
-38.69486339479649
 20
237.3395826893228
 30
0.0
 42
-0.1112474266807747
  0
VERTEX
  5
10D
  8
DEFAULT
 62
     5
 10
-39.11770181776715
 20
238.5440575387812
 30
0.0
 42
-0.0357944377719305
  0
VERTEX
  5
10E
  8
DEFAULT
 62
     5
 10
-39.2149255235054
 20
240.7215267452274
 30
0.0
  0
VERTEX
  5
10F
  8
DEFAULT
 62
     5
 10
-39.2149255235054
 20
245.8141186784794
 30
0.0
  0
VERTEX
  5
110
  8
DEFAULT
 62
     5
 10
-40.69640700498688
 20
245.8141186784794
 30
0.0
  0
VERTEX
  5
111
  8
DEFAULT
 62
     5
 10
-40.69640700498688
 20
248.1844890488498
 30
0.0
  0
VERTEX
  5
112
  8
DEFAULT
 62
     5
 10
-39.2149255235054
 20
248.1844890488498
 30
0.0
  0
VERTEX
  5
113
  8
DEFAULT
 62
     5
 10
-39.2149255235054
 20
250.3573285550227
 30
0.0
  0
VERTEX
  5
114
  8
DEFAULT
 62
     5
 10
-36.15319712844367
 20
252.1351063328005
 30
0.0
  0
VERTEX
  5
115
  8
DEFAULT
 62
     5
 10
-36.15319712844367
 20
248.1844890488498
 30
0.0
  0
SEQEND
  5
116
  8
DEFAULT
 62
     5
  0
POLYLINE
  5
117
  8
DEFAULT
 62
     5
 66
     1
 10
0.0
 20
0.0
 30
0.0
 70
     1
  0
VERTEX
  5
118
  8
DEFAULT
 62
     5
 10
-33.09146873338194
 20
239.8881927525535
 30
0.0
  0
VERTEX
  5
119
  8
DEFAULT
 62
     5
 10
-30.0297403383202
 20
240.2832544809486
 30
0.0
 42
0.1817134537413219
  0
VERTEX
  5
11A
  8
DEFAULT
 62
     5
 10
-29.2373012778615
 20
238.9576373147374
 30
0.0
 42
0.1637490318832981
  0
VERTEX
  5
11B
  8
DEFAULT
 62
     5
 10
-27.56831919590927
 20
238.5054767031708
 30
0.0
 42
0.1581548590316383
  0
VERTEX
  5
11C
  8
DEFAULT
 62
     5
 10
-25.78899818470706
 20
238.9483786677228
 30
0.0
 42
0.2454173628752875
  0
VERTEX
  5
11D
  8
DEFAULT
 62
     5
 10
-25.38776502967825
 20
239.7786261935478
 30
0.0
 42
0.1967133408659303
  0
VERTEX
  5
11E
  8
DEFAULT
 62
     5
 10
-25.60535642132928
 20
240.3650458524427
 30
0.0
 42
0.115248044176231
  0
VERTEX
  5
11F
  8
DEFAULT
 62
     5
 10
-26.63004834450294
 20
240.7739966816575
 30
0.0
 42
-0.0750101977649278
  0
VERTEX
  5
120
  8
DEFAULT
 62
     5
 10
-31.32449208251118
 20
242.284798091139
 30
0.0
 42
-0.2630575377237253
  0
VERTEX
  5
121
  8
DEFAULT
 62
     5
 10
-32.69640700498689
 20
244.905169262137
 30
0.0
 42
-0.2278055359033987
  0
VERTEX
  5
122
  8
DEFAULT
 62
     5
 10
-31.51045020308949
 20
247.4499212418068
 30
0.0
 42
-0.1789409577799041
  0
VERTEX
  5
123
  8
DEFAULT
 62
     5
 10
-27.83375233078112
 20
248.4807853451461
 30
0.0
 42
-0.1478680227512857
  0
VERTEX
  5
124
  8
DEFAULT
 62
     5
 10
-24.30906069018194
 20
247.6821748580537
 30
0.0
 42
-0.1798681362132074
  0
VERTEX
  5
125
  8
DEFAULT
 62
     5
 10
-22.72109836301159
 20
245.3202915179856
 30
0.0
  0
VERTEX
  5
126
  8
DEFAULT
 62
     5
 10
-25.58529589387578
 20
244.8264643574918
 30
0.0
 42
0.1762609448244051
  0
VERTEX
  5
127
  8
DEFAULT
 62
     5
 10
-26.28591256558169
 20
245.9260015946858
 30
0.0
 42
0.1598214678236288
  0
VERTEX
  5
128
  8
DEFAULT
 62
     5
 10
-27.7581354000486
 20
246.3079458389733
 30
0.0
 42
0.1371855487857482
  0
VERTEX
  5
129
  8
DEFAULT
 62
     5
 10
-29.48498647482065
 20
245.9653540470084
 30
0.0
 42
0.2593740206710999
  0
VERTEX
  5
12A
  8
DEFAULT
 62
     5
 10
-29.83220947412268
 20
245.3341806188054
 30
0.0
 42
0.245618552824006
  0
VERTEX
  5
12B
  8
DEFAULT
 62
     5
 10
-29.5281970107043
 20
244.7693662278523
 30
0.0
 42
0.0664798749578836
  0
VERTEX
  5
12C
  8
DEFAULT
 62
     5
 10
-26.68097429397675
 20
243.8951380564954
 30
0.0
 42
-0.1095214193377511
  0
VERTEX
  5
12D
  8
DEFAULT
 62
     5
 10
-23.2812830536914
 20
242.520909790947
 30
0.0
 42
-0.2284114958797715
  0
VERTEX
  5
12E
  8
DEFAULT
 62
     5
 10
-22.32603663461649
 20
240.2323292850067
 30
0.0
 42
-0.2276229810650684
  0
VERTEX
  5
12F
  8
DEFAULT
 62
     5
 10
-23.65011056740333
 20
237.4823287669535
 30
0.0
 42
-0.1809722242825391
  0
VERTEX
  5
130
  8
DEFAULT
 62
     5
 10
-27.56831919590927
 20
236.332637196998
 30
0.0
 42
-0.1534212868272016
  0
VERTEX
  5
131
  8
DEFAULT
 62
     5
 10
-31.29594377122337
 20
237.2894276030293
 30
0.0
 42
-0.185354262016613
  0
SEQEND
  5
132
  8
DEFAULT
 62
     5
  0
POLYLINE
  5
133
  8
DEFAULT
 62
     5
 66
     1
 10
0.0
 20
0.0
 30
0.0
 70
     1
  0
VERTEX
  5
134
  8
DEFAULT
 62
     5
 10
-19.95566626424613
 20
248.1844890488498
 30
0.0
  0
VERTEX
  5
135
  8
DEFAULT
 62
     5
 10
-17.1902341654807
 20
248.1844890488498
 30
0.0
  0
VERTEX
  5
136
  8
DEFAULT
 62
     5
 10
-17.1902341654807
 20
246.6181312360893
 30
0.0
 42
-0.2373869490350214
  0
VERTEX
  5
137
  8
DEFAULT
 62
     5
 10
-13.59609777431474
 20
248.4807853451461
 30
0.0
 42
-0.1315120310734783
  0
VERTEX
  5
138
  8
DEFAULT
 62
     5
 10
-11.67557316537428
 20
248.0178228531406
 30
0.0
 42
-0.1393853272245127
  0
VERTEX
  5
139
  8
DEFAULT
 62
     5
 10
-10.33992498190431
 20
246.6181312360893
 30
0.0
 42
-0.1018343532165889
  0
VERTEX
  5
13A
  8
DEFAULT
 62
     5
 10
-8.705665652001432
 20
248.0178228531406
 30
0.0
 42
-0.1239296679571234
  0
VERTEX
  5
13B
  8
DEFAULT
 62
     5
 10
-6.833751388866189
 20
248.4807853451461
 30
0.0
 42
-0.1355305589141959
  0
VERTEX
  5
13C
  8
DEFAULT
 62
     5
 10
-4.690233317757259
 20
247.9622672033936
 30
0.0
 42
-0.1623661969580713
  0
VERTEX
  5
13D
  8
DEFAULT
 62
     5
 10
-3.380047732258222
 20
246.4406624064092
 30
0.0
 42
-0.0915442810314358
  0
VERTEX
  5
13E
  8
DEFAULT
 62
     5
 10
-3.066777375357258
 20
244.0394273675505
 30
0.0
  0
VERTEX
  5
13F
  8
DEFAULT
 62
     5
 10
-3.066777375357262
 20
236.6289334932943
 30
0.0
  0
VERTEX
  5
140
  8
DEFAULT
 62
     5
 10
-6.128505770418982
 20
236.6289334932943
 30
0.0
  0
VERTEX
  5
141
  8
DEFAULT
 62
     5
 10
-6.128505770418987
 20
243.236959550429
 30
0.0
 42
0.1141470137910709
  0
VERTEX
  5
142
  8
DEFAULT
 62
     5
 10
-6.440232893895557
 20
245.4576377856948
 30
0.0
 42
0.2721000606534051
  0
VERTEX
  5
143
  8
DEFAULT
 62
     5
 10
-7.731899678301589
 20
246.1104149747758
 30
0.0
 42
0.1575639071466467
  0
VERTEX
  5
144
  8
DEFAULT
 62
     5
 10
-8.925573400852985
 20
245.7184397132295
 30
0.0
 42
0.1657627374474177
  0
VERTEX
  5
145
  8
DEFAULT
 62
     5
 10
-9.732672425311726
 20
244.5702921302303
 30
0.0
 42
0.072343748725494
  0
VERTEX
  5
146
  8
DEFAULT
 62
     5
 10
-9.980357622270823
 20
242.181402958767
 30
0.0
  0
VERTEX
  5
147
  8
DEFAULT
 62
     5
 10
-9.98035762227083
 20
236.6289334932943
 30
0.0
  0
VERTEX
  5
148
  8
DEFAULT
 62
     5
 10
-13.04208601733255
 20
236.6289334932943
 30
0.0
  0
VERTEX
  5
149
  8
DEFAULT
 62
     5
 10
-13.04208601733254
 20
242.963810248435
 30
0.0
 42
0.0609892367975022
  0
VERTEX
  5
14A
  8
DEFAULT
 62
     5
 10
-13.2018076626319
 20
245.1420510715933
 30
0.0
 42
0.1633931196984763
  0
VERTEX
  5
14B
  8
DEFAULT
 62
     5
 10
-13.6979489197304
 20
245.8712175616509
 30
0.0
 42
0.1561218014297522
  0
VERTEX
  5
14C
  8
DEFAULT
 62
     5
 10
-14.60998706351747
 20
246.1104149747758
 30
0.0
 42
0.1551837175468121
  0
VERTEX
  5
14D
  8
DEFAULT
 62
     5
 10
-15.85921492875205
 20
245.7292423472004
 30
0.0
 42
0.1670025847935732
  0
VERTEX
  5
14E
  8
DEFAULT
 62
     5
 10
-16.65396808581541
 20
244.6297058635384
 30
0.0
 42
0.0722698594962491
  0
VERTEX
  5
14F
  8
DEFAULT
 62
     5
 10
-16.89393786918441
 20
242.2462187625925
 30
0.0
  0
VERTEX
  5
150
  8
DEFAULT
 62
     5
 10
-16.89393786918441
 20
236.6289334932943
 30
0.0
  0
VERTEX
  5
151
  8
DEFAULT
 62
     5
 10
-19.95566626424613
 20
236.6289334932943
 30
0.0
  0
SEQEND
  5
152
  8
DEFAULT
 62
     5
  0
POLYLINE
  5
153
  8
DEFAULT
 62
     5
 66
     1
 10
0.0
 20
0.0
 30
0.0
 70
     1
  0
VERTEX
  5
154
  8
DEFAULT
 62
     5
 10
2.266555957976081
 20
244.6289334932943
 30
0.0
  0
VERTEX
  5
155
  8
DEFAULT
 62
     5
 10
-0.4988761407893363
 20
245.0239952216893
 30
0.0
 42
-0.1714833175990305
  0
VERTEX
  5
156
  8
DEFAULT
 62
     5
 10
1.080599909610626
 20
247.6335637587165
 30
0.0
 42
-0.1608829132837491
  0
VERTEX
  5
157
  8
DEFAULT
 62
     5
 10
4.410075536148909
 20
248.4807853451461
 30
0.0
 42
-0.1088364278880916
  0
VERTEX
  5
158
  8
DEFAULT
 62
     5
 10
7.397729480370585
 20
247.9954459684866
 30
0.0
 42
-0.1580303644335182
  0
VERTEX
  5
159
  8
DEFAULT
 62
     5
 10
8.7796739130411
 20
246.7624213006764
 30
0.0
 42
-0.1088017057953415
  0
VERTEX
  5
15A
  8
DEFAULT
 62
     5
 10
9.180136204889644
 20
244.0178236066726
 30
0.0
  0
VERTEX
  5
15B
  8
DEFAULT
 62
     5
 10
9.180136204889662
 20
240.4375763163264
 30
0.0
 42
0.051408021969532
  0
VERTEX
  5
15C
  8
DEFAULT
 62
     5
 10
9.346803154130786
 20
238.1837178089036
 30
0.0
 42
0.069228786423257
  0
VERTEX
  5
15D
  8
DEFAULT
 62
     5
 10
9.970259661679771
 20
236.6289334932943
 30
0.0
  0
VERTEX
  5
15E
  8
DEFAULT
 62
     5
 10
6.908531266618056
 20
236.6289334932943
 30
0.0
  0
VERTEX
  5
15F
  8
DEFAULT
 62
     5
 10
6.615321437170607
 20
237.5239953158809
 30
0.0
  0
VERTEX
  5
160
  8
DEFAULT
 62
     5
 10
6.507298111589195
 20
237.8804777157294
 30
0.0
 42
-0.0933244186738297
  0
VERTEX
  5
161
  8
DEFAULT
 62
     5
 10
4.836000425968407
 20
236.7199835118029
 30
0.0
 42
-0.1040133466925921
  0
VERTEX
  5
162
  8
DEFAULT
 62
     5
 10
2.936310221789498
 20
236.332637196998
 30
0.0
 42
-0.1965430357596497
  0
VERTEX
  5
163
  8
DEFAULT
 62
     5
 10
0.1315256707014256
 20
237.3010018537124
 30
0.0
 42
-0.2154369487651056
  0
VERTEX
  5
164
  8
DEFAULT
 62
     5
 10
-0.8939378691844084
 20
239.7493047584838
 30
0.0
 42
-0.1373780248024304
  0
VERTEX
  5
165
  8
DEFAULT
 62
     5
 10
-0.4371475573446324
 20
241.4962178677733
 30
0.0
 42
-0.1473783213971355
  0
VERTEX
  5
166
  8
DEFAULT
 62
     5
 10
0.8429457299102259
 20
242.6713720356998
 30
0.0
 42
-0.0634404934847228
  0
VERTEX
  5
167
  8
DEFAULT
 62
     5
 10
3.217174183841635
 20
243.3835637116207
 30
0.0
 42
0.047200987772921
  0
VERTEX
  5
168
  8
DEFAULT
 62
     5
 10
6.118407809827929
 20
244.1351063328005
 30
0.0
  0
VERTEX
  5
169
  8
DEFAULT
 62
     5
 10
6.118407809827919
 20
244.4452917299165
 30
0.0
 42
0.2070921599656511
  0
VERTEX
  5
16A
  8
DEFAULT
 62
     5
 10
5.708686117432874
 20
245.7276991137761
 30
0.0
 42
0.1777887432707815
  0
VERTEX
  5
16B
  8
DEFAULT
 62
     5
 10
4.161617968945635
 20
246.1104149747758
 30
0.0
 42
0.165109113803881
  0
VERTEX
  5
16C
  8
DEFAULT
 62
     5
 10
2.963316053184845
 20
245.7817115300986
 30
0.0
 42
0.1491587679877812
  0
SEQEND
  5
16D
  8
DEFAULT
 62
     5
  0
POLYLINE
  5
16E
  8
DEFAULT
 62
     5
 66
     1
 10
0.0
 20
0.0
 30
0.0
 70
     1
  0
VERTEX
  5
16F
  8
DEFAULT
 62
     5
 10
6.118407809827929
 20
242.1597976908252
 30
0.0
  0
VERTEX
  5
170
  8
DEFAULT
 62
     5
 10
4.336001085308866
 20
241.6922054985464
 30
0.0
 42
0.0811165779560932
  0
VERTEX
  5
171
  8
DEFAULT
 62
     5
 10
2.741865824440808
 20
241.159799009506
 30
0.0
 42
0.2517191883486211
  0
VERTEX
  5
172
  8
DEFAULT
 62
     5
 10
2.16779052587733
 20
240.0826386569661
 30
0.0
 42
0.2041672574556712
  0
VERTEX
  5
173
  8
DEFAULT
 62
     5
 10
2.626124071141518
 20
238.9730696489815
 30
0.0
 42
0.2097521333282714
  0
VERTEX
  5
174
  8
DEFAULT
 62
     5
 10
3.794334442190049
 20
238.5054767031708
 30
0.0
 42
0.167048264484561
  0
VERTEX
  5
175
  8
DEFAULT
 62
     5
 10
5.305137358735469
 20
239.0486873332459
 30
0.0
 42
0.165161245499127
  0
VERTEX
  5
176
  8
DEFAULT
 62
     5
 10
6.004211550548944
 20
240.0610333890243
 30
0.0
 42
0.0593667948163567
  0
VERTEX
  5
177
  8
DEFAULT
 62
     5
 10
6.118407809827936
 20
241.5502310376279
 30
0.0
  0
SEQEND
  5
178
  8
DEFAULT
 62
     5
  0
POLYLINE
  5
179
  8
DEFAULT
 62
     5
 66
     1
 10
0.0
 20
0.0
 30
0.0
 70
     1
  0
VERTEX
  5
17A
  8
DEFAULT
 62
     5
 10
22.8097658345193
 20
236.6289334932943
 30
0.0
  0
VERTEX
  5
17B
  8
DEFAULT
 62
     5
 10
19.74803743945758
 20
236.6289334932943
 30
0.0
  0
VERTEX
  5
17C
  8
DEFAULT
 62
     5
 10
19.74803743945757
 20
242.528625958069
 30
0.0
 42
0.0659043403442039
  0
VERTEX
  5
17D
  8
DEFAULT
 62
     5
 10
19.55513627553329
 20
244.9514655113376
 30
0.0
 42
0.160013069576555
  0
VERTEX
  5
17E
  8
DEFAULT
 62
     5
 10
18.92859330113548
 20
245.8056316481771
 30
0.0
 42
0.1575149176298443
  0
VERTEX
  5
17F
  8
DEFAULT
 62
     5
 10
17.88538333040076
 20
246.1104149747758
 30
0.0
 42
0.1576987046345062
  0
VERTEX
  5
180
  8
DEFAULT
 62
     5
 10
16.4833776167448
 20
245.6752299308778
 30
0.0
 42
0.1684371822617151
  0
VERTEX
  5
181
  8
DEFAULT
 62
     5
 10
15.63229719322212
 20
244.5216810308932
 30
0.0
 42
0.0659809918576573
  0
VERTEX
  5
182
  8
DEFAULT
 62
     5
 10
15.40235842711188
 20
241.8650446279533
 30
0.0
  0
VERTEX
  5
183
  8
DEFAULT
 62
     5
 10
15.40235842711188
 20
236.6289334932943
 30
0.0
  0
VERTEX
  5
184
  8
DEFAULT
 62
     5
 10
12.34063003205016
 20
236.6289334932943
 30
0.0
  0
VERTEX
  5
185
  8
DEFAULT
 62
     5
 10
12.34063003205016
 20
248.1844890488498
 30
0.0
  0
VERTEX
  5
186
  8
DEFAULT
 62
     5
 10
15.20482756291436
 20
248.1844890488498
 30
0.0
  0
VERTEX
  5
187
  8
DEFAULT
 62
     5
 10
15.20482756291436
 20
246.4993052765371
 30
0.0
 42
-0.2486296121988462
  0
VERTEX
  5
188
  8
DEFAULT
 62
     5
 10
18.97025985006276
 20
248.4807853451461
 30
0.0
 42
-0.1053164015607847
  0
VERTEX
  5
189
  8
DEFAULT
 62
     5
 10
20.79819196060215
 20
248.115045051815
 30
0.0
 42
-0.129219171708867
  0
VERTEX
  5
18A
  8
DEFAULT
 62
     5
 10
22.05127866292971
 20
247.1821747638622
 30
0.0
 42
-0.1054932374262142
  0
VERTEX
  5
18B
  8
DEFAULT
 62
     5
 10
22.64309963881005
 20
245.8943660630172
 30
0.0
 42
-0.0533641385177256
  0
VERTEX
  5
18C
  8
DEFAULT
 62
     5
 10
22.80976583451929
 20
243.831095376446
 30
0.0
  0
SEQEND
  5
18D
  8
DEFAULT
 62
     5
  0
POLYLINE
  5
18E
  8
DEFAULT
 62
     5
 66
     1
 10
0.0
 20
0.0
 30
0.0
 70
     1
  0
VERTEX
  5
18F
  8
DEFAULT
 62
     5
 10
24.78507447649461
 20
239.8881927525535
 30
0.0
  0
VERTEX
  5
190
  8
DEFAULT
 62
     5
 10
27.84680287155635
 20
240.2832544809486
 30
0.0
 42
0.1817134537413282
  0
VERTEX
  5
191
  8
DEFAULT
 62
     5
 10
28.63924193201503
 20
238.9576373147374
 30
0.0
 42
0.1637490318832966
  0
VERTEX
  5
192
  8
DEFAULT
 62
     5
 10
30.30822401396726
 20
238.5054767031708
 30
0.0
 42
0.1581548590316383
  0
VERTEX
  5
193
  8
DEFAULT
 62
     5
 10
32.08754502516946
 20
238.9483786677228
 30
0.0
 42
0.2454173628752915
  0
VERTEX
  5
194
  8
DEFAULT
 62
     5
 10
32.48877818019835
 20
239.7786261935478
 30
0.0
 42
0.1967133408659034
  0
VERTEX
  5
195
  8
DEFAULT
 62
     5
 10
32.27118678854726
 20
240.3650458524427
 30
0.0
 42
0.115248044176224
  0
VERTEX
  5
196
  8
DEFAULT
 62
     5
 10
31.24649486537361
 20
240.7739966816575
 30
0.0
 42
-0.0750101977649337
  0
VERTEX
  5
197
  8
DEFAULT
 62
     5
 10
26.55205112736535
 20
242.284798091139
 30
0.0
 42
-0.2630575377237322
  0
VERTEX
  5
198
  8
DEFAULT
 62
     5
 10
25.18013620488966
 20
244.905169262137
 30
0.0
 42
-0.2278055359034087
  0
VERTEX
  5
199
  8
DEFAULT
 62
     5
 10
26.36609300678706
 20
247.4499212418068
 30
0.0
 42
-0.1789409577799059
  0
VERTEX
  5
19A
  8
DEFAULT
 62
     5
 10
30.04279087909542
 20
248.4807853451461
 30
0.0
 42
-0.1478680227512842
  0
VERTEX
  5
19B
  8
DEFAULT
 62
     5
 10
33.56748251969459
 20
247.6821748580537
 30
0.0
 42
-0.1798681362132131
  0
VERTEX
  5
19C
  8
DEFAULT
 62
     5
 10
35.15544484686496
 20
245.3202915179856
 30
0.0
  0
VERTEX
  5
19D
  8
DEFAULT
 62
     5
 10
32.29124731600076
 20
244.8264643574918
 30
0.0
 42
0.1762609448244311
  0
VERTEX
  5
19E
  8
DEFAULT
 62
     5
 10
31.59063064429484
 20
245.9260015946858
 30
0.0
 42
0.1598214678236219
  0
VERTEX
  5
19F
  8
DEFAULT
 62
     5
 10
30.11840780982793
 20
246.3079458389732
 30
0.0
 42
0.1371855487857686
  0
VERTEX
  5
1A0
  8
DEFAULT
 62
     5
 10
28.39155673505592
 20
245.9653540470084
 30
0.0
 42
0.259374020671144
  0
VERTEX
  5
1A1
  8
DEFAULT
 62
     5
 10
28.04433373575389
 20
245.3341806188054
 30
0.0
 42
0.2456185528240008
  0
VERTEX
  5
1A2
  8
DEFAULT
 62
     5
 10
28.34834619917224
 20
244.7693662278523
 30
0.0
 42
0.066479874957882
  0
VERTEX
  5
1A3
  8
DEFAULT
 62
     5
 10
31.19556891589981
 20
243.8951380564954
 30
0.0
 42
-0.1095214193377544
  0
VERTEX
  5
1A4
  8
DEFAULT
 62
     5
 10
34.59526015618511
 20
242.5209097909469
 30
0.0
 42
-0.2284114958797562
  0
VERTEX
  5
1A5
  8
DEFAULT
 62
     5
 10
35.55050657526
 20
240.2323292850067
 30
0.0
 42
-0.2276229810650817
  0
VERTEX
  5
1A6
  8
DEFAULT
 62
     5
 10
34.22643264247321
 20
237.4823287669535
 30
0.0
 42
-0.1809722242825356
  0
VERTEX
  5
1A7
  8
DEFAULT
 62
     5
 10
30.30822401396727
 20
236.332637196998
 30
0.0
 42
-0.1534212868272052
  0
VERTEX
  5
1A8
  8
DEFAULT
 62
     5
 10
26.5805994386532
 20
237.2894276030293
 30
0.0
 42
-0.1853542620166166
  0
SEQEND
  5
1A9
  8
DEFAULT
 62
     5
  0
POLYLINE
  5
1AA
  8
DEFAULT
 62
     5
 66
     1
 10
0.0
 20
0.0
 30
0.0
 70
     1
  0
VERTEX
  5
1AB
  8
DEFAULT
 62
     5
 10
38.21717324192669
 20
248.1844890488498
 30
0.0
  0
VERTEX
  5
1AC
  8
DEFAULT
 62
     5
 10
41.08137077279089
 20
248.1844890488498
 30
0.0
  0
VERTEX
  5
1AD
  8
DEFAULT
 62
     5
 10
41.08137077279089
 20
246.4993052765371
 30
0.0
 42
-0.1189653659007573
  0
VERTEX
  5
1AE
  8
DEFAULT
 62
     5
 10
42.5605381576677
 20
247.9221438878907
 30
0.0
 42
-0.1382105598910132
  0
VERTEX
  5
1AF
  8
DEFAULT
 62
     5
 10
44.62921166828825
 20
248.4807853451461
 30
0.0
 42
-0.2273648758850203
  0
VERTEX
  5
1B0
  8
DEFAULT
 62
     5
 10
47.99495101970449
 20
246.893594634688
 30
0.0
 42
-0.1838682188936078
  0
VERTEX
  5
1B1
  8
DEFAULT
 62
     5
 10
49.37766706908719
 20
242.47306955479
 30
0.0
 42
-0.1823656645300112
  0
VERTEX
  5
1B2
  8
DEFAULT
 62
     5
 10
47.98337752255331
 20
237.9468352459154
 30
0.0
 42
-0.2285594541574888
  0
VERTEX
  5
1B3
  8
DEFAULT
 62
     5
 10
44.6045199334976
 20
236.332637196998
 30
0.0
 42
-0.1163198006807739
  0
VERTEX
  5
1B4
  8
DEFAULT
 62
     5
 10
42.89309968590582
 20
236.7107241112564
 30
0.0
 42
-0.090415238077767
  0
VERTEX
  5
1B5
  8
DEFAULT
 62
     5
 10
41.27890163698844
 20
238.0070213494676
 30
0.0
  0
VERTEX
  5
1B6
  8
DEFAULT
 62
     5
 10
41.27890163698844
 20
232.1844890488498
 30
0.0
  0
VERTEX
  5
1B7
  8
DEFAULT
 62
     5
 10
38.21717324192669
 20
232.1844890488498
 30
0.0
  0
SEQEND
  5
1B8
  8
DEFAULT
 62
     5
  0
POLYLINE
  5
1B9
  8
DEFAULT
 62
     5
 66
     1
 10
0.0
 20
0.0
 30
0.0
 70
     1
  0
VERTEX
  5
1BA
  8
DEFAULT
 62
     5
 10
41.27890163698844
 20
242.6011564219527
 30
0.0
 42
0.166212785212053
  0
VERTEX
  5
1BB
  8
DEFAULT
 62
     5
 10
42.03661794539774
 20
239.6551682731263
 30
0.0
 42
0.2404461653497363
  0
VERTEX
  5
1BC
  8
DEFAULT
 62
     5
 10
43.8822972403179
 20
238.7030075673684
 30
0.0
 42
0.2413239634427164
  0
VERTEX
  5
1BD
  8
DEFAULT
 62
     5
 10
45.62226655272941
 20
239.5772364922572
 30
0.0
 42
0.1627449374921695
  0
VERTEX
  5
1BE
  8
DEFAULT
 62
     5
 10
46.31593867402548
 20
242.4452928602144
 30
0.0
 42
0.1661976731382189
  0
VERTEX
  5
1BF
  8
DEFAULT
 62
     5
 10
45.60066128478759
 20
245.2084093553113
 30
0.0
 42
0.2412377667960508
  0
VERTEX
  5
1C0
  8
DEFAULT
 62
     5
 10
43.82982881095164
 20
246.1104149747758
 30
0.0
 42
0.2367422129321947
  0
VERTEX
  5
1C1
  8
DEFAULT
 62
     5
 10
42.00421079701695
 20
245.2246125527357
 30
0.0
 42
0.172344780998899
  0
SEQEND
  5
1C2
  8
DEFAULT
 62
     5
  0
POLYLINE
  5
1C3
  8
DEFAULT
 62
     5
 66
     1
 10
0.0
 20
0.0
 30
0.0
 70
     1
  0
VERTEX
  5
1C4
  8
DEFAULT
 62
     5
 10
54.01964237772917
 20
244.6289334932943
 30
0.0
  0
VERTEX
  5
1C5
  8
DEFAULT
 62
     5
 10
51.25421027896371
 20
245.0239952216893
 30
0.0
 42
-0.1714833175990243
  0
VERTEX
  5
1C6
  8
DEFAULT
 62
     5
 10
52.83368632936372
 20
247.6335637587165
 30
0.0
 42
-0.1608829132837471
  0
VERTEX
  5
1C7
  8
DEFAULT
 62
     5
 10
56.16316195590197
 20
248.4807853451461
 30
0.0
 42
-0.1088364278880898
  0
VERTEX
  5
1C8
  8
DEFAULT
 62
     5
 10
59.15081590012367
 20
247.9954459684866
 30
0.0
 42
-0.1580303644335271
  0
VERTEX
  5
1C9
  8
DEFAULT
 62
     5
 10
60.53276033279418
 20
246.7624213006764
 30
0.0
 42
-0.108801705795341
  0
VERTEX
  5
1CA
  8
DEFAULT
 62
     5
 10
60.93322262464274
 20
244.0178236066726
 30
0.0
  0
VERTEX
  5
1CB
  8
DEFAULT
 62
     5
 10
60.93322262464272
 20
240.4375763163264
 30
0.0
 42
0.0514080219695319
  0
VERTEX
  5
1CC
  8
DEFAULT
 62
     5
 10
61.09988957388388
 20
238.1837178089036
 30
0.0
 42
0.0692287864232567
  0
VERTEX
  5
1CD
  8
DEFAULT
 62
     5
 10
61.72334608143287
 20
236.6289334932943
 30
0.0
  0
VERTEX
  5
1CE
  8
DEFAULT
 62
     5
 10
58.66161768637114
 20
236.6289334932943
 30
0.0
  0
VERTEX
  5
1CF
  8
DEFAULT
 62
     5
 10
58.36840785692367
 20
237.5239953158809
 30
0.0
  0
VERTEX
  5
1D0
  8
DEFAULT
 62
     5
 10
58.2603845313423
 20
237.8804777157294
 30
0.0
 42
-0.0933244186738295
  0
VERTEX
  5
1D1
  8
DEFAULT
 62
     5
 10
56.5890868457215
 20
236.7199835118029
 30
0.0
 42
-0.1040133466925905
  0
VERTEX
  5
1D2
  8
DEFAULT
 62
     5
 10
54.68939664154259
 20
236.332637196998
 30
0.0
 42
-0.1965430357596509
  0
VERTEX
  5
1D3
  8
DEFAULT
 62
     5
 10
51.88461209045452
 20
237.3010018537124
 30
0.0
 42
-0.215436948765114
  0
VERTEX
  5
1D4
  8
DEFAULT
 62
     5
 10
50.85914855056868
 20
239.7493047584838
 30
0.0
 42
-0.1373780248024401
  0
VERTEX
  5
1D5
  8
DEFAULT
 62
     5
 10
51.31593886240845
 20
241.4962178677733
 30
0.0
 42
-0.1473783213971379
  0
VERTEX
  5
1D6
  8
DEFAULT
 62
     5
 10
52.59603214966332
 20
242.6713720356998
 30
0.0
 42
-0.0634404934847235
  0
VERTEX
  5
1D7
  8
DEFAULT
 62
     5
 10
54.97026060359472
 20
243.3835637116207
 30
0.0
 42
0.0472009877729169
  0
VERTEX
  5
1D8
  8
DEFAULT
 62
     5
 10
57.87149422958102
 20
244.1351063328005
 30
0.0
  0
VERTEX
  5
1D9
  8
DEFAULT
 62
     5
 10
57.87149422958099
 20
244.4452917299165
 30
0.0
 42
0.2070921599656374
  0
VERTEX
  5
1DA
  8
DEFAULT
 62
     5
 10
57.46177253718596
 20
245.727699113776
 30
0.0
 42
0.17778874327079
  0
VERTEX
  5
1DB
  8
DEFAULT
 62
     5
 10
55.91470438869869
 20
246.1104149747758
 30
0.0
 42
0.1651091138038886
  0
VERTEX
  5
1DC
  8
DEFAULT
 62
     5
 10
54.71640247293794
 20
245.7817115300986
 30
0.0
 42
0.1491587679877819
  0
SEQEND
  5
1DD
  8
DEFAULT
 62
     5
  0
POLYLINE
  5
1DE
  8
DEFAULT
 62
     5
 66
     1
 10
0.0
 20
0.0
 30
0.0
 70
     1
  0
VERTEX
  5
1DF
  8
DEFAULT
 62
     5
 10
57.87149422958102
 20
242.1597976908252
 30
0.0
  0
VERTEX
  5
1E0
  8
DEFAULT
 62
     5
 10
56.08908750506193
 20
241.6922054985464
 30
0.0
 42
0.0811165779560949
  0
VERTEX
  5
1E1
  8
DEFAULT
 62
     5
 10
54.4949522441939
 20
241.159799009506
 30
0.0
 42
0.2517191883486196
  0
VERTEX
  5
1E2
  8
DEFAULT
 62
     5
 10
53.9208769456304
 20
240.0826386569661
 30
0.0
 42
0.2041672574556606
  0
VERTEX
  5
1E3
  8
DEFAULT
 62
     5
 10
54.37921049089462
 20
238.9730696489816
 30
0.0
 42
0.2097521333282766
  0
VERTEX
  5
1E4
  8
DEFAULT
 62
     5
 10
55.54742086194314
 20
238.5054767031708
 30
0.0
 42
0.167048264484561
  0
VERTEX
  5
1E5
  8
DEFAULT
 62
     5
 10
57.05822377848854
 20
239.048687333246
 30
0.0
 42
0.165161245499137
  0
VERTEX
  5
1E6
  8
DEFAULT
 62
     5
 10
57.75729797030199
 20
240.0610333890243
 30
0.0
 42
0.0593667948163643
  0
VERTEX
  5
1E7
  8
DEFAULT
 62
     5
 10
57.87149422958102
 20
241.5502310376279
 30
0.0
  0
SEQEND
  5
1E8
  8
DEFAULT
 62
     5
  0
POLYLINE
  5
1E9
  8
DEFAULT
 62
     5
 66
     1
 10
0.0
 20
0.0
 30
0.0
 70
     1
  0
VERTEX
  5
1EA
  8
DEFAULT
 62
     5
 10
74.06902509377854
 20
244.8264643574918
 30
0.0
  0
VERTEX
  5
1EB
  8
DEFAULT
 62
     5
 10
71.00729669871684
 20
244.332637196998
 30
0.0
 42
0.1809968098175442
  0
VERTEX
  5
1EC
  8
DEFAULT
 62
     5
 10
70.3236555946795
 20
245.6636564337266
 30
0.0
 42
0.1804760167669894
  0
VERTEX
  5
1ED
  8
DEFAULT
 62
     5
 10
68.94093879176482
 20
246.1104149747757
 30
0.0
 42
0.2329674834671129
  0
VERTEX
  5
1EE
  8
DEFAULT
 62
     5
 10
67.1369267993039
 20
245.3079464041222
 30
0.0
 42
0.1695179555120405
  0
VERTEX
  5
1EF
  8
DEFAULT
 62
     5
 10
66.46408682217358
 20
242.6227616898945
 30
0.0
 42
0.1610966817174995
  0
VERTEX
  5
1F0
  8
DEFAULT
 62
     5
 10
67.15313075026029
 20
239.665199290385
 30
0.0
 42
0.2405540491094023
  0
VERTEX
  5
1F1
  8
DEFAULT
 62
     5
 10
69.00266812874149
 20
238.8017729994671
 30
0.0
 42
0.1883458441869561
  0
VERTEX
  5
1F2
  8
DEFAULT
 62
     5
 10
70.42319264349047
 20
239.2909712132196
 30
0.0
 42
0.1622604489948042
  0
VERTEX
  5
1F3
  8
DEFAULT
 62
     5
 10
71.20482756291435
 20
240.97461250564
 30
0.0
  0
VERTEX
  5
1F4
  8
DEFAULT
 62
     5
 10
74.26655595797605
 20
240.5795507772449
 30
0.0
 42
-0.1724509721436034
  0
VERTEX
  5
1F5
  8
DEFAULT
 62
     5
 10
72.47797629975932
 20
237.4051686027966
 30
0.0
 42
-0.1746967243539335
  0
VERTEX
  5
1F6
  8
DEFAULT
 62
     5
 10
68.93168089828221
 20
236.332637196998
 30
0.0
 42
-0.2163976905724385
  0
VERTEX
  5
1F7
  8
DEFAULT
 62
     5
 10
64.90390194311077
 20
237.9414339289299
 30
0.0
 42
-0.1943870566321014
  0
VERTEX
  5
1F8
  8
DEFAULT
 62
     5
 10
63.40235842711186
 20
242.3959093906331
 30
0.0
 42
-0.1945054615972523
  0
VERTEX
  5
1F9
  8
DEFAULT
 62
     5
 10
64.90313032639855
 20
246.8773906837316
 30
0.0
 42
-0.2157801631579816
  0
VERTEX
  5
1FA
  8
DEFAULT
 62
     5
 10
68.96254405970667
 20
248.4807853451461
 30
0.0
 42
-0.1599423076958009
  0
VERTEX
  5
1FB
  8
DEFAULT
 62
     5
 10
72.29279130295713
 20
247.5780081089694
 30
0.0
 42
-0.168263569712642
  0
SEQEND
  5
1FC
  8
DEFAULT
 62
     5
  0
POLYLINE
  5
1FD
  8
DEFAULT
 62
     5
 66
     1
 10
0.0
 20
0.0
 30
0.0
 70
     1
  0
VERTEX
  5
1FE
  8
DEFAULT
 62
     5
 10
83.15544484686497
 20
240.2832544809486
 30
0.0
  0
VERTEX
  5
1FF
  8
DEFAULT
 62
     5
 10
86.2171732419267
 20
239.8881927525535
 30
0.0
 42
-0.1601948643917405
  0
VERTEX
  5
200
  8
DEFAULT
 62
     5
 10
84.35606236629432
 20
237.2415881204043
 30
0.0
 42
-0.159020940581445
  0
VERTEX
  5
201
  8
DEFAULT
 62
     5
 10
81.17242154483148
 20
236.332637196998
 30
0.0
 42
-0.2510606897924209
  0
VERTEX
  5
202
  8
DEFAULT
 62
     5
 10
76.69711243189872
 20
238.314118772671
 30
0.0
 42
-0.1603231689598282
  0
VERTEX
  5
203
  8
DEFAULT
 62
     5
 10
75.55050657526003
 20
242.3187492264762
 30
0.0
 42
-0.1928988919450644
  0
VERTEX
  5
204
  8
DEFAULT
 62
     5
 10
77.06208110851763
 20
246.8449835353508
 30
0.0
 42
-0.2186957110499432
  0
VERTEX
  5
205
  8
DEFAULT
 62
     5
 10
80.88383990859337
 20
248.4807853451461
 30
0.0
 42
-0.2248762650829861
  0
VERTEX
  5
206
  8
DEFAULT
 62
     5
 10
84.97951962737524
 20
246.779396868345
 30
0.0
  0
VERTEX
  5
207
  8
DEFAULT
 62
     5
 10
85.07174150432675
 20
246.6712930818882
 30
0.0
  0
VERTEX
  5
208
  8
DEFAULT
 62
     5
 10
85.16090709985954
 20
246.5596552821179
 30
0.0
  0
VERTEX
  5
209
  8
DEFAULT
 62
     5
 10
85.24701641397357
 20
246.4444834690341
 30
0.0
  0
VERTEX
  5
20A
  8
DEFAULT
 62
     5
 10
85.33006944666886
 20
246.3257776426368
 30
0.0
  0
VERTEX
  5
20B
  8
DEFAULT
 62
     5
 10
85.41006619794538
 20
246.203537802926
 30
0.0
  0
VERTEX
  5
20C
  8
DEFAULT
 62
     5
 10
85.48700666780317
 20
246.0777639499017
 30
0.0
  0
VERTEX
  5
20D
  8
DEFAULT
 62
     5
 10
85.5608908562422
 20
245.9484560835639
 30
0.0
  0
VERTEX
  5
20E
  8
DEFAULT
 62
     5
 10
85.63171876326248
 20
245.8156142039126
 30
0.0
  0
VERTEX
  5
20F
  8
DEFAULT
 62
     5
 10
85.699490388864
 20
245.6792383109478
 30
0.0
  0
VERTEX
  5
210
  8
DEFAULT
 62
     5
 10
85.7642057330468
 20
245.5393284046695
 30
0.0
  0
VERTEX
  5
211
  8
DEFAULT
 62
     5
 10
85.82586479581082
 20
245.3958844850777
 30
0.0
  0
VERTEX
  5
212
  8
DEFAULT
 62
     5
 10
85.8844675771561
 20
245.2489065521725
 30
0.0
  0
VERTEX
  5
213
  8
DEFAULT
 62
     5
 10
85.94001407708264
 20
245.0983946059537
 30
0.0
  0
VERTEX
  5
214
  8
DEFAULT
 62
     5
 10
85.99250429559042
 20
244.9443486464214
 30
0.0
  0
VERTEX
  5
215
  8
DEFAULT
 62
     5
 10
86.04193823267946
 20
244.7867686735756
 30
0.0
  0
VERTEX
  5
216
  8
DEFAULT
 62
     5
 10
86.08831588834974
 20
244.6256546874164
 30
0.0
  0
VERTEX
  5
217
  8
DEFAULT
 62
     5
 10
86.13163726260126
 20
244.4610066879436
 30
0.0
  0
VERTEX
  5
218
  8
DEFAULT
 62
     5
 10
86.17190235543404
 20
244.2928246751573
 30
0.0
  0
VERTEX
  5
219
  8
DEFAULT
 62
     5
 10
86.20911116684806
 20
244.1211086490576
 30
0.0
  0
VERTEX
  5
21A
  8
DEFAULT
 62
     5
 10
86.24326369684336
 20
243.9458586096443
 30
0.0
  0
VERTEX
  5
21B
  8
DEFAULT
 62
     5
 10
86.27435994541989
 20
243.7670745569176
 30
0.0
  0
VERTEX
  5
21C
  8
DEFAULT
 62
     5
 10
86.30239991257767
 20
243.5847564908773
 30
0.0
  0
VERTEX
  5
21D
  8
DEFAULT
 62
     5
 10
86.32738359831671
 20
243.3989044115236
 30
0.0
  0
VERTEX
  5
21E
  8
DEFAULT
 62
     5
 10
86.349311002637
 20
243.2095183188563
 30
0.0
  0
VERTEX
  5
21F
  8
DEFAULT
 62
     5
 10
86.3839969670213
 20
242.8201440935814
 30
0.0
  0
VERTEX
  5
220
  8
DEFAULT
 62
     5
 10
86.40645780573061
 20
242.4166338150524
 30
0.0
  0
VERTEX
  5
221
  8
DEFAULT
 62
     5
 10
86.41669351876493
 20
241.9989874832695
 30
0.0
  0
VERTEX
  5
222
  8
DEFAULT
 62
     5
 10
86.41470410612423
 20
241.5672050982326
 30
0.0
  0
VERTEX
  5
223
  8
DEFAULT
 62
     5
 10
78.61223497032175
 20
241.5672050982326
 30
0.0
 42
0.1907233177561368
  0
VERTEX
  5
224
  8
DEFAULT
 62
     5
 10
79.36763718212639
 20
239.4568657922166
 30
0.0
 42
0.2135192120775244
  0
VERTEX
  5
225
  8
DEFAULT
 62
     5
 10
81.16779184455821
 20
238.7030075673684
 30
0.0
 42
0.1657236937100905
  0
VERTEX
  5
226
  8
DEFAULT
 62
     5
 10
82.40004414212423
 20
239.0772363980658
 30
0.0
 42
0.1589948514629517
  0
SEQEND
  5
227
  8
DEFAULT
 62
     5
  0
POLYLINE
  5
228
  8
DEFAULT
 62
     5
 66
     1
 10
0.0
 20
0.0
 30
0.0
 70
     1
  0
VERTEX
  5
229
  8
DEFAULT
 62
     5
 10
83.35297571106251
 20
243.4437483081091
 30
0.0
 42
0.1931771868552508
  0
VERTEX
  5
22A
  8
DEFAULT
 62
     5
 10
82.65004418921995
 20
245.4306312007675
 30
0.0
 42
0.2094545272841039
  0
VERTEX
  5
22B
  8
DEFAULT
 62
     5
 10
81.02118617630255
 20
246.1104149747758
 30
0.0
 42
0.2175151257022337
  0
VERTEX
  5
22C
  8
DEFAULT
 62
     5
 10
79.32519826295494
 20
245.3928234889332
 30
0.0
 42
0.1974850402976713
  0
VERTEX
  5
22D
  8
DEFAULT
 62
     5
 10
78.66624814017634
 20
243.4437483081091
 30
0.0
  0
SEQEND
  5
22E
  8
DEFAULT
 62
     5
  0
POLYLINE
  5
22F
  8
DEFAULT
 62
     5
 66
     1
 10
0.0
 20
0.0
 30
0.0
 70
     1
  0
VERTEX
  5
230
  8
DEFAULT
 62
     5
 10
88.68630904439583
 20
236.6289334932943
 30
0.0
  0
VERTEX
  5
231
  8
DEFAULT
 62
     5
 10
88.68630904439583
 20
239.690661888356
 30
0.0
  0
VERTEX
  5
232
  8
DEFAULT
 62
     5
 10
91.74803743945755
 20
239.690661888356
 30
0.0
  0
VERTEX
  5
233
  8
DEFAULT
 62
     5
 10
91.74803743945755
 20
236.6289334932943
 30
0.0
  0
SEQEND
  5
234
  8
DEFAULT
 62
     5
  0
POLYLINE
  5
235
  8
DEFAULT
 62
     5
 66
     1
 10
0.0
 20
0.0
 30
0.0
 70
     1
  0
VERTEX
  5
236
  8
DEFAULT
 62
     5
 10
104.8838399085934
 20
244.8264643574918
 30
0.0
  0
VERTEX
  5
237
  8
DEFAULT
 62
     5
 10
101.8221115135316
 20
244.332637196998
 30
0.0
 42
0.1809968098175489
  0
VERTEX
  5
238
  8
DEFAULT
 62
     5
 10
101.1384704094943
 20
245.6636564337266
 30
0.0
 42
0.1804760167669907
  0
VERTEX
  5
239
  8
DEFAULT
 62
     5
 10
99.75575360657963
 20
246.1104149747758
 30
0.0
 42
0.2329674834671036
  0
VERTEX
  5
23A
  8
DEFAULT
 62
     5
 10
97.95174161411872
 20
245.3079464041222
 30
0.0
 42
0.1695179555120288
  0
VERTEX
  5
23B
  8
DEFAULT
 62
     5
 10
97.27890163698841
 20
242.6227616898945
 30
0.0
 42
0.1610966817174921
  0
VERTEX
  5
23C
  8
DEFAULT
 62
     5
 10
97.96794556507511
 20
239.6651992903851
 30
0.0
 42
0.2405540491094074
  0
VERTEX
  5
23D
  8
DEFAULT
 62
     5
 10
99.8174829435563
 20
238.8017729994671
 30
0.0
 42
0.188345844186945
  0
VERTEX
  5
23E
  8
DEFAULT
 62
     5
 10
101.2380074583053
 20
239.2909712132196
 30
0.0
 42
0.1622604489947887
  0
VERTEX
  5
23F
  8
DEFAULT
 62
     5
 10
102.0196423777292
 20
240.97461250564
 30
0.0
  0
VERTEX
  5
240
  8
DEFAULT
 62
     5
 10
105.0813707727909
 20
240.5795507772449
 30
0.0
 42
-0.1724509721436084
  0
VERTEX
  5
241
  8
DEFAULT
 62
     5
 10
103.2927911145741
 20
237.4051686027966
 30
0.0
 42
-0.174696724353929
  0
VERTEX
  5
242
  8
DEFAULT
 62
     5
 10
99.74649571309705
 20
236.332637196998
 30
0.0
 42
-0.2163976905724411
  0
VERTEX
  5
243
  8
DEFAULT
 62
     5
 10
95.71871675792556
 20
237.9414339289299
 30
0.0
 42
-0.1943870566321054
  0
VERTEX
  5
244
  8
DEFAULT
 62
     5
 10
94.21717324192672
 20
242.3959093906331
 30
0.0
 42
-0.194505461597254
  0
VERTEX
  5
245
  8
DEFAULT
 62
     5
 10
95.71794514121339
 20
246.8773906837316
 30
0.0
 42
-0.2157801631579893
  0
VERTEX
  5
246
  8
DEFAULT
 62
     5
 10
99.77735887452147
 20
248.4807853451461
 30
0.0
 42
-0.1599423076958007
  0
VERTEX
  5
247
  8
DEFAULT
 62
     5
 10
103.1076061177719
 20
247.5780081089694
 30
0.0
 42
-0.1682635697126383
  0
SEQEND
  5
248
  8
DEFAULT
 62
     5
  0
POLYLINE
  5
249
  8
DEFAULT
 62
     5
 66
     1
 10
0.0
 20
0.0
 30
0.0
 70
     1
  0
VERTEX
  5
24A
  8
DEFAULT
 62
     5
 10
106.5628522542724
 20
242.5702917534644
 30
0.0
 42
-0.122257429183269
  0
VERTEX
  5
24B
  8
DEFAULT
 62
     5
 10
107.3089943119986
 20
245.5363419368081
 30
0.0
 42
-0.1509199207836211
  0
VERTEX
  5
24C
  8
DEFAULT
 62
     5
 10
109.4231924551075
 20
247.7253846404054
 30
0.0
 42
-0.1287246067144049
  0
VERTEX
  5
24D
  8
DEFAULT
 62
     5
 10
112.4779770532913
 20
248.4807853451461
 30
0.0
 42
-0.2109274079128299
  0
VERTEX
  5
24E
  8
DEFAULT
 62
     5
 10
116.749580861265
 20
246.7678226176619
 30
0.0
 42
-0.2026212639801739
  0
VERTEX
  5
24F
  8
DEFAULT
 62
     5
 10
118.4147041061243
 20
242.4391199265168
 30
0.0
 42
-0.2022295973323171
  0
VERTEX
  5
250
  8
DEFAULT
 62
     5
 10
116.7333776638405
 20
238.067205192424
 30
0.0
 42
-0.2115506096600894
  0
VERTEX
  5
251
  8
DEFAULT
 62
     5
 10
112.4995808141692
 20
236.332637196998
 30
0.0
 42
-0.1188796278362198
  0
VERTEX
  5
252
  8
DEFAULT
 62
     5
 10
109.4880067518691
 20
237.0548598901777
 30
0.0
 42
-0.1582355798320247
  0
VERTEX
  5
253
  8
DEFAULT
 62
     5
 10
107.3089943119986
 20
239.1729161168476
 30
0.0
 42
-0.1239053267140299
  0
SEQEND
  5
254
  8
DEFAULT
 62
     5
  0
POLYLINE
  5
255
  8
DEFAULT
 62
     5
 66
     1
 10
0.0
 20
0.0
 30
0.0
 70
     1
  0
VERTEX
  5
256
  8
DEFAULT
 62
     5
 10
109.6245806493341
 20
242.406712024604
 30
0.0
 42
0.1807696907208157
  0
VERTEX
  5
257
  8
DEFAULT
 62
     5
 10
110.4239635066707
 20
239.7307859573909
 30
0.0
 42
0.2292871242715682
  0
VERTEX
  5
258
  8
DEFAULT
 62
     5
 10
112.3946424483728
 20
238.8017729994671
 30
0.0
 42
0.2303193461660824
  0
VERTEX
  5
259
  8
DEFAULT
 62
     5
 10
114.3614640600457
 20
239.7307859573909
 30
0.0
 42
0.1794408075869773
  0
VERTEX
  5
25A
  8
DEFAULT
 62
     5
 10
115.155444846865
 20
242.4283172925458
 30
0.0
 42
0.1800932450793929
  0
VERTEX
  5
25B
  8
DEFAULT
 62
     5
 10
114.3614640600458
 20
245.0826373382853
 30
0.0
 42
0.2303192267205781
  0
VERTEX
  5
25C
  8
DEFAULT
 62
     5
 10
112.3946424483728
 20
246.011649542677
 30
0.0
 42
0.2292870050707449
  0
VERTEX
  5
25D
  8
DEFAULT
 62
     5
 10
110.4239635066707
 20
245.0826373382853
 30
0.0
 42
0.1807697890868387
  0
SEQEND
  5
25E
  8
DEFAULT
 62
     5
  0
POLYLINE
  5
25F
  8
DEFAULT
 62
     5
 66
     1
 10
0.0
 20
0.0
 30
0.0
 70
     1
  0
VERTEX
  5
260
  8
DEFAULT
 62
     5
 10
120.4887781801983
 20
248.1844890488498
 30
0.0
  0
VERTEX
  5
261
  8
DEFAULT
 62
     5
 10
123.2542102789637
 20
248.1844890488498
 30
0.0
  0
VERTEX
  5
262
  8
DEFAULT
 62
     5
 10
123.2542102789637
 20
246.6181312360893
 30
0.0
 42
-0.2373869490350181
  0
VERTEX
  5
263
  8
DEFAULT
 62
     5
 10
126.8483466701297
 20
248.4807853451461
 30
0.0
 42
-0.1315120310734668
  0
VERTEX
  5
264
  8
DEFAULT
 62
     5
 10
128.7688712790702
 20
248.0178228531406
 30
0.0
 42
-0.1393853272244931
  0
VERTEX
  5
265
  8
DEFAULT
 62
     5
 10
130.1045194625401
 20
246.6181312360893
 30
0.0
 42
-0.1018343532166032
  0
VERTEX
  5
266
  8
DEFAULT
 62
     5
 10
131.738778792443
 20
248.0178228531406
 30
0.0
 42
-0.123929667957128
  0
VERTEX
  5
267
  8
DEFAULT
 62
     5
 10
133.6106930555783
 20
248.4807853451461
 30
0.0
 42
-0.1355305589141947
  0
VERTEX
  5
268
  8
DEFAULT
 62
     5
 10
135.7542111266872
 20
247.9622672033936
 30
0.0
 42
-0.1623661969580615
  0
VERTEX
  5
269
  8
DEFAULT
 62
     5
 10
137.0643967121862
 20
246.4406624064092
 30
0.0
 42
-0.0915442810314368
  0
VERTEX
  5
26A
  8
DEFAULT
 62
     5
 10
137.3776670690872
 20
244.0394273675505
 30
0.0
  0
VERTEX
  5
26B
  8
DEFAULT
 62
     5
 10
137.3776670690872
 20
236.6289334932943
 30
0.0
  0
VERTEX
  5
26C
  8
DEFAULT
 62
     5
 10
134.3159386740255
 20
236.6289334932943
 30
0.0
  0
VERTEX
  5
26D
  8
DEFAULT
 62
     5
 10
134.3159386740254
 20
243.236959550429
 30
0.0
 42
0.1141470137910713
  0
VERTEX
  5
26E
  8
DEFAULT
 62
     5
 10
134.0042115505489
 20
245.4576377856948
 30
0.0
 42
0.2721000606534024
  0
VERTEX
  5
26F
  8
DEFAULT
 62
     5
 10
132.7125447661429
 20
246.1104149747758
 30
0.0
 42
0.1575639071466241
  0
VERTEX
  5
270
  8
DEFAULT
 62
     5
 10
131.5188710435914
 20
245.7184397132295
 30
0.0
 42
0.1657627374474337
  0
VERTEX
  5
271
  8
DEFAULT
 62
     5
 10
130.7117720191328
 20
244.5702921302303
 30
0.0
 42
0.0723437487255163
  0
VERTEX
  5
272
  8
DEFAULT
 62
     5
 10
130.4640868221736
 20
242.181402958767
 30
0.0
  0
VERTEX
  5
273
  8
DEFAULT
 62
     5
 10
130.4640868221736
 20
236.6289334932943
 30
0.0
  0
VERTEX
  5
274
  8
DEFAULT
 62
     5
 10
127.4023584271119
 20
236.6289334932943
 30
0.0
  0
VERTEX
  5
275
  8
DEFAULT
 62
     5
 10
127.4023584271119
 20
242.963810248435
 30
0.0
 42
0.0609892367975026
  0
VERTEX
  5
276
  8
DEFAULT
 62
     5
 10
127.2426367818125
 20
245.1420510715933
 30
0.0
 42
0.1633931196984869
  0
VERTEX
  5
277
  8
DEFAULT
 62
     5
 10
126.7464955247141
 20
245.8712175616509
 30
0.0
 42
0.156121801429731
  0
VERTEX
  5
278
  8
DEFAULT
 62
     5
 10
125.834457380927
 20
246.1104149747758
 30
0.0
 42
0.155183717546801
  0
VERTEX
  5
279
  8
DEFAULT
 62
     5
 10
124.5852295156924
 20
245.7292423472004
 30
0.0
 42
0.1670025847935548
  0
VERTEX
  5
27A
  8
DEFAULT
 62
     5
 10
123.790476358629
 20
244.6297058635384
 30
0.0
 42
0.0722698594962377
  0
VERTEX
  5
27B
  8
DEFAULT
 62
     5
 10
123.55050657526
 20
242.2462187625925
 30
0.0
  0
VERTEX
  5
27C
  8
DEFAULT
 62
     5
 10
123.55050657526
 20
236.6289334932943
 30
0.0
  0
VERTEX
  5
27D
  8
DEFAULT
 62
     5
 10
120.4887781801983
 20
236.6289334932943
 30
0.0
  0
SEQEND
  5
27E
  8
DEFAULT
 62
     5
  0
POLYLINE
  5
27F
  8
DEFAULT
 62
     5
 66
     1
 10
0.0
 20
0.0
 30
0.0
 70
     1
  0
VERTEX
  5
280
  8
DEFAULT
 62
     5
 10
-128.276210320553
 20
204.652132748908
 30
0.0
  0
VERTEX
  5
281
  8
DEFAULT
 62
     5
 10
-128.276210320553
 20
220.5533673168092
 30
0.0
  0
VERTEX
  5
282
  8
DEFAULT
 62
     5
 10
-123.1373213845684
 20
220.5533673168092
 30
0.0
 42
-0.0512501894894358
  0
VERTEX
  5
283
  8
DEFAULT
 62
     5
 10
-119.3302217949607
 20
220.3157138906407
 30
0.0
 42
-0.1705377598162721
  0
VERTEX
  5
284
  8
DEFAULT
 62
     5
 10
-117.0478149762501
 20
218.7624735619878
 30
0.0
 42
-0.1683452898235636
  0
VERTEX
  5
285
  8
DEFAULT
 62
     5
 10
-116.1280621724049
 20
215.6752818154232
 30
0.0
 42
-0.1225574679041117
  0
VERTEX
  5
286
  8
DEFAULT
 62
     5
 10
-116.6550680979917
 20
213.2184918803494
 30
0.0
 42
-0.1200992377900614
  0
VERTEX
  5
287
  8
DEFAULT
 62
     5
 10
-117.9930303780663
 20
211.6552197809057
 30
0.0
 42
-0.0998133031997707
  0
VERTEX
  5
288
  8
DEFAULT
 62
     5
 10
-119.6434936589256
 20
210.9036764061941
 30
0.0
 42
-0.0458646238618668
  0
VERTEX
  5
289
  8
DEFAULT
 62
     5
 10
-122.9428769872197
 20
210.6768241069327
 30
0.0
  0
VERTEX
  5
28A
  8
DEFAULT
 62
     5
 10
-125.0169510612938
 20
210.6768241069327
 30
0.0
  0
VERTEX
  5
28B
  8
DEFAULT
 62
     5
 10
-125.0169510612938
 20
204.652132748908
 30
0.0
  0
SEQEND
  5
28C
  8
DEFAULT
 62
     5
  0
POLYLINE
  5
28D
  8
DEFAULT
 62
     5
 66
     1
 10
0.0
 20
0.0
 30
0.0
 70
     1
  0
VERTEX
  5
28E
  8
DEFAULT
 62
     5
 10
-125.0169510612938
 20
217.8867006501425
 30
0.0
  0
VERTEX
  5
28F
  8
DEFAULT
 62
     5
 10
-125.0169510612938
 20
213.3434907735993
 30
0.0
  0
VERTEX
  5
290
  8
DEFAULT
 62
     5
 10
-123.2700364449404
 20
213.3434907735994
 30
0.0
 42
0.0782937827236102
  0
VERTEX
  5
291
  8
DEFAULT
 62
     5
 10
-120.7461166094364
 20
213.5950340541195
 30
0.0
 42
0.1546982739582841
  0
VERTEX
  5
292
  8
DEFAULT
 62
     5
 10
-119.748432024722
 20
214.3813001808805
 30
0.0
 42
0.1527391250225985
  0
VERTEX
  5
293
  8
DEFAULT
 62
     5
 10
-119.3873214316641
 20
215.6258983458418
 30
0.0
 42
0.1899564736900163
  0
VERTEX
  5
294
  8
DEFAULT
 62
     5
 10
-119.8942653227335
 20
217.0672572653524
 30
0.0
 42
0.1715374720898507
  0
VERTEX
  5
295
  8
DEFAULT
 62
     5
 10
-121.1774435697733
 20
217.7771340911367
 30
0.0
 42
0.0381286563022379
  0
VERTEX
  5
296
  8
DEFAULT
 62
     5
 10
-123.47528347626
 20
217.8867006501425
 30
0.0
  0
SEQEND
  5
297
  8
DEFAULT
 62
     5
  0
POLYLINE
  5
298
  8
DEFAULT
 62
     5
 66
     1
 10
0.0
 20
0.0
 30
0.0
 70
     1
  0
VERTEX
  5
299
  8
DEFAULT
 62
     5
 10
-111.2885559995654
 20
212.652132748908
 30
0.0
  0
VERTEX
  5
29A
  8
DEFAULT
 62
     5
 10
-114.0539880983308
 20
213.047194477303
 30
0.0
 42
-0.17148331759901
  0
VERTEX
  5
29B
  8
DEFAULT
 62
     5
 10
-112.4745120479308
 20
215.6567630143302
 30
0.0
 42
-0.1608829132837603
  0
VERTEX
  5
29C
  8
DEFAULT
 62
     5
 10
-109.1450364213925
 20
216.5039846007598
 30
0.0
 42
-0.1088364278881
  0
VERTEX
  5
29D
  8
DEFAULT
 62
     5
 10
-106.1573824771709
 20
216.0186452241003
 30
0.0
 42
-0.1580303644335195
  0
VERTEX
  5
29E
  8
DEFAULT
 62
     5
 10
-104.7754380445004
 20
214.7856205562901
 30
0.0
 42
-0.1088017057953499
  0
VERTEX
  5
29F
  8
DEFAULT
 62
     5
 10
-104.3749757526518
 20
212.0410228622863
 30
0.0
  0
VERTEX
  5
2A0
  8
DEFAULT
 62
     5
 10
-104.3749757526518
 20
208.46077557194
 30
0.0
 42
0.0514080219695261
  0
VERTEX
  5
2A1
  8
DEFAULT
 62
     5
 10
-104.2083088034106
 20
206.2069170645173
 30
0.0
 42
0.0692287864232456
  0
VERTEX
  5
2A2
  8
DEFAULT
 62
     5
 10
-103.5848522958617
 20
204.652132748908
 30
0.0
  0
VERTEX
  5
2A3
  8
DEFAULT
 62
     5
 10
-106.6465806909234
 20
204.652132748908
 30
0.0
  0
VERTEX
  5
2A4
  8
DEFAULT
 62
     5
 10
-106.9397905203708
 20
205.5471945714945
 30
0.0
  0
VERTEX
  5
2A5
  8
DEFAULT
 62
     5
 10
-107.0478138459522
 20
205.9036769713431
 30
0.0
 42
-0.0933244186737995
  0
VERTEX
  5
2A6
  8
DEFAULT
 62
     5
 10
-108.719111531573
 20
204.7431827674166
 30
0.0
 42
-0.1040133466926066
  0
VERTEX
  5
2A7
  8
DEFAULT
 62
     5
 10
-110.6188017357519
 20
204.3558364526117
 30
0.0
 42
-0.196543035759656
  0
VERTEX
  5
2A8
  8
DEFAULT
 62
     5
 10
-113.42358628684
 20
205.3242011093261
 30
0.0
 42
-0.2154369487651111
  0
VERTEX
  5
2A9
  8
DEFAULT
 62
     5
 10
-114.4490498267259
 20
207.7725040140975
 30
0.0
 42
-0.1373780248024355
  0
VERTEX
  5
2AA
  8
DEFAULT
 62
     5
 10
-113.9922595148861
 20
209.519417123387
 30
0.0
 42
-0.1473783213971191
  0
VERTEX
  5
2AB
  8
DEFAULT
 62
     5
 10
-112.7121662276312
 20
210.6945712913135
 30
0.0
 42
-0.0634404934847133
  0
VERTEX
  5
2AC
  8
DEFAULT
 62
     5
 10
-110.3379377736998
 20
211.4067629672344
 30
0.0
 42
0.0472009877729064
  0
VERTEX
  5
2AD
  8
DEFAULT
 62
     5
 10
-107.4367041477135
 20
212.1583055884142
 30
0.0
  0
VERTEX
  5
2AE
  8
DEFAULT
 62
     5
 10
-107.4367041477135
 20
212.4684909855302
 30
0.0
 42
0.2070921599656359
  0
VERTEX
  5
2AF
  8
DEFAULT
 62
     5
 10
-107.8464258401086
 20
213.7508983693897
 30
0.0
 42
0.1777887432708035
  0
VERTEX
  5
2B0
  8
DEFAULT
 62
     5
 10
-109.3934939885958
 20
214.1336142303895
 30
0.0
 42
0.1651091138039067
  0
VERTEX
  5
2B1
  8
DEFAULT
 62
     5
 10
-110.5917959043566
 20
213.8049107857123
 30
0.0
 42
0.149158767987761
  0
SEQEND
  5
2B2
  8
DEFAULT
 62
     5
  0
POLYLINE
  5
2B3
  8
DEFAULT
 62
     5
 66
     1
 10
0.0
 20
0.0
 30
0.0
 70
     1
  0
VERTEX
  5
2B4
  8
DEFAULT
 62
     5
 10
-107.4367041477135
 20
210.1829969464388
 30
0.0
  0
VERTEX
  5
2B5
  8
DEFAULT
 62
     5
 10
-109.2191108722326
 20
209.7154047541601
 30
0.0
 42
0.0811165779561217
  0
VERTEX
  5
2B6
  8
DEFAULT
 62
     5
 10
-110.8132461331006
 20
209.1829982651198
 30
0.0
 42
0.2517191883485894
  0
VERTEX
  5
2B7
  8
DEFAULT
 62
     5
 10
-111.3873214316641
 20
208.1058379125798
 30
0.0
 42
0.2041672574556675
  0
VERTEX
  5
2B8
  8
DEFAULT
 62
     5
 10
-110.9289878863999
 20
206.9962689045952
 30
0.0
 42
0.209752133328291
  0
VERTEX
  5
2B9
  8
DEFAULT
 62
     5
 10
-109.7607775153514
 20
206.5286759587845
 30
0.0
 42
0.1670482644845667
  0
VERTEX
  5
2BA
  8
DEFAULT
 62
     5
 10
-108.249974598806
 20
207.0718865888597
 30
0.0
 42
0.1651612454991198
  0
VERTEX
  5
2BB
  8
DEFAULT
 62
     5
 10
-107.5509004069926
 20
208.084232644638
 30
0.0
 42
0.0593667948163665
  0
VERTEX
  5
2BC
  8
DEFAULT
 62
     5
 10
-107.4367041477135
 20
209.5734302932416
 30
0.0
  0
SEQEND
  5
2BD
  8
DEFAULT
 62
     5
  0
POLYLINE
  5
2BE
  8
DEFAULT
 62
     5
 66
     1
 10
0.0
 20
0.0
 30
0.0
 70
     1
  0
VERTEX
  5
2BF
  8
DEFAULT
 62
     5
 10
-101.2144819254913
 20
217.8867006501425
 30
0.0
  0
VERTEX
  5
2C0
  8
DEFAULT
 62
     5
 10
-101.2144819254913
 20
220.5533673168092
 30
0.0
  0
VERTEX
  5
2C1
  8
DEFAULT
 62
     5
 10
-98.15275353042956
 20
220.5533673168092
 30
0.0
  0
VERTEX
  5
2C2
  8
DEFAULT
 62
     5
 10
-98.15275353042956
 20
217.8867006501425
 30
0.0
  0
SEQEND
  5
2C3
  8
DEFAULT
 62
     5
  0
POLYLINE
  5
2C4
  8
DEFAULT
 62
     5
 66
     1
 10
0.0
 20
0.0
 30
0.0
 70
     1
  0
VERTEX
  5
2C5
  8
DEFAULT
 62
     5
 10
-101.2144819254913
 20
204.652132748908
 30
0.0
  0
VERTEX
  5
2C6
  8
DEFAULT
 62
     5
 10
-101.2144819254913
 20
216.2076883044635
 30
0.0
  0
VERTEX
  5
2C7
  8
DEFAULT
 62
     5
 10
-98.15275353042956
 20
216.2076883044635
 30
0.0
  0
VERTEX
  5
2C8
  8
DEFAULT
 62
     5
 10
-98.15275353042956
 20
204.652132748908
 30
0.0
  0
SEQEND
  5
2C9
  8
DEFAULT
 62
     5
  0
POLYLINE
  5
2CA
  8
DEFAULT
 62
     5
 66
     1
 10
0.0
 20
0.0
 30
0.0
 70
     1
  0
VERTEX
  5
2CB
  8
DEFAULT
 62
     5
 10
-84.62188933289869
 20
204.652132748908
 30
0.0
  0
VERTEX
  5
2CC
  8
DEFAULT
 62
     5
 10
-87.68361772796042
 20
204.652132748908
 30
0.0
  0
VERTEX
  5
2CD
  8
DEFAULT
 62
     5
 10
-87.68361772796045
 20
210.5518252136827
 30
0.0
 42
0.0659043403441928
  0
VERTEX
  5
2CE
  8
DEFAULT
 62
     5
 10
-87.87651889188473
 20
212.9746647669513
 30
0.0
 42
0.1600130695765418
  0
VERTEX
  5
2CF
  8
DEFAULT
 62
     5
 10
-88.50306186628251
 20
213.8288309037908
 30
0.0
 42
0.1575149176298449
  0
VERTEX
  5
2D0
  8
DEFAULT
 62
     5
 10
-89.54627183701722
 20
214.1336142303894
 30
0.0
 42
0.1576987046345171
  0
VERTEX
  5
2D1
  8
DEFAULT
 62
     5
 10
-90.9482775506732
 20
213.6984291864915
 30
0.0
 42
0.1684371822617078
  0
VERTEX
  5
2D2
  8
DEFAULT
 62
     5
 10
-91.79935797419586
 20
212.5448802865069
 30
0.0
 42
0.0659809918576525
  0
VERTEX
  5
2D3
  8
DEFAULT
 62
     5
 10
-92.02929674030611
 20
209.888243883567
 30
0.0
  0
VERTEX
  5
2D4
  8
DEFAULT
 62
     5
 10
-92.02929674030611
 20
204.652132748908
 30
0.0
  0
VERTEX
  5
2D5
  8
DEFAULT
 62
     5
 10
-95.09102513536783
 20
204.652132748908
 30
0.0
  0
VERTEX
  5
2D6
  8
DEFAULT
 62
     5
 10
-95.09102513536783
 20
216.2076883044635
 30
0.0
  0
VERTEX
  5
2D7
  8
DEFAULT
 62
     5
 10
-92.22682760450363
 20
216.2076883044635
 30
0.0
  0
VERTEX
  5
2D8
  8
DEFAULT
 62
     5
 10
-92.22682760450363
 20
214.5225045321507
 30
0.0
 42
-0.2486296121988474
  0
VERTEX
  5
2D9
  8
DEFAULT
 62
     5
 10
-88.46139531735521
 20
216.5039846007598
 30
0.0
 42
-0.1053164015607919
  0
VERTEX
  5
2DA
  8
DEFAULT
 62
     5
 10
-86.63346320681585
 20
216.1382443074287
 30
0.0
 42
-0.129219171708882
  0
VERTEX
  5
2DB
  8
DEFAULT
 62
     5
 10
-85.38037650448827
 20
215.2053740194759
 30
0.0
 42
-0.1054932374262086
  0
VERTEX
  5
2DC
  8
DEFAULT
 62
     5
 10
-84.7885555286079
 20
213.9175653186309
 30
0.0
 42
-0.05336413851771
  0
VERTEX
  5
2DD
  8
DEFAULT
 62
     5
 10
-84.62188933289869
 20
211.8542946320597
 30
0.0
  0
SEQEND
  5
2DE
  8
DEFAULT
 62
     5
  0
POLYLINE
  5
2DF
  8
DEFAULT
 62
     5
 66
     1
 10
0.0
 20
0.0
 30
0.0
 70
     1
  0
VERTEX
  5
2E0
  8
DEFAULT
 62
     5
 10
-76.22682760450363
 20
216.2076883044635
 30
0.0
  0
VERTEX
  5
2E1
  8
DEFAULT
 62
     5
 10
-76.22682760450363
 20
213.8373179340932
 30
0.0
  0
VERTEX
  5
2E2
  8
DEFAULT
 62
     5
 10
-78.3009016785777
 20
213.8373179340932
 30
0.0
  0
VERTEX
  5
2E3
  8
DEFAULT
 62
     5
 10
-78.30090167857773
 20
209.065714031928
 30
0.0
 42
0.0340880666975081
  0
VERTEX
  5
2E4
  8
DEFAULT
 62
     5
 10
-78.24225956198183
 20
207.3766699154583
 30
0.0
 42
0.1777629698041048
  0
VERTEX
  5
2E5
  8
DEFAULT
 62
     5
 10
-77.97759879735412
 20
206.980836570351
 30
0.0
 42
0.1671411134724696
  0
VERTEX
  5
2E6
  8
DEFAULT
 62
     5
 10
-77.47374061960159
 20
206.8249722550808
 30
0.0
 42
0.0818670423875064
  0
VERTEX
  5
2E7
  8
DEFAULT
 62
     5
 10
-76.27620956702107
 20
207.1166403581678
 30
0.0
  0
VERTEX
  5
2E8
  8
DEFAULT
 62
     5
 10
-76.02929674030611
 20
204.8002816505881
 30
0.0
 42
-0.100913569495095
  0
VERTEX
  5
2E9
  8
DEFAULT
 62
     5
 10
-78.41201147100792
 20
204.3558364526117
 30
0.0
 42
-0.1023112505794423
  0
VERTEX
  5
2EA
  8
DEFAULT
 62
     5
 10
-79.88191945533822
 20
204.6367011681957
 30
0.0
 42
-0.142732760251355
  0
VERTEX
  5
2EB
  8
DEFAULT
 62
     5
 10
-80.84256794493052
 20
205.3627819449365
 30
0.0
 42
-0.1112474266807758
  0
VERTEX
  5
2EC
  8
DEFAULT
 62
     5
 10
-81.26540636790115
 20
206.5672567943949
 30
0.0
 42
-0.0357944377719298
  0
VERTEX
  5
2ED
  8
DEFAULT
 62
     5
 10
-81.36263007363944
 20
208.744726000841
 30
0.0
  0
VERTEX
  5
2EE
  8
DEFAULT
 62
     5
 10
-81.36263007363944
 20
213.8373179340932
 30
0.0
  0
VERTEX
  5
2EF
  8
DEFAULT
 62
     5
 10
-82.84411155512092
 20
213.8373179340932
 30
0.0
  0
VERTEX
  5
2F0
  8
DEFAULT
 62
     5
 10
-82.84411155512092
 20
216.2076883044635
 30
0.0
  0
VERTEX
  5
2F1
  8
DEFAULT
 62
     5
 10
-81.36263007363944
 20
216.2076883044635
 30
0.0
  0
VERTEX
  5
2F2
  8
DEFAULT
 62
     5
 10
-81.36263007363944
 20
218.3805278106364
 30
0.0
  0
VERTEX
  5
2F3
  8
DEFAULT
 62
     5
 10
-78.3009016785777
 20
220.1583055884142
 30
0.0
  0
VERTEX
  5
2F4
  8
DEFAULT
 62
     5
 10
-78.3009016785777
 20
216.2076883044635
 30
0.0
  0
SEQEND
  5
2F5
  8
DEFAULT
 62
     5
  0
POLYLINE
  5
2F6
  8
DEFAULT
 62
     5
 66
     1
 10
0.0
 20
0.0
 30
0.0
 70
     1
  0
VERTEX
  5
2F7
  8
DEFAULT
 62
     5
 10
-74.15275353042955
 20
217.8867006501425
 30
0.0
  0
VERTEX
  5
2F8
  8
DEFAULT
 62
     5
 10
-74.15275353042955
 20
220.5533673168092
 30
0.0
  0
VERTEX
  5
2F9
  8
DEFAULT
 62
     5
 10
-71.09102513536783
 20
220.5533673168092
 30
0.0
  0
VERTEX
  5
2FA
  8
DEFAULT
 62
     5
 10
-71.09102513536783
 20
217.8867006501425
 30
0.0
  0
SEQEND
  5
2FB
  8
DEFAULT
 62
     5
  0
POLYLINE
  5
2FC
  8
DEFAULT
 62
     5
 66
     1
 10
0.0
 20
0.0
 30
0.0
 70
     1
  0
VERTEX
  5
2FD
  8
DEFAULT
 62
     5
 10
-74.15275353042955
 20
204.652132748908
 30
0.0
  0
VERTEX
  5
2FE
  8
DEFAULT
 62
     5
 10
-74.15275353042955
 20
216.2076883044635
 30
0.0
  0
VERTEX
  5
2FF
  8
DEFAULT
 62
     5
 10
-71.09102513536783
 20
216.2076883044635
 30
0.0
  0
VERTEX
  5
300
  8
DEFAULT
 62
     5
 10
-71.09102513536783
 20
204.652132748908
 30
0.0
  0
SEQEND
  5
301
  8
DEFAULT
 62
     5
  0
POLYLINE
  5
302
  8
DEFAULT
 62
     5
 66
     1
 10
0.0
 20
0.0
 30
0.0
 70
     1
  0
VERTEX
  5
303
  8
DEFAULT
 62
     5
 10
-57.56016093783697
 20
204.652132748908
 30
0.0
  0
VERTEX
  5
304
  8
DEFAULT
 62
     5
 10
-60.62188933289869
 20
204.652132748908
 30
0.0
  0
VERTEX
  5
305
  8
DEFAULT
 62
     5
 10
-60.6218893328987
 20
210.5518252136827
 30
0.0
 42
0.0659043403442029
  0
VERTEX
  5
306
  8
DEFAULT
 62
     5
 10
-60.81479049682297
 20
212.9746647669513
 30
0.0
 42
0.1600130695765488
  0
VERTEX
  5
307
  8
DEFAULT
 62
     5
 10
-61.4413334712208
 20
213.8288309037908
 30
0.0
 42
0.1575149176298576
  0
VERTEX
  5
308
  8
DEFAULT
 62
     5
 10
-62.48454344195549
 20
214.1336142303895
 30
0.0
 42
0.1576987046345065
  0
VERTEX
  5
309
  8
DEFAULT
 62
     5
 10
-63.88654915561147
 20
213.6984291864915
 30
0.0
 42
0.1684371822617244
  0
VERTEX
  5
30A
  8
DEFAULT
 62
     5
 10
-64.73762957913408
 20
212.5448802865069
 30
0.0
 42
0.0659809918576737
  0
VERTEX
  5
30B
  8
DEFAULT
 62
     5
 10
-64.96756834524437
 20
209.888243883567
 30
0.0
  0
VERTEX
  5
30C
  8
DEFAULT
 62
     5
 10
-64.96756834524437
 20
204.652132748908
 30
0.0
  0
VERTEX
  5
30D
  8
DEFAULT
 62
     5
 10
-68.02929674030611
 20
204.652132748908
 30
0.0
  0
VERTEX
  5
30E
  8
DEFAULT
 62
     5
 10
-68.02929674030611
 20
216.2076883044635
 30
0.0
  0
VERTEX
  5
30F
  8
DEFAULT
 62
     5
 10
-65.1650992094419
 20
216.2076883044635
 30
0.0
  0
VERTEX
  5
310
  8
DEFAULT
 62
     5
 10
-65.1650992094419
 20
214.5225045321508
 30
0.0
 42
-0.2486296121988454
  0
VERTEX
  5
311
  8
DEFAULT
 62
     5
 10
-61.39966692229349
 20
216.5039846007598
 30
0.0
 42
-0.1053164015607846
  0
VERTEX
  5
312
  8
DEFAULT
 62
     5
 10
-59.57173481175411
 20
216.1382443074287
 30
0.0
 42
-0.1292191717088917
  0
VERTEX
  5
313
  8
DEFAULT
 62
     5
 10
-58.31864810942654
 20
215.2053740194759
 30
0.0
 42
-0.1054932374261902
  0
VERTEX
  5
314
  8
DEFAULT
 62
     5
 10
-57.72682713354613
 20
213.9175653186309
 30
0.0
 42
-0.0533641385177098
  0
VERTEX
  5
315
  8
DEFAULT
 62
     5
 10
-57.56016093783697
 20
211.8542946320597
 30
0.0
  0
SEQEND
  5
316
  8
DEFAULT
 62
     5
  0
POLYLINE
  5
317
  8
DEFAULT
 62
     5
 66
     1
 10
0.0
 20
0.0
 30
0.0
 70
     1
  0
VERTEX
  5
318
  8
DEFAULT
 62
     5
 10
-54.79472883907154
 20
203.8620092921178
 30
0.0
  0
VERTEX
  5
319
  8
DEFAULT
 62
     5
 10
-51.23917328351596
 20
203.4669475637228
 30
0.0
 42
0.1963004846498739
  0
VERTEX
  5
31A
  8
DEFAULT
 62
     5
 10
-50.85182621517912
 20
202.6135530435955
 30
0.0
 42
0.1652544786658897
  0
VERTEX
  5
31B
  8
DEFAULT
 62
     5
 10
-49.5354692030463
 20
202.2817623785376
 30
0.0
 42
0.1335897911306723
  0
VERTEX
  5
31C
  8
DEFAULT
 62
     5
 10
-47.81170308805921
 20
202.6351583115373
 30
0.0
 42
0.1695942548853683
  0
VERTEX
  5
31D
  8
DEFAULT
 62
     5
 10
-47.22682666258872
 20
203.3975035666879
 30
0.0
 42
0.0745029496056828
  0
VERTEX
  5
31E
  8
DEFAULT
 62
     5
 10
-47.09102513536783
 20
204.7817628494951
 30
0.0
  0
VERTEX
  5
31F
  8
DEFAULT
 62
     5
 10
-47.09102513536783
 20
206.4437996275055
 30
0.0
 42
-0.2481650325452927
  0
VERTEX
  5
320
  8
DEFAULT
 62
     5
 10
-50.50614795636537
 20
204.652132748908
 30
0.0
 42
-0.2649646906886611
  0
VERTEX
  5
321
  8
DEFAULT
 62
     5
 10
-54.13886367607785
 20
206.6274413908833
 30
0.0
 42
-0.1513235680991182
  0
VERTEX
  5
322
  8
DEFAULT
 62
     5
 10
-55.18979056746664
 20
210.5132443780723
 30
0.0
 42
-0.1864728947506845
  0
VERTEX
  5
323
  8
DEFAULT
 62
     5
 10
-53.81247508153739
 20
214.9654049896388
 30
0.0
 42
-0.223476994237011
  0
VERTEX
  5
324
  8
DEFAULT
 62
     5
 10
-50.3873204897492
 20
216.5039846007598
 30
0.0
 42
-0.2545979461410268
  0
VERTEX
  5
325
  8
DEFAULT
 62
     5
 10
-46.8934942711703
 20
214.5965782294589
 30
0.0
  0
VERTEX
  5
326
  8
DEFAULT
 62
     5
 10
-46.8934942711703
 20
216.2076883044635
 30
0.0
  0
VERTEX
  5
327
  8
DEFAULT
 62
     5
 10
-44.02929674030611
 20
216.2076883044635
 30
0.0
  0
VERTEX
  5
328
  8
DEFAULT
 62
     5
 10
-44.0292967403061
 20
205.8049115392443
 30
0.0
 42
-0.073927483070565
  0
VERTEX
  5
329
  8
DEFAULT
 62
     5
 10
-44.36340150196865
 20
202.7385534439093
 30
0.0
 42
-0.1231238869311925
  0
VERTEX
  5
32A
  8
DEFAULT
 62
     5
 10
-45.30090149019473
 20
201.1444174295093
 30
0.0
 42
-0.1133489208680357
  0
VERTEX
  5
32B
  8
DEFAULT
 62
     5
 10
-46.91201231873136
 20
200.2385529729519
 30
0.0
 42
-0.0770474087797258
  0
VERTEX
  5
32C
  8
DEFAULT
 62
     5
 10
-49.45985227231378
 20
199.9113920081672
 30
0.0
 42
-0.1675355138834407
  0
VERTEX
  5
32D
  8
DEFAULT
 62
     5
 10
-53.58793763241256
 20
200.9237380639456
 30
0.0
 42
-0.2345118942080202
  0
VERTEX
  5
32E
  8
DEFAULT
 62
     5
 10
-54.80552996597858
 20
203.490096065089
 30
0.0
  0
SEQEND
  5
32F
  8
DEFAULT
 62
     5
  0
POLYLINE
  5
330
  8
DEFAULT
 62
     5
 66
     1
 10
0.0
 20
0.0
 30
0.0
 70
     1
  0
VERTEX
  5
331
  8
DEFAULT
 62
     5
 10
-52.12806217240487
 20
210.622812444142
 30
0.0
 42
0.1671831675161583
  0
VERTEX
  5
332
  8
DEFAULT
 62
     5
 10
-51.42898798059142
 20
207.8890158770452
 30
0.0
 42
0.2386895617245666
  0
VERTEX
  5
333
  8
DEFAULT
 62
     5
 10
-49.70522186560434
 20
207.0225031192784
 30
0.0
 42
0.2306067024897719
  0
VERTEX
  5
334
  8
DEFAULT
 62
     5
 10
-47.84874069024519
 20
207.9113920081672
 30
0.0
 42
0.1781814747799662
  0
VERTEX
  5
335
  8
DEFAULT
 62
     5
 10
-47.09102513536786
 20
210.545652279985
 30
0.0
 42
0.1711933697273437
  0
VERTEX
  5
336
  8
DEFAULT
 62
     5
 10
-47.81633354186443
 20
213.250126658486
 30
0.0
 42
0.2363895789849513
  0
VERTEX
  5
337
  8
DEFAULT
 62
     5
 10
-49.65275343623807
 20
214.1336142303894
 30
0.0
 42
0.2389909455160102
  0
VERTEX
  5
338
  8
DEFAULT
 62
     5
 10
-51.4289879805914
 20
213.2671022261546
 30
0.0
 42
0.1688350197989231
  0
SEQEND
  5
339
  8
DEFAULT
 62
     5
  0
POLYLINE
  5
33A
  8
DEFAULT
 62
     5
 66
     1
 10
0.0
 20
0.0
 30
0.0
 70
     1
  0
VERTEX
  5
33B
  8
DEFAULT
 62
     5
 10
-34.84411155512092
 20
216.2076883044635
 30
0.0
  0
VERTEX
  5
33C
  8
DEFAULT
 62
     5
 10
-31.97991402425671
 20
216.2076883044635
 30
0.0
  0
VERTEX
  5
33D
  8
DEFAULT
 62
     5
 10
-31.97991402425671
 20
214.5225045321507
 30
0.0
 42
-0.1189653659007652
  0
VERTEX
  5
33E
  8
DEFAULT
 62
     5
 10
-30.50074663937993
 20
215.9453431435044
 30
0.0
 42
-0.1382105598910187
  0
VERTEX
  5
33F
  8
DEFAULT
 62
     5
 10
-28.43207312875936
 20
216.5039846007598
 30
0.0
 42
-0.2273648758850214
  0
VERTEX
  5
340
  8
DEFAULT
 62
     5
 10
-25.06633377734312
 20
214.9167938903016
 30
0.0
 42
-0.1838682188936061
  0
VERTEX
  5
341
  8
DEFAULT
 62
     5
 10
-23.68361772796041
 20
210.4962688104037
 30
0.0
 42
-0.182365664530017
  0
VERTEX
  5
342
  8
DEFAULT
 62
     5
 10
-25.07790727449433
 20
205.9700345015291
 30
0.0
 42
-0.2285594541574859
  0
VERTEX
  5
343
  8
DEFAULT
 62
     5
 10
-28.45676486355002
 20
204.3558364526117
 30
0.0
 42
-0.1163198006807685
  0
VERTEX
  5
344
  8
DEFAULT
 62
     5
 10
-30.16818511114178
 20
204.7339233668701
 30
0.0
 42
-0.0904152380777544
  0
VERTEX
  5
345
  8
DEFAULT
 62
     5
 10
-31.7823831600592
 20
206.0302206050813
 30
0.0
  0
VERTEX
  5
346
  8
DEFAULT
 62
     5
 10
-31.7823831600592
 20
200.2076883044635
 30
0.0
  0
VERTEX
  5
347
  8
DEFAULT
 62
     5
 10
-34.84411155512092
 20
200.2076883044635
 30
0.0
  0
SEQEND
  5
348
  8
DEFAULT
 62
     5
  0
POLYLINE
  5
349
  8
DEFAULT
 62
     5
 66
     1
 10
0.0
 20
0.0
 30
0.0
 70
     1
  0
VERTEX
  5
34A
  8
DEFAULT
 62
     5
 10
-31.7823831600592
 20
210.6243556775664
 30
0.0
 42
0.1662127852120644
  0
VERTEX
  5
34B
  8
DEFAULT
 62
     5
 10
-31.02466685164986
 20
207.6783675287401
 30
0.0
 42
0.2404461653497474
  0
VERTEX
  5
34C
  8
DEFAULT
 62
     5
 10
-29.17898755672971
 20
206.726206822982
 30
0.0
 42
0.2413239634427228
  0
VERTEX
  5
34D
  8
DEFAULT
 62
     5
 10
-27.43901824431821
 20
207.6004357478709
 30
0.0
 42
0.1627449374921764
  0
VERTEX
  5
34E
  8
DEFAULT
 62
     5
 10
-26.74534612302216
 20
210.4684921158281
 30
0.0
 42
0.1661976731382077
  0
VERTEX
  5
34F
  8
DEFAULT
 62
     5
 10
-27.46062351226003
 20
213.231608610925
 30
0.0
 42
0.241237766796062
  0
VERTEX
  5
350
  8
DEFAULT
 62
     5
 10
-29.23145598609598
 20
214.1336142303894
 30
0.0
 42
0.2367422129321917
  0
VERTEX
  5
351
  8
DEFAULT
 62
     5
 10
-31.05707400003065
 20
213.2478118083494
 30
0.0
 42
0.1723447809989032
  0
SEQEND
  5
352
  8
DEFAULT
 62
     5
  0
POLYLINE
  5
353
  8
DEFAULT
 62
     5
 66
     1
 10
0.0
 20
0.0
 30
0.0
 70
     1
  0
VERTEX
  5
354
  8
DEFAULT
 62
     5
 10
-19.04164241931845
 20
212.652132748908
 30
0.0
  0
VERTEX
  5
355
  8
DEFAULT
 62
     5
 10
-21.80707451808389
 20
213.047194477303
 30
0.0
 42
-0.1714833175990152
  0
VERTEX
  5
356
  8
DEFAULT
 62
     5
 10
-20.2275984676839
 20
215.6567630143302
 30
0.0
 42
-0.1608829132837569
  0
VERTEX
  5
357
  8
DEFAULT
 62
     5
 10
-16.89812284114564
 20
216.5039846007598
 30
0.0
 42
-0.1088364278881009
  0
VERTEX
  5
358
  8
DEFAULT
 62
     5
 10
-13.91046889692396
 20
216.0186452241003
 30
0.0
 42
-0.1580303644335254
  0
VERTEX
  5
359
  8
DEFAULT
 62
     5
 10
-12.52852446425345
 20
214.7856205562901
 30
0.0
 42
-0.1088017057953461
  0
VERTEX
  5
35A
  8
DEFAULT
 62
     5
 10
-12.12806217240488
 20
212.0410228622863
 30
0.0
  0
VERTEX
  5
35B
  8
DEFAULT
 62
     5
 10
-12.12806217240485
 20
208.46077557194
 30
0.0
 42
0.051408021969532
  0
VERTEX
  5
35C
  8
DEFAULT
 62
     5
 10
-11.96139522316374
 20
206.2069170645173
 30
0.0
 42
0.0692287864232277
  0
VERTEX
  5
35D
  8
DEFAULT
 62
     5
 10
-11.33793871561475
 20
204.652132748908
 30
0.0
  0
VERTEX
  5
35E
  8
DEFAULT
 62
     5
 10
-14.39966711067648
 20
204.652132748908
 30
0.0
  0
VERTEX
  5
35F
  8
DEFAULT
 62
     5
 10
-14.69287694012394
 20
205.5471945714945
 30
0.0
  0
VERTEX
  5
360
  8
DEFAULT
 62
     5
 10
-14.80090026570532
 20
205.9036769713431
 30
0.0
 42
-0.0933244186738046
  0
VERTEX
  5
361
  8
DEFAULT
 62
     5
 10
-16.47219795132614
 20
204.7431827674166
 30
0.0
 42
-0.104013346692607
  0
VERTEX
  5
362
  8
DEFAULT
 62
     5
 10
-18.37188815550503
 20
204.3558364526117
 30
0.0
 42
-0.1965430357596505
  0
VERTEX
  5
363
  8
DEFAULT
 62
     5
 10
-21.1766727065931
 20
205.3242011093261
 30
0.0
 42
-0.2154369487651035
  0
VERTEX
  5
364
  8
DEFAULT
 62
     5
 10
-22.20213624647895
 20
207.7725040140975
 30
0.0
 42
-0.1373780248024357
  0
VERTEX
  5
365
  8
DEFAULT
 62
     5
 10
-21.74534593463915
 20
209.519417123387
 30
0.0
 42
-0.1473783213971143
  0
VERTEX
  5
366
  8
DEFAULT
 62
     5
 10
-20.46525264738431
 20
210.6945712913135
 30
0.0
 42
-0.06344049348471
  0
VERTEX
  5
367
  8
DEFAULT
 62
     5
 10
-18.0910241934529
 20
211.4067629672344
 30
0.0
 42
0.0472009877729064
  0
VERTEX
  5
368
  8
DEFAULT
 62
     5
 10
-15.1897905674666
 20
212.1583055884142
 30
0.0
  0
VERTEX
  5
369
  8
DEFAULT
 62
     5
 10
-15.18979056746661
 20
212.4684909855302
 30
0.0
 42
0.2070921599656436
  0
VERTEX
  5
36A
  8
DEFAULT
 62
     5
 10
-15.59951225986166
 20
213.7508983693897
 30
0.0
 42
0.1777887432707898
  0
VERTEX
  5
36B
  8
DEFAULT
 62
     5
 10
-17.14658040834891
 20
214.1336142303894
 30
0.0
 42
0.1651091138039039
  0
VERTEX
  5
36C
  8
DEFAULT
 62
     5
 10
-18.34488232410969
 20
213.8049107857124
 30
0.0
 42
0.149158767987766
  0
SEQEND
  5
36D
  8
DEFAULT
 62
     5
  0
POLYLINE
  5
36E
  8
DEFAULT
 62
     5
 66
     1
 10
0.0
 20
0.0
 30
0.0
 70
     1
  0
VERTEX
  5
36F
  8
DEFAULT
 62
     5
 10
-15.1897905674666
 20
210.1829969464388
 30
0.0
  0
VERTEX
  5
370
  8
DEFAULT
 62
     5
 10
-16.97219729198568
 20
209.7154047541601
 30
0.0
 42
0.0811165779561181
  0
VERTEX
  5
371
  8
DEFAULT
 62
     5
 10
-18.56633255285373
 20
209.1829982651197
 30
0.0
 42
0.2517191883486197
  0
VERTEX
  5
372
  8
DEFAULT
 62
     5
 10
-19.1404078514172
 20
208.1058379125798
 30
0.0
 42
0.2041672574556707
  0
VERTEX
  5
373
  8
DEFAULT
 62
     5
 10
-18.68207430615302
 20
206.9962689045952
 30
0.0
 42
0.2097521333283022
  0
VERTEX
  5
374
  8
DEFAULT
 62
     5
 10
-17.51386393510447
 20
206.5286759587845
 30
0.0
 42
0.1670482644845732
  0
VERTEX
  5
375
  8
DEFAULT
 62
     5
 10
-16.00306101855908
 20
207.0718865888597
 30
0.0
 42
0.1651612454991217
  0
VERTEX
  5
376
  8
DEFAULT
 62
     5
 10
-15.30398682674565
 20
208.084232644638
 30
0.0
 42
0.0593667948163744
  0
VERTEX
  5
377
  8
DEFAULT
 62
     5
 10
-15.1897905674666
 20
209.5734302932416
 30
0.0
  0
SEQEND
  5
378
  8
DEFAULT
 62
     5
  0
POLYLINE
  5
379
  8
DEFAULT
 62
     5
 66
     1
 10
0.0
 20
0.0
 30
0.0
 70
     1
  0
VERTEX
  5
37A
  8
DEFAULT
 62
     5
 10
-8.967568345244374
 20
204.652132748908
 30
0.0
  0
VERTEX
  5
37B
  8
DEFAULT
 62
     5
 10
-8.967568345244374
 20
220.5533673168092
 30
0.0
  0
VERTEX
  5
37C
  8
DEFAULT
 62
     5
 10
-5.905839950182653
 20
220.5533673168092
 30
0.0
  0
VERTEX
  5
37D
  8
DEFAULT
 62
     5
 10
-5.905839950182653
 20
204.652132748908
 30
0.0
  0
SEQEND
  5
37E
  8
DEFAULT
 62
     5
  0
POLYLINE
  5
37F
  8
DEFAULT
 62
     5
 66
     1
 10
0.0
 20
0.0
 30
0.0
 70
     1
  0
VERTEX
  5
380
  8
DEFAULT
 62
     5
 10
3.871937827595119
 20
208.3064537365623
 30
0.0
  0
VERTEX
  5
381
  8
DEFAULT
 62
     5
 10
6.93366622265685
 20
207.9113920081672
 30
0.0
 42
-0.1601948643917399
  0
VERTEX
  5
382
  8
DEFAULT
 62
     5
 10
5.072555347024465
 20
205.264787376018
 30
0.0
 42
-0.159020940581456
  0
VERTEX
  5
383
  8
DEFAULT
 62
     5
 10
1.888914525561616
 20
204.3558364526117
 30
0.0
 42
-0.2510606897924127
  0
VERTEX
  5
384
  8
DEFAULT
 62
     5
 10
-2.586394587371152
 20
206.3373180282846
 30
0.0
 42
-0.160323168959829
  0
VERTEX
  5
385
  8
DEFAULT
 62
     5
 10
-3.733000444009826
 20
210.3419484820898
 30
0.0
 42
-0.1928988919450628
  0
VERTEX
  5
386
  8
DEFAULT
 62
     5
 10
-2.221425910752199
 20
214.8681827909645
 30
0.0
 42
-0.218695711049941
  0
VERTEX
  5
387
  8
DEFAULT
 62
     5
 10
1.600332889323525
 20
216.5039846007598
 30
0.0
 42
-0.2248762650829857
  0
VERTEX
  5
388
  8
DEFAULT
 62
     5
 10
5.696012608105395
 20
214.8025961239587
 30
0.0
  0
VERTEX
  5
389
  8
DEFAULT
 62
     5
 10
5.788234484121277
 20
214.6944922868217
 30
0.0
  0
VERTEX
  5
38A
  8
DEFAULT
 62
     5
 10
5.877400078778773
 20
214.5828544396409
 30
0.0
  0
VERTEX
  5
38B
  8
DEFAULT
 62
     5
 10
5.963509392077884
 20
214.4676825824162
 30
0.0
  0
VERTEX
  5
38C
  8
DEFAULT
 62
     5
 10
6.046562424018609
 20
214.3489767151478
 30
0.0
  0
VERTEX
  5
38D
  8
DEFAULT
 62
     5
 10
6.126559174600949
 20
214.2267368378356
 30
0.0
  0
VERTEX
  5
38E
  8
DEFAULT
 62
     5
 10
6.203499643824903
 20
214.1009629504795
 30
0.0
  0
VERTEX
  5
38F
  8
DEFAULT
 62
     5
 10
6.277383831690472
 20
213.9716550530797
 30
0.0
  0
VERTEX
  5
390
  8
DEFAULT
 62
     5
 10
6.348211738197655
 20
213.838813145636
 30
0.0
  0
VERTEX
  5
391
  8
DEFAULT
 62
     5
 10
6.415983363346452
 20
213.7024372281485
 30
0.0
  0
VERTEX
  5
392
  8
DEFAULT
 62
     5
 10
6.480698707136865
 20
213.5625273006173
 30
0.0
  0
VERTEX
  5
393
  8
DEFAULT
 62
     5
 10
6.542357769568891
 20
213.4190833630422
 30
0.0
  0
VERTEX
  5
394
  8
DEFAULT
 62
     5
 10
6.600960550642532
 20
213.2721054154233
 30
0.0
  0
VERTEX
  5
395
  8
DEFAULT
 62
     5
 10
6.656507050357788
 20
213.1215934577606
 30
0.0
  0
VERTEX
  5
396
  8
DEFAULT
 62
     5
 10
6.708997268714657
 20
212.9675474900541
 30
0.0
  0
VERTEX
  5
397
  8
DEFAULT
 62
     5
 10
6.758431205713141
 20
212.8099675123038
 30
0.0
  0
VERTEX
  5
398
  8
DEFAULT
 62
     5
 10
6.80480886135324
 20
212.6488535245097
 30
0.0
  0
VERTEX
  5
399
  8
DEFAULT
 62
     5
 10
6.848130235634953
 20
212.4842055266718
 30
0.0
  0
VERTEX
  5
39A
  8
DEFAULT
 62
     5
 10
6.88839532855828
 20
212.3160235187901
 30
0.0
  0
VERTEX
  5
39B
  8
DEFAULT
 62
     5
 10
6.925604140123221
 20
212.1443075008645
 30
0.0
  0
VERTEX
  5
39C
  8
DEFAULT
 62
     5
 10
6.959756670329779
 20
211.9690574728952
 30
0.0
  0
VERTEX
  5
39D
  8
DEFAULT
 62
     5
 10
6.99085291917795
 20
211.7902734348821
 30
0.0
  0
VERTEX
  5
39E
  8
DEFAULT
 62
     5
 10
7.018892886667736
 20
211.6079553868251
 30
0.0
  0
VERTEX
  5
39F
  8
DEFAULT
 62
     5
 10
7.043876572799135
 20
211.4221033287243
 30
0.0
  0
VERTEX
  5
3A0
  8
DEFAULT
 62
     5
 10
7.06580397757215
 20
211.2327172605798
 30
0.0
  0
VERTEX
  5
3A1
  8
DEFAULT
 62
     5
 10
7.100489943043023
 20
210.8433430941593
 30
0.0
  0
VERTEX
  5
3A2
  8
DEFAULT
 62
     5
 10
7.122950783080352
 20
210.4398328875635
 30
0.0
  0
VERTEX
  5
3A3
  8
DEFAULT
 62
     5
 10
7.133186497684139
 20
210.0221866407925
 30
0.0
  0
VERTEX
  5
3A4
  8
DEFAULT
 62
     5
 10
7.131197086854385
 20
209.5904043538463
 30
0.0
  0
VERTEX
  5
3A5
  8
DEFAULT
 62
     5
 10
-0.6712720489480375
 20
209.5904043538463
 30
0.0
 42
0.1907233177561108
  0
VERTEX
  5
3A6
  8
DEFAULT
 62
     5
 10
0.084130162856576
 20
207.4800650478303
 30
0.0
 42
0.2135192120775314
  0
VERTEX
  5
3A7
  8
DEFAULT
 62
     5
 10
1.884284825288389
 20
206.726206822982
 30
0.0
 42
0.1657236937100751
  0
VERTEX
  5
3A8
  8
DEFAULT
 62
     5
 10
3.116537122854372
 20
207.1004356536794
 30
0.0
 42
0.1589948514629466
  0
SEQEND
  5
3A9
  8
DEFAULT
 62
     5
  0
POLYLINE
  5
3AA
  8
DEFAULT
 62
     5
 66
     1
 10
0.0
 20
0.0
 30
0.0
 70
     1
  0
VERTEX
  5
3AB
  8
DEFAULT
 62
     5
 10
4.069468691792665
 20
211.4669475637228
 30
0.0
 42
0.1931771868552508
  0
VERTEX
  5
3AC
  8
DEFAULT
 62
     5
 10
3.366537169950115
 20
213.4538304563812
 30
0.0
 42
0.2094545272841142
  0
VERTEX
  5
3AD
  8
DEFAULT
 62
     5
 10
1.737679157032701
 20
214.1336142303894
 30
0.0
 42
0.2175151257022407
  0
VERTEX
  5
3AE
  8
DEFAULT
 62
     5
 10
0.0416912436850894
 20
213.4160227445469
 30
0.0
 42
0.1974850402976649
  0
VERTEX
  5
3AF
  8
DEFAULT
 62
     5
 10
-0.6172588790935181
 20
211.4669475637228
 30
0.0
  0
SEQEND
  5
3B0
  8
DEFAULT
 62
     5
  0
POLYLINE
  5
3B1
  8
DEFAULT
 62
     5
 66
     1
 10
0.0
 20
0.0
 30
0.0
 70
     1
  0
VERTEX
  5
3B2
  8
DEFAULT
 62
     5
 10
14.83490079055808
 20
216.2076883044635
 30
0.0
  0
VERTEX
  5
3B3
  8
DEFAULT
 62
     5
 10
14.83490079055808
 20
213.8373179340932
 30
0.0
  0
VERTEX
  5
3B4
  8
DEFAULT
 62
     5
 10
12.760826716484
 20
213.8373179340932
 30
0.0
  0
VERTEX
  5
3B5
  8
DEFAULT
 62
     5
 10
12.76082671648399
 20
209.065714031928
 30
0.0
 42
0.0340880666975234
  0
VERTEX
  5
3B6
  8
DEFAULT
 62
     5
 10
12.81946883307989
 20
207.3766699154583
 30
0.0
 42
0.1777629698040986
  0
VERTEX
  5
3B7
  8
DEFAULT
 62
     5
 10
13.08412959770761
 20
206.980836570351
 30
0.0
 42
0.1671411134724851
  0
VERTEX
  5
3B8
  8
DEFAULT
 62
     5
 10
13.58798777546015
 20
206.8249722550808
 30
0.0
 42
0.0818670423875048
  0
VERTEX
  5
3B9
  8
DEFAULT
 62
     5
 10
14.78551882804065
 20
207.1166403581678
 30
0.0
  0
VERTEX
  5
3BA
  8
DEFAULT
 62
     5
 10
15.03243165475563
 20
204.8002816505881
 30
0.0
 42
-0.100913569495102
  0
VERTEX
  5
3BB
  8
DEFAULT
 62
     5
 10
12.64971692405381
 20
204.3558364526116
 30
0.0
 42
-0.1023112505794282
  0
VERTEX
  5
3BC
  8
DEFAULT
 62
     5
 10
11.17980893972352
 20
204.6367011681957
 30
0.0
 42
-0.142732760251366
  0
VERTEX
  5
3BD
  8
DEFAULT
 62
     5
 10
10.21916045013119
 20
205.3627819449365
 30
0.0
 42
-0.1112474266807761
  0
VERTEX
  5
3BE
  8
DEFAULT
 62
     5
 10
9.796322027160528
 20
206.5672567943949
 30
0.0
 42
-0.0357944377719375
  0
VERTEX
  5
3BF
  8
DEFAULT
 62
     5
 10
9.699098321422282
 20
208.744726000841
 30
0.0
  0
VERTEX
  5
3C0
  8
DEFAULT
 62
     5
 10
9.699098321422284
 20
213.8373179340932
 30
0.0
  0
VERTEX
  5
3C1
  8
DEFAULT
 62
     5
 10
8.217616839940817
 20
213.8373179340932
 30
0.0
  0
VERTEX
  5
3C2
  8
DEFAULT
 62
     5
 10
8.217616839940817
 20
216.2076883044635
 30
0.0
  0
VERTEX
  5
3C3
  8
DEFAULT
 62
     5
 10
9.699098321422284
 20
216.2076883044635
 30
0.0
  0
VERTEX
  5
3C4
  8
DEFAULT
 62
     5
 10
9.699098321422284
 20
218.3805278106364
 30
0.0
  0
VERTEX
  5
3C5
  8
DEFAULT
 62
     5
 10
12.760826716484
 20
220.1583055884142
 30
0.0
  0
VERTEX
  5
3C6
  8
DEFAULT
 62
     5
 10
12.760826716484
 20
216.2076883044635
 30
0.0
  0
SEQEND
  5
3C7
  8
DEFAULT
 62
     5
  0
POLYLINE
  5
3C8
  8
DEFAULT
 62
     5
 66
     1
 10
0.0
 20
0.0
 30
0.0
 70
     1
  0
VERTEX
  5
3C9
  8
DEFAULT
 62
     5
 10
22.2423081979655
 20
216.2076883044635
 30
0.0
  0
VERTEX
  5
3CA
  8
DEFAULT
 62
     5
 10
22.2423081979655
 20
213.8373179340932
 30
0.0
  0
VERTEX
  5
3CB
  8
DEFAULT
 62
     5
 10
20.16823412389142
 20
213.8373179340932
 30
0.0
  0
VERTEX
  5
3CC
  8
DEFAULT
 62
     5
 10
20.16823412389143
 20
209.065714031928
 30
0.0
 42
0.0340880666975072
  0
VERTEX
  5
3CD
  8
DEFAULT
 62
     5
 10
20.22687624048728
 20
207.3766699154583
 30
0.0
 42
0.1777629698040628
  0
VERTEX
  5
3CE
  8
DEFAULT
 62
     5
 10
20.491537005115
 20
206.980836570351
 30
0.0
 42
0.1671411134724626
  0
VERTEX
  5
3CF
  8
DEFAULT
 62
     5
 10
20.99539518286754
 20
206.8249722550808
 30
0.0
 42
0.0818670423875053
  0
VERTEX
  5
3D0
  8
DEFAULT
 62
     5
 10
22.19292623544807
 20
207.1166403581678
 30
0.0
  0
VERTEX
  5
3D1
  8
DEFAULT
 62
     5
 10
22.43983906216302
 20
204.8002816505881
 30
0.0
 42
-0.1009135694950949
  0
VERTEX
  5
3D2
  8
DEFAULT
 62
     5
 10
20.05712433146122
 20
204.3558364526117
 30
0.0
 42
-0.1023112505794349
  0
VERTEX
  5
3D3
  8
DEFAULT
 62
     5
 10
18.58721634713091
 20
204.6367011681957
 30
0.0
 42
-0.1427327602513693
  0
VERTEX
  5
3D4
  8
DEFAULT
 62
     5
 10
17.6265678575386
 20
205.3627819449365
 30
0.0
 42
-0.111247426680763
  0
VERTEX
  5
3D5
  8
DEFAULT
 62
     5
 10
17.20372943456795
 20
206.5672567943949
 30
0.0
 42
-0.0357944377719257
  0
VERTEX
  5
3D6
  8
DEFAULT
 62
     5
 10
17.1065057288297
 20
208.744726000841
 30
0.0
  0
VERTEX
  5
3D7
  8
DEFAULT
 62
     5
 10
17.1065057288297
 20
213.8373179340932
 30
0.0
  0
VERTEX
  5
3D8
  8
DEFAULT
 62
     5
 10
15.62502424734821
 20
213.8373179340932
 30
0.0
  0
VERTEX
  5
3D9
  8
DEFAULT
 62
     5
 10
15.62502424734821
 20
216.2076883044635
 30
0.0
  0
VERTEX
  5
3DA
  8
DEFAULT
 62
     5
 10
17.1065057288297
 20
216.2076883044635
 30
0.0
  0
VERTEX
  5
3DB
  8
DEFAULT
 62
     5
 10
17.1065057288297
 20
218.3805278106364
 30
0.0
  0
VERTEX
  5
3DC
  8
DEFAULT
 62
     5
 10
20.16823412389142
 20
220.1583055884142
 30
0.0
  0
VERTEX
  5
3DD
  8
DEFAULT
 62
     5
 10
20.16823412389142
 20
216.2076883044635
 30
0.0
  0
SEQEND
  5
3DE
  8
DEFAULT
 62
     5
  0
POLYLINE
  5
3DF
  8
DEFAULT
 62
     5
 66
     1
 10
0.0
 20
0.0
 30
0.0
 70
     1
  0
VERTEX
  5
3E0
  8
DEFAULT
 62
     5
 10
31.03243165475563
 20
208.3064537365623
 30
0.0
  0
VERTEX
  5
3E1
  8
DEFAULT
 62
     5
 10
34.09416004981735
 20
207.9113920081672
 30
0.0
 42
-0.1601948643917478
  0
VERTEX
  5
3E2
  8
DEFAULT
 62
     5
 10
32.23304917418498
 20
205.264787376018
 30
0.0
 42
-0.1590209405814546
  0
VERTEX
  5
3E3
  8
DEFAULT
 62
     5
 10
29.04940835272212
 20
204.3558364526117
 30
0.0
 42
-0.2510606897924123
  0
VERTEX
  5
3E4
  8
DEFAULT
 62
     5
 10
24.57409923978936
 20
206.3373180282846
 30
0.0
 42
-0.1603231689598322
  0
VERTEX
  5
3E5
  8
DEFAULT
 62
     5
 10
23.42749338315068
 20
210.3419484820898
 30
0.0
 42
-0.1928988919450592
  0
VERTEX
  5
3E6
  8
DEFAULT
 62
     5
 10
24.93906791640827
 20
214.8681827909645
 30
0.0
 42
-0.2186957110499428
  0
VERTEX
  5
3E7
  8
DEFAULT
 62
     5
 10
28.760826716484
 20
216.5039846007598
 30
0.0
 42
-0.2248762650829857
  0
VERTEX
  5
3E8
  8
DEFAULT
 62
     5
 10
32.8565064352659
 20
214.8025961239588
 30
0.0
  0
VERTEX
  5
3E9
  8
DEFAULT
 62
     5
 10
32.94872831221743
 20
214.6944923375019
 30
0.0
  0
VERTEX
  5
3EA
  8
DEFAULT
 62
     5
 10
33.0378939077502
 20
214.5828545377316
 30
0.0
  0
VERTEX
  5
3EB
  8
DEFAULT
 62
     5
 10
33.12400322186424
 20
214.4676827246478
 30
0.0
  0
VERTEX
  5
3EC
  8
DEFAULT
 62
     5
 10
33.20705625455951
 20
214.3489768982505
 30
0.0
  0
VERTEX
  5
3ED
  8
DEFAULT
 62
     5
 10
33.28705300583604
 20
214.2267370585397
 30
0.0
  0
VERTEX
  5
3EE
  8
DEFAULT
 62
     5
 10
33.36399347569382
 20
214.1009632055154
 30
0.0
  0
VERTEX
  5
3EF
  8
DEFAULT
 62
     5
 10
33.43787766413285
 20
213.9716553391776
 30
0.0
  0
VERTEX
  5
3F0
  8
DEFAULT
 62
     5
 10
33.50870557115313
 20
213.8388134595263
 30
0.0
  0
VERTEX
  5
3F1
  8
DEFAULT
 62
     5
 10
33.57647719675466
 20
213.7024375665615
 30
0.0
  0
VERTEX
  5
3F2
  8
DEFAULT
 62
     5
 10
33.64119254093744
 20
213.5625276602832
 30
0.0
  0
VERTEX
  5
3F3
  8
DEFAULT
 62
     5
 10
33.70285160370147
 20
213.4190837406915
 30
0.0
  0
VERTEX
  5
3F4
  8
DEFAULT
 62
     5
 10
33.76145438504675
 20
213.2721058077861
 30
0.0
  0
VERTEX
  5
3F5
  8
DEFAULT
 62
     5
 10
33.81700088497329
 20
213.1215938615674
 30
0.0
  0
VERTEX
  5
3F6
  8
DEFAULT
 62
     5
 10
33.86949110348107
 20
212.9675479020351
 30
0.0
  0
VERTEX
  5
3F7
  8
DEFAULT
 62
     5
 10
33.91892504057009
 20
212.8099679291893
 30
0.0
  0
VERTEX
  5
3F8
  8
DEFAULT
 62
     5
 10
33.96530269624038
 20
212.6488539430301
 30
0.0
  0
VERTEX
  5
3F9
  8
DEFAULT
 62
     5
 10
34.00862407049191
 20
212.4842059435573
 30
0.0
  0
VERTEX
  5
3FA
  8
DEFAULT
 62
     5
 10
34.04888916332469
 20
212.3160239307711
 30
0.0
  0
VERTEX
  5
3FB
  8
DEFAULT
 62
     5
 10
34.08609797473872
 20
212.1443079046713
 30
0.0
  0
VERTEX
  5
3FC
  8
DEFAULT
 62
     5
 10
34.120250504734
 20
211.969057865258
 30
0.0
  0
VERTEX
  5
3FD
  8
DEFAULT
 62
     5
 10
34.15134675331053
 20
211.7902738125313
 30
0.0
  0
VERTEX
  5
3FE
  8
DEFAULT
 62
     5
 10
34.17938672046832
 20
211.607955746491
 30
0.0
  0
VERTEX
  5
3FF
  8
DEFAULT
 62
     5
 10
34.20437040620735
 20
211.4221036671373
 30
0.0
  0
VERTEX
  5
400
  8
DEFAULT
 62
     5
 10
34.22629781052763
 20
211.2327175744701
 30
0.0
  0
VERTEX
  5
401
  8
DEFAULT
 62
     5
 10
34.26098377491195
 20
210.8433433491951
 30
0.0
  0
VERTEX
  5
402
  8
DEFAULT
 62
     5
 10
34.28344461362126
 20
210.4398330706661
 30
0.0
  0
VERTEX
  5
403
  8
DEFAULT
 62
     5
 10
34.29368032665558
 20
210.0221867388832
 30
0.0
  0
VERTEX
  5
404
  8
DEFAULT
 62
     5
 10
34.29169091401489
 20
209.5904043538463
 30
0.0
  0
VERTEX
  5
405
  8
DEFAULT
 62
     5
 10
26.4892217782124
 20
209.5904043538463
 30
0.0
 42
0.1907233177561141
  0
VERTEX
  5
406
  8
DEFAULT
 62
     5
 10
27.24462399001705
 20
207.4800650478303
 30
0.0
 42
0.2135192120775336
  0
VERTEX
  5
407
  8
DEFAULT
 62
     5
 10
29.04477865244887
 20
206.726206822982
 30
0.0
 42
0.1657236937100746
  0
VERTEX
  5
408
  8
DEFAULT
 62
     5
 10
30.27703095001484
 20
207.1004356536794
 30
0.0
 42
0.1589948514629759
  0
SEQEND
  5
409
  8
DEFAULT
 62
     5
  0
POLYLINE
  5
40A
  8
DEFAULT
 62
     5
 66
     1
 10
0.0
 20
0.0
 30
0.0
 70
     1
  0
VERTEX
  5
40B
  8
DEFAULT
 62
     5
 10
31.22996251895314
 20
211.4669475637228
 30
0.0
 42
0.1931771868552496
  0
VERTEX
  5
40C
  8
DEFAULT
 62
     5
 10
30.52703099711063
 20
213.4538304563812
 30
0.0
 42
0.2094545272840905
  0
VERTEX
  5
40D
  8
DEFAULT
 62
     5
 10
28.89817298419318
 20
214.1336142303894
 30
0.0
 42
0.2175151257022548
  0
VERTEX
  5
40E
  8
DEFAULT
 62
     5
 10
27.2021850708456
 20
213.4160227445469
 30
0.0
 42
0.1974850402976647
  0
VERTEX
  5
40F
  8
DEFAULT
 62
     5
 10
26.54323494806699
 20
211.4669475637228
 30
0.0
  0
SEQEND
  5
410
  8
DEFAULT
 62
     5
  0
POLYLINE
  5
412
  8
PAL_3
  6
CONTINUOUS
 62
     5
 66
     1
 10
0.0
 20
0.0
 30
0.0
 70
     1
  0
VERTEX
  5
413
  8
PAL_3
  6
CONTINUOUS
 62
     5
 10
250.4760049984552
 20
96.75321803591515
 30
0.0
  0
VERTEX
  5
414
  8
PAL_3
  6
CONTINUOUS
 62
     5
 10
249.9987922076023
 20
96.74539609618586
 30
0.0
  0
VERTEX
  5
415
  8
PAL_3
  6
CONTINUOUS
 62
     5
 10
249.5175297493025
 20
96.72165239882015
 30
0.0
  0
VERTEX
  5
416
  8
PAL_3
  6
CONTINUOUS
 62
     5
 10
249.0325328516485
 20
96.68157996870353
 30
0.0
  0
VERTEX
  5
417
  8
PAL_3
  6
CONTINUOUS
 62
     5
 10
248.5441345837422
 20
96.62478638437405
 30
0.0
  0
VERTEX
  5
418
  8
PAL_3
  6
CONTINUOUS
 62
     5
 10
248.0526856469119
 20
96.55089559095313
 30
0.0
  0
VERTEX
  5
419
  8
PAL_3
  6
CONTINUOUS
 62
     5
 10
247.5585540753823
 20
96.45954973413188
 30
0.0
  0
VERTEX
  5
41A
  8
PAL_3
  6
CONTINUOUS
 62
     5
 10
247.0621248428239
 20
96.35041100480524
 30
0.0
  0
VERTEX
  5
41B
  8
PAL_3
  6
CONTINUOUS
 62
     5
 10
246.5637993717716
 20
96.22316348314139
 30
0.0
  0
VERTEX
  5
41C
  8
PAL_3
  6
CONTINUOUS
 62
     5
 10
246.0639949435351
 20
96.07751497013396
 30
0.0
  0
VERTEX
  5
41D
  8
PAL_3
  6
CONTINUOUS
 62
     5
 10
245.5631440069394
 20
95.91319879402232
 30
0.0
  0
VERTEX
  5
41E
  8
PAL_3
  6
CONTINUOUS
 62
     5
 10
245.0616933850076
 20
95.72997557839749
 30
0.0
  0
VERTEX
  5
41F
  8
PAL_3
  6
CONTINUOUS
 62
     5
 10
244.5601033795481
 20
95.5276349583534
 30
0.0
  0
VERTEX
  5
420
  8
PAL_3
  6
CONTINUOUS
 62
     5
 10
244.0588467745064
 20
95.30599723070992
 30
0.0
  0
VERTEX
  5
421
  8
PAL_3
  6
CONTINUOUS
 62
     5
 10
243.5584077398904
 20
95.06491492413844
 30
0.0
  0
VERTEX
  5
422
  8
PAL_3
  6
CONTINUOUS
 62
     5
 10
243.059280639066
 20
94.80427427497814
 30
0.0
  0
VERTEX
  5
423
  8
PAL_3
  6
CONTINUOUS
 62
     5
 10
242.5619687432339
 20
94.52399659464734
 30
0.0
  0
VERTEX
  5
424
  8
PAL_3
  6
CONTINUOUS
 62
     5
 10
242.0669828579226
 20
94.2240395148437
 30
0.0
  0
VERTEX
  5
425
  8
PAL_3
  6
CONTINUOUS
 62
     5
 10
241.5748398673597
 20
93.90439809719209
 30
0.0
  0
VERTEX
  5
426
  8
PAL_3
  6
CONTINUOUS
 62
     5
 10
241.0860612035916
 20
93.56510579464405
 30
0.0
  0
VERTEX
  5
427
  8
PAL_3
  6
CONTINUOUS
 62
     5
 10
240.601171248199
 20
93.20623525275981
 30
0.0
  0
VERTEX
  5
428
  8
PAL_3
  6
CONTINUOUS
 62
     5
 10
240.1206956753862
 20
92.82789894000808
 30
0.0
  0
VERTEX
  5
429
  8
PAL_3
  6
CONTINUOUS
 62
     5
 10
239.6451597460846
 20
92.43024959739611
 30
0.0
  0
VERTEX
  5
42A
  8
PAL_3
  6
CONTINUOUS
 62
     5
 10
239.1750865634984
 20
92.01348049908171
 30
0.0
  0
VERTEX
  5
42B
  8
PAL_3
  6
CONTINUOUS
 62
     5
 10
238.7109953012082
 20
91.57782551710733
 30
0.0
  0
VERTEX
  5
42C
  8
PAL_3
  6
CONTINUOUS
 62
     5
 10
238.2533994155307
 20
91.12355898502015
 30
0.0
  0
VERTEX
  5
42D
  8
PAL_3
  6
CONTINUOUS
 62
     5
 10
237.8028048542897
 20
90.6509953568763
 30
0.0
  0
VERTEX
  5
42E
  8
PAL_3
  6
CONTINUOUS
 62
     5
 10
237.3597082744795
 20
90.16048865995677
 30
0.0
  0
VERTEX
  5
42F
  8
PAL_3
  6
CONTINUOUS
 62
     5
 10
236.9245952814863
 20
89.65243174141644
 30
0.0
  0
VERTEX
  5
430
  8
PAL_3
  6
CONTINUOUS
 62
     5
 10
236.4979387025682
 20
89.1272553110221
 30
0.0
  0
VERTEX
  5
431
  8
PAL_3
  6
CONTINUOUS
 62
     5
 10
236.0801969071759
 20
88.58542678408294
 30
0.0
  0
VERTEX
  5
432
  8
PAL_3
  6
CONTINUOUS
 62
     5
 10
235.6718121864288
 20
88.02744893060543
 30
0.0
  0
VERTEX
  5
433
  8
PAL_3
  6
CONTINUOUS
 62
     5
 10
235.2732092036339
 20
87.45385833858805
 30
0.0
  0
VERTEX
  5
434
  8
PAL_3
  6
CONTINUOUS
 62
     5
 10
234.8847935271673
 20
86.86522370117812
 30
0.0
  0
VERTEX
  5
435
  8
PAL_3
  6
CONTINUOUS
 62
     5
 10
234.5069502563256
 20
86.26214393911732
 30
0.0
  0
VERTEX
  5
436
  8
PAL_3
  6
CONTINUOUS
 62
     5
 10
234.1400427499111
 20
85.64524617147521
 30
0.0
  0
VERTEX
  5
437
  8
PAL_3
  6
CONTINUOUS
 62
     5
 10
233.7844114663531
 20
85.01518354909074
 30
0.0
  0
VERTEX
  5
438
  8
PAL_3
  6
CONTINUOUS
 62
     5
 10
233.4403729231051
 20
84.37263296638564
 30
0.0
  0
VERTEX
  5
439
  8
PAL_3
  6
CONTINUOUS
 62
     5
 10
233.108218781899
 20
83.7182926682641
 30
0.0
  0
VERTEX
  5
43A
  8
PAL_3
  6
CONTINUOUS
 62
     5
 10
232.7882150652177
 20
83.05287976965708
 30
0.0
  0
VERTEX
  5
43B
  8
PAL_3
  6
CONTINUOUS
 62
     5
 10
232.4806015080702
 20
82.37712770589343
 30
0.0
  0
VERTEX
  5
43C
  8
PAL_3
  6
CONTINUOUS
 62
     5
 10
232.1855910478491
 20
81.69178363248028
 30
0.0
  0
VERTEX
  5
43D
  8
PAL_3
  6
CONTINUOUS
 62
     5
 10
231.9033694537277
 20
80.99760579304821
 30
0.0
  0
VERTEX
  5
43E
  8
PAL_3
  6
CONTINUOUS
 62
     5
 10
231.6340950957507
 20
80.2953608741641
 30
0.0
  0
VERTEX
  5
43F
  8
PAL_3
  6
CONTINUOUS
 62
     5
 10
231.3778988524816
 20
79.58582136544327
 30
0.0
  0
VERTEX
  5
440
  8
PAL_3
  6
CONTINUOUS
 62
     5
 10
231.1348841548388
 20
78.86976294291244
 30
0.0
  0
VERTEX
  5
441
  8
PAL_3
  6
CONTINUOUS
 62
     5
 10
230.9051271625725
 20
78.14796189289653
 30
0.0
  0
VERTEX
  5
442
  8
PAL_3
  6
CONTINUOUS
 62
     5
 10
230.6886770687396
 20
77.42119259284632
 30
0.0
  0
VERTEX
  5
443
  8
PAL_3
  6
CONTINUOUS
 62
     5
 10
230.4855565265195
 20
76.69022506450463
 30
0.0
  0
VERTEX
  5
444
  8
PAL_3
  6
CONTINUOUS
 62
     5
 10
230.2957621918159
 20
75.95582261364943
 30
0.0
  0
VERTEX
  5
445
  8
PAL_3
  6
CONTINUOUS
 62
     5
 10
230.1192653742823
 20
75.21873956937527
 30
0.0
  0
VERTEX
  5
446
  8
PAL_3
  6
CONTINUOUS
 62
     5
 10
229.8059273983714
 20
73.73949135725563
 30
0.0
  0
VERTEX
  5
447
  8
PAL_3
  6
CONTINUOUS
 62
     5
 10
229.5448369269854
 20
72.25825694231983
 30
0.0
  0
VERTEX
  5
448
  8
PAL_3
  6
CONTINUOUS
 62
     5
 10
229.3349395784576
 20
70.78054495000076
 30
0.0
  0
VERTEX
  5
449
  8
PAL_3
  6
CONTINUOUS
 62
     5
 10
229.1748669990539
 20
69.31154672483446
 30
0.0
  0
VERTEX
  5
44A
  8
PAL_3
  6
CONTINUOUS
 62
     5
 10
229.0629744642494
 20
67.85609643916727
 30
0.0
  0
VERTEX
  5
44B
  8
PAL_3
  6
CONTINUOUS
 62
     5
 10
228.9973801552573
 20
66.41864078763503
 30
0.0
  0
VERTEX
  5
44C
  8
PAL_3
  6
CONTINUOUS
 62
     5
 10
228.9760049994302
 20
65.00321803591515
 30
0.0
  0
VERTEX
  5
44D
  8
PAL_3
  6
CONTINUOUS
 62
     5
 10
228.9973801552573
 20
63.58779528419526
 30
0.0
  0
VERTEX
  5
44E
  8
PAL_3
  6
CONTINUOUS
 62
     5
 10
229.0629744642494
 20
62.15033963266303
 30
0.0
  0
VERTEX
  5
44F
  8
PAL_3
  6
CONTINUOUS
 62
     5
 10
229.1748669990539
 20
60.69488934699585
 30
0.0
  0
VERTEX
  5
450
  8
PAL_3
  6
CONTINUOUS
 62
     5
 10
229.3349395784576
 20
59.22589112182956
 30
0.0
  0
VERTEX
  5
451
  8
PAL_3
  6
CONTINUOUS
 62
     5
 10
229.5448369269854
 20
57.74817912951048
 30
0.0
  0
VERTEX
  5
452
  8
PAL_3
  6
CONTINUOUS
 62
     5
 10
229.8059273983714
 20
56.26694471457466
 30
0.0
  0
VERTEX
  5
453
  8
PAL_3
  6
CONTINUOUS
 62
     5
 10
230.1192653742823
 20
54.78769650245503
 30
0.0
  0
VERTEX
  5
454
  8
PAL_3
  6
CONTINUOUS
 62
     5
 10
230.2957621918159
 20
54.05061345818088
 30
0.0
  0
VERTEX
  5
455
  8
PAL_3
  6
CONTINUOUS
 62
     5
 10
230.4855565265195
 20
53.31621100732569
 30
0.0
  0
VERTEX
  5
456
  8
PAL_3
  6
CONTINUOUS
 62
     5
 10
230.6886770687396
 20
52.58524347898399
 30
0.0
  0
VERTEX
  5
457
  8
PAL_3
  6
CONTINUOUS
 62
     5
 10
230.9051271625725
 20
51.85847417893378
 30
0.0
  0
VERTEX
  5
458
  8
PAL_3
  6
CONTINUOUS
 62
     5
 10
231.1348841548388
 20
51.13667312891786
 30
0.0
  0
VERTEX
  5
459
  8
PAL_3
  6
CONTINUOUS
 62
     5
 10
231.3778988524816
 20
50.42061470638704
 30
0.0
  0
VERTEX
  5
45A
  8
PAL_3
  6
CONTINUOUS
 62
     5
 10
231.6340950957507
 20
49.71107519766623
 30
0.0
  0
VERTEX
  5
45B
  8
PAL_3
  6
CONTINUOUS
 62
     5
 10
231.9033694537277
 20
49.0088302787821
 30
0.0
  0
VERTEX
  5
45C
  8
PAL_3
  6
CONTINUOUS
 62
     5
 10
232.1855910478491
 20
48.31465243935004
 30
0.0
  0
VERTEX
  5
45D
  8
PAL_3
  6
CONTINUOUS
 62
     5
 10
232.4806015080702
 20
47.62930836593686
 30
0.0
  0
VERTEX
  5
45E
  8
PAL_3
  6
CONTINUOUS
 62
     5
 10
232.7882150652177
 20
46.95355630217319
 30
0.0
  0
VERTEX
  5
45F
  8
PAL_3
  6
CONTINUOUS
 62
     5
 10
233.108218781899
 20
46.28814340356619
 30
0.0
  0
VERTEX
  5
460
  8
PAL_3
  6
CONTINUOUS
 62
     5
 10
233.4403729231051
 20
45.63380310544467
 30
0.0
  0
VERTEX
  5
461
  8
PAL_3
  6
CONTINUOUS
 62
     5
 10
233.7844114663531
 20
44.99125252273958
 30
0.0
  0
VERTEX
  5
462
  8
PAL_3
  6
CONTINUOUS
 62
     5
 10
234.1400427499111
 20
44.36118990035512
 30
0.0
  0
VERTEX
  5
463
  8
PAL_3
  6
CONTINUOUS
 62
     5
 10
234.5069502563256
 20
43.74429213271299
 30
0.0
  0
VERTEX
  5
464
  8
PAL_3
  6
CONTINUOUS
 62
     5
 10
234.8847935271673
 20
43.14121237065218
 30
0.0
  0
VERTEX
  5
465
  8
PAL_3
  6
CONTINUOUS
 62
     5
 10
235.2732092036339
 20
42.55257773324226
 30
0.0
  0
VERTEX
  5
466
  8
PAL_3
  6
CONTINUOUS
 62
     5
 10
235.6718121864288
 20
41.97898714122487
 30
0.0
  0
VERTEX
  5
467
  8
PAL_3
  6
CONTINUOUS
 62
     5
 10
236.0801969071759
 20
41.42100928774738
 30
0.0
  0
VERTEX
  5
468
  8
PAL_3
  6
CONTINUOUS
 62
     5
 10
236.4979387025682
 20
40.87918076080823
 30
0.0
  0
VERTEX
  5
469
  8
PAL_3
  6
CONTINUOUS
 62
     5
 10
236.9245952814863
 20
40.35400433041388
 30
0.0
  0
VERTEX
  5
46A
  8
PAL_3
  6
CONTINUOUS
 62
     5
 10
237.3597082744795
 20
39.84594741187352
 30
0.0
  0
VERTEX
  5
46B
  8
PAL_3
  6
CONTINUOUS
 62
     5
 10
237.8028048542897
 20
39.35544071495399
 30
0.0
  0
VERTEX
  5
46C
  8
PAL_3
  6
CONTINUOUS
 62
     5
 10
238.2533994155307
 20
38.88287708681013
 30
0.0
  0
VERTEX
  5
46D
  8
PAL_3
  6
CONTINUOUS
 62
     5
 10
238.7109953012082
 20
38.42861055472296
 30
0.0
  0
VERTEX
  5
46E
  8
PAL_3
  6
CONTINUOUS
 62
     5
 10
239.1750865634984
 20
37.99295557274862
 30
0.0
  0
VERTEX
  5
46F
  8
PAL_3
  6
CONTINUOUS
 62
     5
 10
239.6451597460846
 20
37.5761864744342
 30
0.0
  0
VERTEX
  5
470
  8
PAL_3
  6
CONTINUOUS
 62
     5
 10
240.1206956753862
 20
37.17853713182225
 30
0.0
  0
VERTEX
  5
471
  8
PAL_3
  6
CONTINUOUS
 62
     5
 10
240.601171248199
 20
36.8002008190705
 30
0.0
  0
VERTEX
  5
472
  8
PAL_3
  6
CONTINUOUS
 62
     5
 10
241.0860612035916
 20
36.44133027718625
 30
0.0
  0
VERTEX
  5
473
  8
PAL_3
  6
CONTINUOUS
 62
     5
 10
241.5748398673597
 20
36.10203797463823
 30
0.0
  0
VERTEX
  5
474
  8
PAL_3
  6
CONTINUOUS
 62
     5
 10
242.0669828579226
 20
35.78239655698663
 30
0.0
  0
VERTEX
  5
475
  8
PAL_3
  6
CONTINUOUS
 62
     5
 10
242.5619687432339
 20
35.48243947718299
 30
0.0
  0
VERTEX
  5
476
  8
PAL_3
  6
CONTINUOUS
 62
     5
 10
243.059280639066
 20
35.20216179685217
 30
0.0
  0
VERTEX
  5
477
  8
PAL_3
  6
CONTINUOUS
 62
     5
 10
243.5584077398904
 20
34.94152114769188
 30
0.0
  0
VERTEX
  5
478
  8
PAL_3
  6
CONTINUOUS
 62
     5
 10
244.0588467745064
 20
34.7004388411204
 30
0.0
  0
VERTEX
  5
479
  8
PAL_3
  6
CONTINUOUS
 62
     5
 10
244.5601033795481
 20
34.47880111347691
 30
0.0
  0
VERTEX
  5
47A
  8
PAL_3
  6
CONTINUOUS
 62
     5
 10
245.0616933850076
 20
34.27646049343284
 30
0.0
  0
VERTEX
  5
47B
  8
PAL_3
  6
CONTINUOUS
 62
     5
 10
245.5631440069394
 20
34.093237277808
 30
0.0
  0
VERTEX
  5
47C
  8
PAL_3
  6
CONTINUOUS
 62
     5
 10
246.0639949435351
 20
33.92892110169635
 30
0.0
  0
VERTEX
  5
47D
  8
PAL_3
  6
CONTINUOUS
 62
     5
 10
246.5637993717716
 20
33.78327258868892
 30
0.0
  0
VERTEX
  5
47E
  8
PAL_3
  6
CONTINUOUS
 62
     5
 10
247.0621248428239
 20
33.65602506702505
 30
0.0
  0
VERTEX
  5
47F
  8
PAL_3
  6
CONTINUOUS
 62
     5
 10
247.5585540753823
 20
33.54688633769842
 30
0.0
  0
VERTEX
  5
480
  8
PAL_3
  6
CONTINUOUS
 62
     5
 10
248.0526856469119
 20
33.45554048087718
 30
0.0
  0
VERTEX
  5
481
  8
PAL_3
  6
CONTINUOUS
 62
     5
 10
248.5441345837422
 20
33.38164968745625
 30
0.0
  0
VERTEX
  5
482
  8
PAL_3
  6
CONTINUOUS
 62
     5
 10
249.0325328516485
 20
33.32485610312678
 30
0.0
  0
VERTEX
  5
483
  8
PAL_3
  6
CONTINUOUS
 62
     5
 10
249.5175297493025
 20
33.28478367301013
 30
0.0
  0
VERTEX
  5
484
  8
PAL_3
  6
CONTINUOUS
 62
     5
 10
249.9987922076023
 20
33.26103997564445
 30
0.0
  0
VERTEX
  5
485
  8
PAL_3
  6
CONTINUOUS
 62
     5
 10
250.4760049984552
 20
33.25321803591515
 30
0.0
  0
VERTEX
  5
486
  8
PAL_3
  6
CONTINUOUS
 62
     5
 10
250.9532177893081
 20
33.26103997564445
 30
0.0
  0
VERTEX
  5
487
  8
PAL_3
  6
CONTINUOUS
 62
     5
 10
251.4344802476078
 20
33.28478367301013
 30
0.0
  0
VERTEX
  5
488
  8
PAL_3
  6
CONTINUOUS
 62
     5
 10
251.9194771452619
 20
33.32485610312678
 30
0.0
  0
VERTEX
  5
489
  8
PAL_3
  6
CONTINUOUS
 62
     5
 10
252.4078754131682
 20
33.38164968745625
 30
0.0
  0
VERTEX
  5
48A
  8
PAL_3
  6
CONTINUOUS
 62
     5
 10
252.8993243499985
 20
33.45554048087718
 30
0.0
  0
VERTEX
  5
48B
  8
PAL_3
  6
CONTINUOUS
 62
     5
 10
253.3934559215281
 20
33.54688633769842
 30
0.0
  0
VERTEX
  5
48C
  8
PAL_3
  6
CONTINUOUS
 62
     5
 10
253.8898851540865
 20
33.65602506702505
 30
0.0
  0
VERTEX
  5
48D
  8
PAL_3
  6
CONTINUOUS
 62
     5
 10
254.3882106251389
 20
33.78327258868892
 30
0.0
  0
VERTEX
  5
48E
  8
PAL_3
  6
CONTINUOUS
 62
     5
 10
254.8880150533753
 20
33.92892110169635
 30
0.0
  0
VERTEX
  5
48F
  8
PAL_3
  6
CONTINUOUS
 62
     5
 10
255.388865989971
 20
34.093237277808
 30
0.0
  0
VERTEX
  5
490
  8
PAL_3
  6
CONTINUOUS
 62
     5
 10
255.8903166119029
 20
34.27646049343284
 30
0.0
  0
VERTEX
  5
491
  8
PAL_3
  6
CONTINUOUS
 62
     5
 10
256.3919066173623
 20
34.47880111347691
 30
0.0
  0
VERTEX
  5
492
  8
PAL_3
  6
CONTINUOUS
 62
     5
 10
256.893163222404
 20
34.7004388411204
 30
0.0
  0
VERTEX
  5
493
  8
PAL_3
  6
CONTINUOUS
 62
     5
 10
257.39360225702
 20
34.94152114769188
 30
0.0
  0
VERTEX
  5
494
  8
PAL_3
  6
CONTINUOUS
 62
     5
 10
257.8927293578445
 20
35.20216179685217
 30
0.0
  0
VERTEX
  5
495
  8
PAL_3
  6
CONTINUOUS
 62
     5
 10
258.3900412536766
 20
35.48243947718299
 30
0.0
  0
VERTEX
  5
496
  8
PAL_3
  6
CONTINUOUS
 62
     5
 10
258.8850271389878
 20
35.78239655698663
 30
0.0
  0
VERTEX
  5
497
  8
PAL_3
  6
CONTINUOUS
 62
     5
 10
259.3771701295507
 20
36.10203797463823
 30
0.0
  0
VERTEX
  5
498
  8
PAL_3
  6
CONTINUOUS
 62
     5
 10
259.8659487933189
 20
36.44133027718625
 30
0.0
  0
VERTEX
  5
499
  8
PAL_3
  6
CONTINUOUS
 62
     5
 10
260.3508387487115
 20
36.8002008190705
 30
0.0
  0
VERTEX
  5
49A
  8
PAL_3
  6
CONTINUOUS
 62
     5
 10
260.8313143215243
 20
37.17853713182225
 30
0.0
  0
VERTEX
  5
49B
  8
PAL_3
  6
CONTINUOUS
 62
     5
 10
261.3068502508258
 20
37.5761864744342
 30
0.0
  0
VERTEX
  5
49C
  8
PAL_3
  6
CONTINUOUS
 62
     5
 10
261.776923433412
 20
37.99295557274862
 30
0.0
  0
VERTEX
  5
49D
  8
PAL_3
  6
CONTINUOUS
 62
     5
 10
262.2410146957022
 20
38.42861055472296
 30
0.0
  0
VERTEX
  5
49E
  8
PAL_3
  6
CONTINUOUS
 62
     5
 10
262.6986105813797
 20
38.88287708681013
 30
0.0
  0
VERTEX
  5
49F
  8
PAL_3
  6
CONTINUOUS
 62
     5
 10
263.1492051426207
 20
39.35544071495399
 30
0.0
  0
VERTEX
  5
4A0
  8
PAL_3
  6
CONTINUOUS
 62
     5
 10
263.592301722431
 20
39.84594741187352
 30
0.0
  0
VERTEX
  5
4A1
  8
PAL_3
  6
CONTINUOUS
 62
     5
 10
264.0274147154242
 20
40.35400433041388
 30
0.0
  0
VERTEX
  5
4A2
  8
PAL_3
  6
CONTINUOUS
 62
     5
 10
264.4540712943423
 20
40.87918076080823
 30
0.0
  0
VERTEX
  5
4A3
  8
PAL_3
  6
CONTINUOUS
 62
     5
 10
264.8718130897346
 20
41.42100928774738
 30
0.0
  0
VERTEX
  5
4A4
  8
PAL_3
  6
CONTINUOUS
 62
     5
 10
265.2801978104816
 20
41.97898714122487
 30
0.0
  0
VERTEX
  5
4A5
  8
PAL_3
  6
CONTINUOUS
 62
     5
 10
265.6788007932765
 20
42.55257773324226
 30
0.0
  0
VERTEX
  5
4A6
  8
PAL_3
  6
CONTINUOUS
 62
     5
 10
266.0672164697432
 20
43.14121237065218
 30
0.0
  0
VERTEX
  5
4A7
  8
PAL_3
  6
CONTINUOUS
 62
     5
 10
266.4450597405848
 20
43.74429213271299
 30
0.0
  0
VERTEX
  5
4A8
  8
PAL_3
  6
CONTINUOUS
 62
     5
 10
266.8119672469994
 20
44.36118990035512
 30
0.0
  0
VERTEX
  5
4A9
  8
PAL_3
  6
CONTINUOUS
 62
     5
 10
267.1675985305574
 20
44.99125252273958
 30
0.0
  0
VERTEX
  5
4AA
  8
PAL_3
  6
CONTINUOUS
 62
     5
 10
267.5116370738053
 20
45.63380310544467
 30
0.0
  0
VERTEX
  5
4AB
  8
PAL_3
  6
CONTINUOUS
 62
     5
 10
267.8437912150114
 20
46.28814340356619
 30
0.0
  0
VERTEX
  5
4AC
  8
PAL_3
  6
CONTINUOUS
 62
     5
 10
268.1637949316927
 20
46.95355630217319
 30
0.0
  0
VERTEX
  5
4AD
  8
PAL_3
  6
CONTINUOUS
 62
     5
 10
268.4714084888401
 20
47.62930836593686
 30
0.0
  0
VERTEX
  5
4AE
  8
PAL_3
  6
CONTINUOUS
 62
     5
 10
268.7664189490614
 20
48.31465243935004
 30
0.0
  0
VERTEX
  5
4AF
  8
PAL_3
  6
CONTINUOUS
 62
     5
 10
269.0486405431828
 20
49.0088302787821
 30
0.0
  0
VERTEX
  5
4B0
  8
PAL_3
  6
CONTINUOUS
 62
     5
 10
269.3179149011598
 20
49.71107519766623
 30
0.0
  0
VERTEX
  5
4B1
  8
PAL_3
  6
CONTINUOUS
 62
     5
 10
269.5741111444289
 20
50.42061470638704
 30
0.0
  0
VERTEX
  5
4B2
  8
PAL_3
  6
CONTINUOUS
 62
     5
 10
269.8171258420717
 20
51.13667312891786
 30
0.0
  0
VERTEX
  5
4B3
  8
PAL_3
  6
CONTINUOUS
 62
     5
 10
270.0468828343379
 20
51.85847417893378
 30
0.0
  0
VERTEX
  5
4B4
  8
PAL_3
  6
CONTINUOUS
 62
     5
 10
270.2633329281709
 20
52.58524347898399
 30
0.0
  0
VERTEX
  5
4B5
  8
PAL_3
  6
CONTINUOUS
 62
     5
 10
270.4664534703909
 20
53.31621100732569
 30
0.0
  0
VERTEX
  5
4B6
  8
PAL_3
  6
CONTINUOUS
 62
     5
 10
270.6562478050946
 20
54.05061345818088
 30
0.0
  0
VERTEX
  5
4B7
  8
PAL_3
  6
CONTINUOUS
 62
     5
 10
270.8327446226281
 20
54.78769650245503
 30
0.0
  0
VERTEX
  5
4B8
  8
PAL_3
  6
CONTINUOUS
 62
     5
 10
271.146082598539
 20
56.26694471457466
 30
0.0
  0
VERTEX
  5
4B9
  8
PAL_3
  6
CONTINUOUS
 62
     5
 10
271.407173069925
 20
57.74817912951048
 30
0.0
  0
VERTEX
  5
4BA
  8
PAL_3
  6
CONTINUOUS
 62
     5
 10
271.6170704184528
 20
59.22589112182956
 30
0.0
  0
VERTEX
  5
4BB
  8
PAL_3
  6
CONTINUOUS
 62
     5
 10
271.7771429978565
 20
60.69488934699585
 30
0.0
  0
VERTEX
  5
4BC
  8
PAL_3
  6
CONTINUOUS
 62
     5
 10
271.8890355326611
 20
62.15033963266303
 30
0.0
  0
VERTEX
  5
4BD
  8
PAL_3
  6
CONTINUOUS
 62
     5
 10
271.9546298416531
 20
63.58779528419526
 30
0.0
  0
VERTEX
  5
4BE
  8
PAL_3
  6
CONTINUOUS
 62
     5
 10
271.9760049974802
 20
65.00321803591515
 30
0.0
  0
VERTEX
  5
4BF
  8
PAL_3
  6
CONTINUOUS
 62
     5
 10
271.9546298416531
 20
66.41864078763503
 30
0.0
  0
VERTEX
  5
4C0
  8
PAL_3
  6
CONTINUOUS
 62
     5
 10
271.8890355326611
 20
67.85609643916727
 30
0.0
  0
VERTEX
  5
4C1
  8
PAL_3
  6
CONTINUOUS
 62
     5
 10
271.7771429978565
 20
69.31154672483446
 30
0.0
  0
VERTEX
  5
4C2
  8
PAL_3
  6
CONTINUOUS
 62
     5
 10
271.6170704184528
 20
70.78054495000076
 30
0.0
  0
VERTEX
  5
4C3
  8
PAL_3
  6
CONTINUOUS
 62
     5
 10
271.407173069925
 20
72.25825694231983
 30
0.0
  0
VERTEX
  5
4C4
  8
PAL_3
  6
CONTINUOUS
 62
     5
 10
271.146082598539
 20
73.73949135725563
 30
0.0
  0
VERTEX
  5
4C5
  8
PAL_3
  6
CONTINUOUS
 62
     5
 10
270.8327446226281
 20
75.21873956937527
 30
0.0
  0
VERTEX
  5
4C6
  8
PAL_3
  6
CONTINUOUS
 62
     5
 10
270.6562478050946
 20
75.95582261364943
 30
0.0
  0
VERTEX
  5
4C7
  8
PAL_3
  6
CONTINUOUS
 62
     5
 10
270.4664534703909
 20
76.69022506450463
 30
0.0
  0
VERTEX
  5
4C8
  8
PAL_3
  6
CONTINUOUS
 62
     5
 10
270.2633329281709
 20
77.42119259284632
 30
0.0
  0
VERTEX
  5
4C9
  8
PAL_3
  6
CONTINUOUS
 62
     5
 10
270.0468828343379
 20
78.14796189289653
 30
0.0
  0
VERTEX
  5
4CA
  8
PAL_3
  6
CONTINUOUS
 62
     5
 10
269.8171258420717
 20
78.86976294291244
 30
0.0
  0
VERTEX
  5
4CB
  8
PAL_3
  6
CONTINUOUS
 62
     5
 10
269.5741111444289
 20
79.58582136544327
 30
0.0
  0
VERTEX
  5
4CC
  8
PAL_3
  6
CONTINUOUS
 62
     5
 10
269.3179149011598
 20
80.2953608741641
 30
0.0
  0
VERTEX
  5
4CD
  8
PAL_3
  6
CONTINUOUS
 62
     5
 10
269.0486405431828
 20
80.99760579304821
 30
0.0
  0
VERTEX
  5
4CE
  8
PAL_3
  6
CONTINUOUS
 62
     5
 10
268.7664189490614
 20
81.69178363248028
 30
0.0
  0
VERTEX
  5
4CF
  8
PAL_3
  6
CONTINUOUS
 62
     5
 10
268.4714084888401
 20
82.37712770589343
 30
0.0
  0
VERTEX
  5
4D0
  8
PAL_3
  6
CONTINUOUS
 62
     5
 10
268.1637949316927
 20
83.05287976965708
 30
0.0
  0
VERTEX
  5
4D1
  8
PAL_3
  6
CONTINUOUS
 62
     5
 10
267.8437912150114
 20
83.7182926682641
 30
0.0
  0
VERTEX
  5
4D2
  8
PAL_3
  6
CONTINUOUS
 62
     5
 10
267.5116370738053
 20
84.37263296638564
 30
0.0
  0
VERTEX
  5
4D3
  8
PAL_3
  6
CONTINUOUS
 62
     5
 10
267.1675985305574
 20
85.01518354909074
 30
0.0
  0
VERTEX
  5
4D4
  8
PAL_3
  6
CONTINUOUS
 62
     5
 10
266.8119672469994
 20
85.64524617147521
 30
0.0
  0
VERTEX
  5
4D5
  8
PAL_3
  6
CONTINUOUS
 62
     5
 10
266.4450597405848
 20
86.26214393911732
 30
0.0
  0
VERTEX
  5
4D6
  8
PAL_3
  6
CONTINUOUS
 62
     5
 10
266.0672164697432
 20
86.86522370117812
 30
0.0
  0
VERTEX
  5
4D7
  8
PAL_3
  6
CONTINUOUS
 62
     5
 10
265.6788007932765
 20
87.45385833858805
 30
0.0
  0
VERTEX
  5
4D8
  8
PAL_3
  6
CONTINUOUS
 62
     5
 10
265.2801978104816
 20
88.02744893060543
 30
0.0
  0
VERTEX
  5
4D9
  8
PAL_3
  6
CONTINUOUS
 62
     5
 10
264.8718130897346
 20
88.58542678408294
 30
0.0
  0
VERTEX
  5
4DA
  8
PAL_3
  6
CONTINUOUS
 62
     5
 10
264.4540712943423
 20
89.1272553110221
 30
0.0
  0
VERTEX
  5
4DB
  8
PAL_3
  6
CONTINUOUS
 62
     5
 10
264.0274147154242
 20
89.65243174141644
 30
0.0
  0
VERTEX
  5
4DC
  8
PAL_3
  6
CONTINUOUS
 62
     5
 10
263.592301722431
 20
90.16048865995677
 30
0.0
  0
VERTEX
  5
4DD
  8
PAL_3
  6
CONTINUOUS
 62
     5
 10
263.1492051426207
 20
90.6509953568763
 30
0.0
  0
VERTEX
  5
4DE
  8
PAL_3
  6
CONTINUOUS
 62
     5
 10
262.6986105813797
 20
91.12355898502015
 30
0.0
  0
VERTEX
  5
4DF
  8
PAL_3
  6
CONTINUOUS
 62
     5
 10
262.2410146957022
 20
91.57782551710733
 30
0.0
  0
VERTEX
  5
4E0
  8
PAL_3
  6
CONTINUOUS
 62
     5
 10
261.776923433412
 20
92.01348049908171
 30
0.0
  0
VERTEX
  5
4E1
  8
PAL_3
  6
CONTINUOUS
 62
     5
 10
261.3068502508258
 20
92.43024959739611
 30
0.0
  0
VERTEX
  5
4E2
  8
PAL_3
  6
CONTINUOUS
 62
     5
 10
260.8313143215243
 20
92.82789894000808
 30
0.0
  0
VERTEX
  5
4E3
  8
PAL_3
  6
CONTINUOUS
 62
     5
 10
260.3508387487115
 20
93.20623525275981
 30
0.0
  0
VERTEX
  5
4E4
  8
PAL_3
  6
CONTINUOUS
 62
     5
 10
259.8659487933189
 20
93.56510579464405
 30
0.0
  0
VERTEX
  5
4E5
  8
PAL_3
  6
CONTINUOUS
 62
     5
 10
259.3771701295507
 20
93.90439809719209
 30
0.0
  0
VERTEX
  5
4E6
  8
PAL_3
  6
CONTINUOUS
 62
     5
 10
258.8850271389878
 20
94.2240395148437
 30
0.0
  0
VERTEX
  5
4E7
  8
PAL_3
  6
CONTINUOUS
 62
     5
 10
258.3900412536766
 20
94.52399659464734
 30
0.0
  0
VERTEX
  5
4E8
  8
PAL_3
  6
CONTINUOUS
 62
     5
 10
257.8927293578445
 20
94.80427427497814
 30
0.0
  0
VERTEX
  5
4E9
  8
PAL_3
  6
CONTINUOUS
 62
     5
 10
257.39360225702
 20
95.06491492413844
 30
0.0
  0
VERTEX
  5
4EA
  8
PAL_3
  6
CONTINUOUS
 62
     5
 10
256.893163222404
 20
95.30599723070992
 30
0.0
  0
VERTEX
  5
4EB
  8
PAL_3
  6
CONTINUOUS
 62
     5
 10
256.3919066173623
 20
95.5276349583534
 30
0.0
  0
VERTEX
  5
4EC
  8
PAL_3
  6
CONTINUOUS
 62
     5
 10
255.8903166119029
 20
95.72997557839749
 30
0.0
  0
VERTEX
  5
4ED
  8
PAL_3
  6
CONTINUOUS
 62
     5
 10
255.388865989971
 20
95.91319879402232
 30
0.0
  0
VERTEX
  5
4EE
  8
PAL_3
  6
CONTINUOUS
 62
     5
 10
254.8880150533753
 20
96.07751497013396
 30
0.0
  0
VERTEX
  5
4EF
  8
PAL_3
  6
CONTINUOUS
 62
     5
 10
254.3882106251389
 20
96.22316348314139
 30
0.0
  0
VERTEX
  5
4F0
  8
PAL_3
  6
CONTINUOUS
 62
     5
 10
253.8898851540865
 20
96.35041100480524
 30
0.0
  0
VERTEX
  5
4F1
  8
PAL_3
  6
CONTINUOUS
 62
     5
 10
253.3934559215281
 20
96.45954973413188
 30
0.0
  0
VERTEX
  5
4F2
  8
PAL_3
  6
CONTINUOUS
 62
     5
 10
252.8993243499985
 20
96.55089559095313
 30
0.0
  0
VERTEX
  5
4F3
  8
PAL_3
  6
CONTINUOUS
 62
     5
 10
252.4078754131682
 20
96.62478638437405
 30
0.0
  0
VERTEX
  5
4F4
  8
PAL_3
  6
CONTINUOUS
 62
     5
 10
251.9194771452619
 20
96.68157996870353
 30
0.0
  0
VERTEX
  5
4F5
  8
PAL_3
  6
CONTINUOUS
 62
     5
 10
251.4344802476078
 20
96.72165239882015
 30
0.0
  0
VERTEX
  5
4F6
  8
PAL_3
  6
CONTINUOUS
 62
     5
 10
250.9532177893081
 20
96.74539609618586
 30
0.0
  0
SEQEND
  5
4F7
  8
PAL_3
  6
CONTINUOUS
 62
     5
  0
ARC
  5
4F8
  8
PAL_3
  6
CONTINUOUS
 62
     5
 10
209.4760049984553
 20
119.0032180359152
 30
0.0
 40
36.49999999999999
 50
56.63064215250004
 51
146.1181248025001
  0
LINE
  5
4F9
  8
PAL_3
  6
CONTINUOUS
 62
     5
 10
252.1744327478552
 20
134.5866793884152
 30
0.0
 11
229.5522525450552
 21
149.4859063104151
 31
0.0
  0
ARC
  5
4FA
  8
PAL_3
  6
CONTINUOUS
 62
     5
 10
277.4760049984552
 20
173.0032180359152
 30
0.0
 40
45.99999999999999
 50
236.6306421524999
 51
20.92483242759991
  0
ARC
  5
4FB
  8
PAL_3
  6
CONTINUOUS
 62
     5
 10
329.7827923209553
 20
193.0032180359152
 30
0.0
 40
10.00000000000001
 50
90.0
 51
200.9248324276
  0
LINE
  5
4FC
  8
PAL_3
  6
CONTINUOUS
 62
     5
 10
415.4760049984552
 20
203.0032180359152
 30
0.0
 11
329.7827923209553
 21
203.0032180359152
 31
0.0
  0
LINE
  5
4FD
  8
PAL_3
  6
CONTINUOUS
 62
     5
 10
415.4760049984552
 20
-146.9967819640848
 30
0.0
 11
415.4760049984552
 21
203.0032180359152
 31
0.0
  0
LINE
  5
4FE
  8
PAL_3
  6
CONTINUOUS
 62
     5
 10
177.4760049984553
 20
-146.9967819640848
 30
0.0
 11
415.4760049984552
 21
-146.9967819640848
 31
0.0
  0
LINE
  5
4FF
  8
PAL_3
  6
CONTINUOUS
 62
     5
 10
177.4760049984553
 20
133.7765047385151
 30
0.0
 11
177.4760049984553
 21
-146.9967819640848
 31
0.0
  0
ARC
  5
500
  8
PAL_3
  6
CONTINUOUS
 62
     5
 10
187.4760049984553
 20
133.7765047385151
 30
0.0
 40
9.999999999999995
 50
146.1181248025002
 51
180.0
  0
ARC
  5
502
  8
PAL_2
  6
CONTINUOUS
 62
     5
 10
129.7466484093553
 20
44.70875913391515
 30
0.0
 40
203.2233369814007
 50
149.9271949858
 51
227.6515514955999
  0
ARC
  5
503
  8
PAL_2
  6
CONTINUOUS
 62
     5
 10
31.52331142795526
 20
101.5845662980151
 30
0.0
 40
89.72143669627798
 50
117.0936063392
 51
149.9271949858
  0
ARC
  5
504
  8
PAL_2
  6
CONTINUOUS
 62
     5
 10
3.412556808955287
 20
156.5329167974152
 30
0.0
 40
28.0
 50
15.0
 51
117.0936063392
  0
LINE
  5
505
  8
PAL_2
  6
CONTINUOUS
 62
     5
 10
30.45847994505527
 20
163.7798500603151
 30
0.0
 11
43.44923859935528
 21
115.2976787336152
 31
0.0
  0
ARC
  5
506
  8
PAL_2
  6
CONTINUOUS
 62
     5
 10
55.52331142795526
 20
118.5329167974152
 30
0.0
 40
12.5
 50
194.9999999999999
 51
351.9999999999999
  0
LINE
  5
507
  8
PAL_2
  6
CONTINUOUS
 62
     5
 10
67.90166228725525
 20
116.7932530354151
 30
0.0
 11
72.6524411786553
 21
150.5968013171151
 31
0.0
  0
ARC
  5
508
  8
PAL_2
  6
CONTINUOUS
 62
     5
 10
88.49673027855528
 20
148.3700317017152
 30
0.0
 40
16.00000000000001
 50
39.3921755971
 51
172.0
  0
ARC
  5
509
  8
PAL_2
  6
CONTINUOUS
 62
     5
 10
31.52331142795526
 20
101.5845662980151
 30
0.0
 40
89.721436696278
 50
30.07280501419999
 51
39.39217559709996
  0
ARC
  5
50A
  8
PAL_2
  6
CONTINUOUS
 62
     5
 10
-66.70002555344473
 20
44.70875913391515
 30
0.0
 40
203.2233369814007
 50
312.3484485044
 51
30.07280501419999
  0
ARC
  5
50B
  8
PAL_2
  6
CONTINUOUS
 62
     5
 10
31.52331142795526
 20
-63.05407985898485
 30
0.0
 40
57.41300334360812
 50
227.6515514955999
 51
312.3484485044
  0
POLYLINE
  5
50C
  8
PAL_2
  6
CONTINUOUS
 62
     5
 66
     1
 10
0.0
 20
0.0
 30
0.0
 70
     1
  0
VERTEX
  5
50D
  8
PAL_2
  6
CONTINUOUS
 62
     5
 10
16.97567666276927
 20
110.6590725381482
 30
0.0
  0
VERTEX
  5
50E
  8
PAL_2
  6
CONTINUOUS
 62
     5
 10
16.65173262873161
 20
110.804693551589
 30
0.0
  0
VERTEX
  5
50F
  8
PAL_2
  6
CONTINUOUS
 62
     5
 10
16.32081861921281
 20
110.9424984403
 30
0.0
  0
VERTEX
  5
510
  8
PAL_2
  6
CONTINUOUS
 62
     5
 10
15.98303890007966
 20
111.0721557198336
 30
0.0
  0
VERTEX
  5
511
  8
PAL_2
  6
CONTINUOUS
 62
     5
 10
15.63851364469327
 20
111.193336603344
 30
0.0
  0
VERTEX
  5
512
  8
PAL_2
  6
CONTINUOUS
 62
     5
 10
15.28737927572457
 20
111.3057161022574
 30
0.0
  0
VERTEX
  5
513
  8
PAL_2
  6
CONTINUOUS
 62
     5
 10
14.92978875150455
 20
111.4089741674414
 30
0.0
  0
VERTEX
  5
514
  8
PAL_2
  6
CONTINUOUS
 62
     5
 10
14.56591179172882
 20
111.5027968660533
 30
0.0
  0
VERTEX
  5
515
  8
PAL_2
  6
CONTINUOUS
 62
     5
 10
14.19593503750015
 20
111.5868775886161
 30
0.0
  0
VERTEX
  5
516
  8
PAL_2
  6
CONTINUOUS
 62
     5
 10
13.820062140925
 20
111.660918280242
 30
0.0
  0
VERTEX
  5
517
  8
PAL_2
  6
CONTINUOUS
 62
     5
 10
13.43851377978332
 20
111.7246306893296
 30
0.0
  0
VERTEX
  5
518
  8
PAL_2
  6
CONTINUOUS
 62
     5
 10
13.05152759316555
 20
111.7777376264825
 30
0.0
  0
VERTEX
  5
519
  8
PAL_2
  6
CONTINUOUS
 62
     5
 10
12.65935803441836
 20
111.8199742258777
 30
0.0
  0
VERTEX
  5
51A
  8
PAL_2
  6
CONTINUOUS
 62
     5
 10
12.26227613825955
 20
111.8510892008353
 30
0.0
  0
VERTEX
  5
51B
  8
PAL_2
  6
CONTINUOUS
 62
     5
 10
11.86056919951078
 20
111.8708460849293
 30
0.0
  0
VERTEX
  5
51C
  8
PAL_2
  6
CONTINUOUS
 62
     5
 10
11.45454036155061
 20
111.8790244496483
 30
0.0
  0
VERTEX
  5
51D
  8
PAL_2
  6
CONTINUOUS
 62
     5
 10
11.04450811330544
 20
111.8754210893601
 30
0.0
  0
VERTEX
  5
51E
  8
PAL_2
  6
CONTINUOUS
 62
     5
 10
10.63080569436431
 20
111.8598511641762
 30
0.0
  0
VERTEX
  5
51F
  8
PAL_2
  6
CONTINUOUS
 62
     5
 10
10.21378040861943
 20
111.8321492912577
 30
0.0
  0
VERTEX
  5
520
  8
PAL_2
  6
CONTINUOUS
 62
     5
 10
9.793792847686285
 20
111.7921705751528
 30
0.0
  0
VERTEX
  5
521
  8
PAL_2
  6
CONTINUOUS
 62
     5
 10
9.371216026236612
 20
111.7397915679213
 30
0.0
  0
VERTEX
  5
522
  8
PAL_2
  6
CONTINUOUS
 62
     5
 10
8.946434432271513
 20
111.6749111500844
 30
0.0
  0
VERTEX
  5
523
  8
PAL_2
  6
CONTINUOUS
 62
     5
 10
8.519842996258737
 20
111.5974513238348
 30
0.0
  0
VERTEX
  5
524
  8
PAL_2
  6
CONTINUOUS
 62
     5
 10
8.091845983944204
 20
111.5073579104636
 30
0.0
  0
VERTEX
  5
525
  8
PAL_2
  6
CONTINUOUS
 62
     5
 10
7.662855818509437
 20
111.4046011445898
 30
0.0
  0
VERTEX
  5
526
  8
PAL_2
  6
CONTINUOUS
 62
     5
 10
7.233291838570078
 20
111.289176158526
 30
0.0
  0
VERTEX
  5
527
  8
PAL_2
  6
CONTINUOUS
 62
     5
 10
6.803578999282036
 20
111.1611033509557
 30
0.0
  0
VERTEX
  5
528
  8
PAL_2
  6
CONTINUOUS
 62
     5
 10
6.374146524528124
 20
111.0204286350448
 30
0.0
  0
VERTEX
  5
529
  8
PAL_2
  6
CONTINUOUS
 62
     5
 10
5.945426518786196
 20
110.8672235621275
 30
0.0
  0
VERTEX
  5
52A
  8
PAL_2
  6
CONTINUOUS
 62
     5
 10
5.517852547818854
 20
110.7015853182052
 30
0.0
  0
VERTEX
  5
52B
  8
PAL_2
  6
CONTINUOUS
 62
     5
 10
5.091858197763911
 20
110.523636591643
 30
0.0
  0
VERTEX
  5
52C
  8
PAL_2
  6
CONTINUOUS
 62
     5
 10
4.667875622535941
 20
110.3335253116341
 30
0.0
  0
VERTEX
  5
52D
  8
PAL_2
  6
CONTINUOUS
 62
     5
 10
4.24633408966508
 20
110.1314242582128
 30
0.0
  0
VERTEX
  5
52E
  8
PAL_2
  6
CONTINUOUS
 62
     5
 10
3.827658534795407
 20
109.9175305458067
 30
0.0
  0
VERTEX
  5
52F
  8
PAL_2
  6
CONTINUOUS
 62
     5
 10
3.412268135038776
 20
109.6920649835146
 30
0.0
  0
VERTEX
  5
530
  8
PAL_2
  6
CONTINUOUS
 62
     5
 10
3.0005749112306
 20
109.4552713164618
 30
0.0
  0
VERTEX
  5
531
  8
PAL_2
  6
CONTINUOUS
 62
     5
 10
2.592982368863664
 20
109.2074153536955
 30
0.0
  0
VERTEX
  5
532
  8
PAL_2
  6
CONTINUOUS
 62
     5
 10
2.1898841870885
 20
108.9487839891302
 30
0.0
  0
VERTEX
  5
533
  8
PAL_2
  6
CONTINUOUS
 62
     5
 10
1.791662964670583
 20
108.6796841230137
 30
0.0
  0
VERTEX
  5
534
  8
PAL_2
  6
CONTINUOUS
 62
     5
 10
1.398689031193547
 20
108.4004414922535
 30
0.0
  0
VERTEX
  5
535
  8
PAL_2
  6
CONTINUOUS
 62
     5
 10
1.011319331104046
 20
108.1113994186982
 30
0.0
  0
VERTEX
  5
536
  8
PAL_2
  6
CONTINUOUS
 62
     5
 10
0.6298963874190718
 20
107.8129174851088
 30
0.0
  0
VERTEX
  5
537
  8
PAL_2
  6
CONTINUOUS
 62
     5
 10
0.2547473510735147
 20
107.5053701490685
 30
0.0
  0
VERTEX
  5
538
  8
PAL_2
  6
CONTINUOUS
 62
     5
 10
-0.1138168590117914
 20
107.1891453054616
 30
0.0
  0
VERTEX
  5
539
  8
PAL_2
  6
CONTINUOUS
 62
     5
 10
-0.4755023209988506
 20
106.8646428084001
 30
0.0
  0
VERTEX
  5
53A
  8
PAL_2
  6
CONTINUOUS
 62
     5
 10
-0.830032777158202
 20
106.5322729635926
 30
0.0
  0
VERTEX
  5
53B
  8
PAL_2
  6
CONTINUOUS
 62
     5
 10
-1.177150200644837
 20
106.1924550021306
 30
0.0
  0
VERTEX
  5
53C
  8
PAL_2
  6
CONTINUOUS
 62
     5
 10
-1.516615260786815
 20
105.8456155465287
 30
0.0
  0
VERTEX
  5
53D
  8
PAL_2
  6
CONTINUOUS
 62
     5
 10
-1.848207686600305
 20
105.492187079583
 30
0.0
  0
VERTEX
  5
53E
  8
PAL_2
  6
CONTINUOUS
 62
     5
 10
-2.171726529165119
 20
105.1326064262438
 30
0.0
  0
VERTEX
  5
53F
  8
PAL_2
  6
CONTINUOUS
 62
     5
 10
-2.486990324372362
 20
104.7673132582132
 30
0.0
  0
VERTEX
  5
540
  8
PAL_2
  6
CONTINUOUS
 62
     5
 10
-2.793837158379959
 20
104.3967486304127
 30
0.0
  0
VERTEX
  5
541
  8
PAL_2
  6
CONTINUOUS
 62
     5
 10
-3.092124638873501
 20
104.0213535578175
 30
0.0
  0
VERTEX
  5
542
  8
PAL_2
  6
CONTINUOUS
 62
     5
 10
-3.381729775921376
 20
103.6415676404395
 30
0.0
  0
VERTEX
  5
543
  8
PAL_2
  6
CONTINUOUS
 62
     5
 10
-3.662548776828675
 20
103.2578277434764
 30
0.0
  0
VERTEX
  5
544
  8
PAL_2
  6
CONTINUOUS
 62
     5
 10
-3.934496759929557
 20
102.8705667388427
 30
0.0
  0
VERTEX
  5
545
  8
PAL_2
  6
CONTINUOUS
 62
     5
 10
-4.197507392709801
 20
102.480212313465
 30
0.0
  0
VERTEX
  5
546
  8
PAL_2
  6
CONTINUOUS
 62
     5
 10
-4.451532460019264
 20
102.0871858488862
 30
0.0
  0
VERTEX
  5
547
  8
PAL_2
  6
CONTINUOUS
 62
     5
 10
-4.696541368418037
 20
101.6919013758796
 30
0.0
  0
VERTEX
  5
548
  8
PAL_2
  6
CONTINUOUS
 62
     5
 10
-4.932520592901972
 20
101.294764606945
 30
0.0
  0
VERTEX
  5
549
  8
PAL_2
  6
CONTINUOUS
 62
     5
 10
-5.15947307237604
 20
100.8961720487464
 30
0.0
  0
VERTEX
  5
54A
  8
PAL_2
  6
CONTINUOUS
 62
     5
 10
-5.377417560291247
 20
100.4965101957774
 30
0.0
  0
VERTEX
  5
54B
  8
PAL_2
  6
CONTINUOUS
 62
     5
 10
-5.586387936837946
 20
100.0961548057947
 30
0.0
  0
VERTEX
  5
54C
  8
PAL_2
  6
CONTINUOUS
 62
     5
 10
-5.786432489000431
 20
99.69547025687028
 30
0.0
  0
VERTEX
  5
54D
  8
PAL_2
  6
CONTINUOUS
 62
     5
 10
-5.977613164631123
 20
99.29480898526634
 30
0.0
  0
VERTEX
  5
54E
  8
PAL_2
  6
CONTINUOUS
 62
     5
 10
-6.16164893580939
 20
98.89081598999947
 30
0.0
  0
VERTEX
  5
54F
  8
PAL_2
  6
CONTINUOUS
 62
     5
 10
-6.340004948441222
 20
98.48001790899771
 30
0.0
  0
VERTEX
  5
550
  8
PAL_2
  6
CONTINUOUS
 62
     5
 10
-6.512371401374494
 20
98.0625938291155
 30
0.0
  0
VERTEX
  5
551
  8
PAL_2
  6
CONTINUOUS
 62
     5
 10
-6.678438126536667
 20
97.63874097808679
 30
0.0
  0
VERTEX
  5
552
  8
PAL_2
  6
CONTINUOUS
 62
     5
 10
-6.837895499019668
 20
97.20867493461034
 30
0.0
  0
VERTEX
  5
553
  8
PAL_2
  6
CONTINUOUS
 62
     5
 10
-6.990435392378562
 20
96.77262976658078
 30
0.0
  0
VERTEX
  5
554
  8
PAL_2
  6
CONTINUOUS
 62
     5
 10
-7.135752175794889
 20
96.33085809223715
 30
0.0
  0
VERTEX
  5
555
  8
PAL_2
  6
CONTINUOUS
 62
     5
 10
-7.273543749167906
 20
95.88363105930163
 30
0.0
  0
VERTEX
  5
556
  8
PAL_2
  6
CONTINUOUS
 62
     5
 10
-7.403512611608423
 20
95.43123823756004
 30
0.0
  0
VERTEX
  5
557
  8
PAL_2
  6
CONTINUOUS
 62
     5
 10
-7.525366958228227
 20
94.97398742079494
 30
0.0
  0
VERTEX
  5
558
  8
PAL_2
  6
CONTINUOUS
 62
     5
 10
-7.638821799552096
 20
94.51220433451742
 30
0.0
  0
VERTEX
  5
559
  8
PAL_2
  6
CONTINUOUS
 62
     5
 10
-7.743600097338474
 20
94.0462322465591
 30
0.0
  0
VERTEX
  5
55A
  8
PAL_2
  6
CONTINUOUS
 62
     5
 10
-7.839433910088356
 20
93.57643147827352
 30
0.0
  0
VERTEX
  5
55B
  8
PAL_2
  6
CONTINUOUS
 62
     5
 10
-7.926065541059746
 20
93.1031788148551
 30
0.0
  0
VERTEX
  5
55C
  8
PAL_2
  6
CONTINUOUS
 62
     5
 10
-8.003248681196991
 20
92.62686681410675
 30
0.0
  0
VERTEX
  5
55D
  8
PAL_2
  6
CONTINUOUS
 62
     5
 10
-8.070749539039777
 20
92.14790301386627
 30
0.0
  0
VERTEX
  5
55E
  8
PAL_2
  6
CONTINUOUS
 62
     5
 10
-8.12834794940476
 20
91.6667090392283
 30
0.0
  0
VERTEX
  5
55F
  8
PAL_2
  6
CONTINUOUS
 62
     5
 10
-8.175838452442282
 20
91.18371961166216
 30
0.0
  0
VERTEX
  5
560
  8
PAL_2
  6
CONTINUOUS
 62
     5
 10
-8.213031334568672
 20
90.69938146311378
 30
0.0
  0
VERTEX
  5
561
  8
PAL_2
  6
CONTINUOUS
 62
     5
 10
-8.23975362276808
 20
90.21415215918073
 30
0.0
  0
VERTEX
  5
562
  8
PAL_2
  6
CONTINUOUS
 62
     5
 10
-8.255850023851183
 20
89.72849883644521
 30
0.0
  0
VERTEX
  5
563
  8
PAL_2
  6
CONTINUOUS
 62
     5
 10
-8.261183800455704
 20
89.24289686003121
 30
0.0
  0
VERTEX
  5
564
  8
PAL_2
  6
CONTINUOUS
 62
     5
 10
-8.255637575876692
 20
88.75782840839842
 30
0.0
  0
VERTEX
  5
565
  8
PAL_2
  6
CONTINUOUS
 62
     5
 10
-8.239114060223413
 20
88.27378099328388
 30
0.0
  0
VERTEX
  5
566
  8
PAL_2
  6
CONTINUOUS
 62
     5
 10
-8.211536690912485
 20
87.79124592353824
 30
0.0
  0
VERTEX
  5
567
  8
PAL_2
  6
CONTINUOUS
 62
     5
 10
-8.172850181119397
 20
87.31071672235865
 30
0.0
  0
VERTEX
  5
568
  8
PAL_2
  6
CONTINUOUS
 62
     5
 10
-8.123020970517558
 20
86.83268750808536
 30
0.0
  0
VERTEX
  5
569
  8
PAL_2
  6
CONTINUOUS
 62
     5
 10
-8.062037573426869
 20
86.35765134928621
 30
0.0
  0
VERTEX
  5
56A
  8
PAL_2
  6
CONTINUOUS
 62
     5
 10
-7.989910820363753
 20
85.88609860529624
 30
0.0
  0
VERTEX
  5
56B
  8
PAL_2
  6
CONTINUOUS
 62
     5
 10
-7.906673989919527
 20
85.41851526369445
 30
0.0
  0
VERTEX
  5
56C
  8
PAL_2
  6
CONTINUOUS
 62
     5
 10
-7.812382828881804
 20
84.9553812863835
 30
0.0
  0
VERTEX
  5
56D
  8
PAL_2
  6
CONTINUOUS
 62
     5
 10
-7.70711545953975
 20
84.49716897598131
 30
0.0
  0
VERTEX
  5
56E
  8
PAL_2
  6
CONTINUOUS
 62
     5
 10
-7.590972174163955
 20
84.04434137413793
 30
0.0
  0
VERTEX
  5
56F
  8
PAL_2
  6
CONTINUOUS
 62
     5
 10
-7.464075117709487
 20
83.59735070315391
 30
0.0
  0
VERTEX
  5
570
  8
PAL_2
  6
CONTINUOUS
 62
     5
 10
-7.32656786084075
 20
83.15663686190057
 30
0.0
  0
VERTEX
  5
571
  8
PAL_2
  6
CONTINUOUS
 62
     5
 10
-7.178614866403101
 20
82.72262598653525
 30
0.0
  0
VERTEX
  5
572
  8
PAL_2
  6
CONTINUOUS
 62
     5
 10
-7.020400853453436
 20
82.2957290858703
 30
0.0
  0
VERTEX
  5
573
  8
PAL_2
  6
CONTINUOUS
 62
     5
 10
-6.852130063895493
 20
81.87634076050652
 30
0.0
  0
VERTEX
  5
574
  8
PAL_2
  6
CONTINUOUS
 62
     5
 10
-6.674025437631752
 20
81.46483801398911
 30
0.0
  0
VERTEX
  5
575
  8
PAL_2
  6
CONTINUOUS
 62
     5
 10
-6.486327702930384
 20
81.06157916330241
 30
0.0
  0
VERTEX
  5
576
  8
PAL_2
  6
CONTINUOUS
 62
     5
 10
-6.289294389401988
 20
80.66690285500336
 30
0.0
  0
VERTEX
  5
577
  8
PAL_2
  6
CONTINUOUS
 62
     5
 10
-6.083198771578008
 20
80.28112719221888
 30
0.0
  0
VERTEX
  5
578
  8
PAL_2
  6
CONTINUOUS
 62
     5
 10
-5.868328751574047
 20
79.90454897661748
 30
0.0
  0
VERTEX
  5
579
  8
PAL_2
  6
CONTINUOUS
 62
     5
 10
-5.644985689701581
 20
79.53744306832441
 30
0.0
  0
VERTEX
  5
57A
  8
PAL_2
  6
CONTINUOUS
 62
     5
 10
-5.413483192158761
 20
79.18006186560594
 30
0.0
  0
VERTEX
  5
57B
  8
PAL_2
  6
CONTINUOUS
 62
     5
 10
-5.174145865083688
 20
78.83263490501058
 30
0.0
  0
VERTEX
  5
57C
  8
PAL_2
  6
CONTINUOUS
 62
     5
 10
-4.927308044294087
 20
78.49536858154849
 30
0.0
  0
VERTEX
  5
57D
  8
PAL_2
  6
CONTINUOUS
 62
     5
 10
-4.673312509968305
 20
78.1684459874218
 30
0.0
  0
VERTEX
  5
57E
  8
PAL_2
  6
CONTINUOUS
 62
     5
 10
-4.412509195349744
 20
77.85202686680749
 30
0.0
  0
VERTEX
  5
57F
  8
PAL_2
  6
CONTINUOUS
 62
     5
 10
-4.145253898286698
 20
77.54624768325095
 30
0.0
  0
VERTEX
  5
580
  8
PAL_2
  6
CONTINUOUS
 62
     5
 10
-3.871907004060348
 20
77.25122179536172
 30
0.0
  0
VERTEX
  5
581
  8
PAL_2
  6
CONTINUOUS
 62
     5
 10
-3.592832227514592
 20
76.96703973572455
 30
0.0
  0
VERTEX
  5
582
  8
PAL_2
  6
CONTINUOUS
 62
     5
 10
-3.308395381992675
 20
76.69376958725243
 30
0.0
  0
VERTEX
  5
583
  8
PAL_2
  6
CONTINUOUS
 62
     5
 10
-3.018963182017941
 20
76.43145745062031
 30
0.0
  0
VERTEX
  5
584
  8
PAL_2
  6
CONTINUOUS
 62
     5
 10
-2.724902086040587
 20
76.18012799593136
 30
0.0
  0
VERTEX
  5
585
  8
PAL_2
  6
CONTINUOUS
 62
     5
 10
-2.426577184920324
 20
75.93978509138073
 30
0.0
  0
VERTEX
  5
586
  8
PAL_2
  6
CONTINUOUS
 62
     5
 10
-2.124351141137495
 20
75.71041250139746
 30
0.0
  0
VERTEX
  5
587
  8
PAL_2
  6
CONTINUOUS
 62
     5
 10
-1.818583183033094
 20
75.49197464655741
 30
0.0
  0
VERTEX
  5
588
  8
PAL_2
  6
CONTINUOUS
 62
     5
 10
-1.509628157681743
 20
75.28441741746711
 30
0.0
  0
VERTEX
  5
589
  8
PAL_2
  6
CONTINUOUS
 62
     5
 10
-1.197835645310447
 20
75.08766903481488
 30
0.0
  0
VERTEX
  5
58A
  8
PAL_2
  6
CONTINUOUS
 62
     5
 10
-0.8835491374986676
 20
74.90164094786329
 30
0.0
  0
VERTEX
  5
58B
  8
PAL_2
  6
CONTINUOUS
 62
     5
 10
-0.5671052807398431
 20
74.72622876381288
 30
0.0
  0
VERTEX
  5
58C
  8
PAL_2
  6
CONTINUOUS
 62
     5
 10
-0.2488331863177281
 20
74.56131320068852
 30
0.0
  0
VERTEX
  5
58D
  8
PAL_2
  6
CONTINUOUS
 62
     5
 10
0.0709461931412534
 20
74.40676105668217
 30
0.0
  0
VERTEX
  5
58E
  8
PAL_2
  6
CONTINUOUS
 62
     5
 10
0.3948902271789254
 20
74.26114004324135
 30
0.0
  0
VERTEX
  5
58F
  8
PAL_2
  6
CONTINUOUS
 62
     5
 10
0.7258042366977155
 20
74.12333515453028
 30
0.0
  0
VERTEX
  5
590
  8
PAL_2
  6
CONTINUOUS
 62
     5
 10
1.063583955830869
 20
73.99367787499669
 30
0.0
  0
VERTEX
  5
591
  8
PAL_2
  6
CONTINUOUS
 62
     5
 10
1.408109211217257
 20
73.87249699148637
 30
0.0
  0
VERTEX
  5
592
  8
PAL_2
  6
CONTINUOUS
 62
     5
 10
1.75924358018596
 20
73.76011749257299
 30
0.0
  0
VERTEX
  5
593
  8
PAL_2
  6
CONTINUOUS
 62
     5
 10
2.116834104405984
 20
73.656859427389
 30
0.0
  0
VERTEX
  5
594
  8
PAL_2
  6
CONTINUOUS
 62
     5
 10
2.48071106418171
 20
73.56303672877698
 30
0.0
  0
VERTEX
  5
595
  8
PAL_2
  6
CONTINUOUS
 62
     5
 10
2.850687818410387
 20
73.47895600621428
 30
0.0
  0
VERTEX
  5
596
  8
PAL_2
  6
CONTINUOUS
 62
     5
 10
3.226560714985541
 20
73.40491531458828
 30
0.0
  0
VERTEX
  5
597
  8
PAL_2
  6
CONTINUOUS
 62
     5
 10
3.608109076127222
 20
73.3412029055007
 30
0.0
  0
VERTEX
  5
598
  8
PAL_2
  6
CONTINUOUS
 62
     5
 10
3.995095262744992
 20
73.28809596834789
 30
0.0
  0
VERTEX
  5
599
  8
PAL_2
  6
CONTINUOUS
 62
     5
 10
4.387264821492181
 20
73.24585936895261
 30
0.0
  0
VERTEX
  5
59A
  8
PAL_2
  6
CONTINUOUS
 62
     5
 10
4.784346717650983
 20
73.21474439399503
 30
0.0
  0
VERTEX
  5
59B
  8
PAL_2
  6
CONTINUOUS
 62
     5
 10
5.186053656399761
 20
73.19498750990105
 30
0.0
  0
VERTEX
  5
59C
  8
PAL_2
  6
CONTINUOUS
 62
     5
 10
5.592082494359932
 20
73.18680914518201
 30
0.0
  0
VERTEX
  5
59D
  8
PAL_2
  6
CONTINUOUS
 62
     5
 10
6.002114742605108
 20
73.19041250547025
 30
0.0
  0
VERTEX
  5
59E
  8
PAL_2
  6
CONTINUOUS
 62
     5
 10
6.415817161546235
 20
73.20598243065416
 30
0.0
  0
VERTEX
  5
59F
  8
PAL_2
  6
CONTINUOUS
 62
     5
 10
6.832842447291116
 20
73.23368430357266
 30
0.0
  0
VERTEX
  5
5A0
  8
PAL_2
  6
CONTINUOUS
 62
     5
 10
7.252830008224263
 20
73.27366301967763
 30
0.0
  0
VERTEX
  5
5A1
  8
PAL_2
  6
CONTINUOUS
 62
     5
 10
7.675406829673936
 20
73.32604202690906
 30
0.0
  0
VERTEX
  5
5A2
  8
PAL_2
  6
CONTINUOUS
 62
     5
 10
8.100188423639038
 20
73.39092244474598
 30
0.0
  0
VERTEX
  5
5A3
  8
PAL_2
  6
CONTINUOUS
 62
     5
 10
8.526779859651812
 20
73.46838227099553
 30
0.0
  0
VERTEX
  5
5A4
  8
PAL_2
  6
CONTINUOUS
 62
     5
 10
8.954776871966347
 20
73.55847568436678
 30
0.0
  0
VERTEX
  5
5A5
  8
PAL_2
  6
CONTINUOUS
 62
     5
 10
9.383767037401109
 20
73.66123245024049
 30
0.0
  0
VERTEX
  5
5A6
  8
PAL_2
  6
CONTINUOUS
 62
     5
 10
9.813331017340468
 20
73.77665743630433
 30
0.0
  0
VERTEX
  5
5A7
  8
PAL_2
  6
CONTINUOUS
 62
     5
 10
10.24304385662851
 20
73.90473024387458
 30
0.0
  0
VERTEX
  5
5A8
  8
PAL_2
  6
CONTINUOUS
 62
     5
 10
10.67247633138243
 20
74.0454049597855
 30
0.0
  0
VERTEX
  5
5A9
  8
PAL_2
  6
CONTINUOUS
 62
     5
 10
11.10119633712435
 20
74.19861003270287
 30
0.0
  0
VERTEX
  5
5AA
  8
PAL_2
  6
CONTINUOUS
 62
     5
 10
11.5287703080917
 20
74.36424827662513
 30
0.0
  0
VERTEX
  5
5AB
  8
PAL_2
  6
CONTINUOUS
 62
     5
 10
11.95476465814664
 20
74.5421970031873
 30
0.0
  0
VERTEX
  5
5AC
  8
PAL_2
  6
CONTINUOUS
 62
     5
 10
12.37874723337461
 20
74.7323082831962
 30
0.0
  0
VERTEX
  5
5AD
  8
PAL_2
  6
CONTINUOUS
 62
     5
 10
12.80028876624547
 20
74.93440933661749
 30
0.0
  0
VERTEX
  5
5AE
  8
PAL_2
  6
CONTINUOUS
 62
     5
 10
13.21896432111514
 20
75.14830304902362
 30
0.0
  0
VERTEX
  5
5AF
  8
PAL_2
  6
CONTINUOUS
 62
     5
 10
13.63435472087177
 20
75.37376861131575
 30
0.0
  0
VERTEX
  5
5B0
  8
PAL_2
  6
CONTINUOUS
 62
     5
 10
14.04604794467995
 20
75.61056227836858
 30
0.0
  0
VERTEX
  5
5B1
  8
PAL_2
  6
CONTINUOUS
 62
     5
 10
14.45364048704689
 20
75.8584182411348
 30
0.0
  0
VERTEX
  5
5B2
  8
PAL_2
  6
CONTINUOUS
 62
     5
 10
14.85673866882205
 20
76.11704960570015
 30
0.0
  0
VERTEX
  5
5B3
  8
PAL_2
  6
CONTINUOUS
 62
     5
 10
15.25495989123996
 20
76.38614947181665
 30
0.0
  0
VERTEX
  5
5B4
  8
PAL_2
  6
CONTINUOUS
 62
     5
 10
15.647933824717
 20
76.66539210257679
 30
0.0
  0
VERTEX
  5
5B5
  8
PAL_2
  6
CONTINUOUS
 62
     5
 10
16.0353035248065
 20
76.95443417613205
 30
0.0
  0
VERTEX
  5
5B6
  8
PAL_2
  6
CONTINUOUS
 62
     5
 10
16.41672646849148
 20
77.25291610972153
 30
0.0
  0
VERTEX
  5
5B7
  8
PAL_2
  6
CONTINUOUS
 62
     5
 10
16.79187550483703
 20
77.56046344576185
 30
0.0
  0
VERTEX
  5
5B8
  8
PAL_2
  6
CONTINUOUS
 62
     5
 10
17.16043971492234
 20
77.87668828936879
 30
0.0
  0
VERTEX
  5
5B9
  8
PAL_2
  6
CONTINUOUS
 62
     5
 10
17.5221251769094
 20
78.2011907864302
 30
0.0
  0
VERTEX
  5
5BA
  8
PAL_2
  6
CONTINUOUS
 62
     5
 10
17.87665563306875
 20
78.53356063123779
 30
0.0
  0
VERTEX
  5
5BB
  8
PAL_2
  6
CONTINUOUS
 62
     5
 10
18.22377305655538
 20
78.8733785926997
 30
0.0
  0
VERTEX
  5
5BC
  8
PAL_2
  6
CONTINUOUS
 62
     5
 10
18.56323811669736
 20
79.22021804830162
 30
0.0
  0
VERTEX
  5
5BD
  8
PAL_2
  6
CONTINUOUS
 62
     5
 10
18.89483054251085
 20
79.57364651524732
 30
0.0
  0
VERTEX
  5
5BE
  8
PAL_2
  6
CONTINUOUS
 62
     5
 10
19.21834938507566
 20
79.93322716858651
 30
0.0
  0
VERTEX
  5
5BF
  8
PAL_2
  6
CONTINUOUS
 62
     5
 10
19.53361318028291
 20
80.29852033661714
 30
0.0
  0
VERTEX
  5
5C0
  8
PAL_2
  6
CONTINUOUS
 62
     5
 10
19.8404600142905
 20
80.66908496441764
 30
0.0
  0
VERTEX
  5
5C1
  8
PAL_2
  6
CONTINUOUS
 62
     5
 10
20.13874749478405
 20
81.04448003701278
 30
0.0
  0
VERTEX
  5
5C2
  8
PAL_2
  6
CONTINUOUS
 62
     5
 10
20.42835263183192
 20
81.42426595439089
 30
0.0
  0
VERTEX
  5
5C3
  8
PAL_2
  6
CONTINUOUS
 62
     5
 10
20.70917163273921
 20
81.80800585135397
 30
0.0
  0
VERTEX
  5
5C4
  8
PAL_2
  6
CONTINUOUS
 62
     5
 10
20.98111961584009
 20
82.19526685598764
 30
0.0
  0
VERTEX
  5
5C5
  8
PAL_2
  6
CONTINUOUS
 62
     5
 10
21.24413024862034
 20
82.58562128136532
 30
0.0
  0
VERTEX
  5
5C6
  8
PAL_2
  6
CONTINUOUS
 62
     5
 10
21.4981553159298
 20
82.97864774594416
 30
0.0
  0
VERTEX
  5
5C7
  8
PAL_2
  6
CONTINUOUS
 62
     5
 10
21.74316422432857
 20
83.37393221895073
 30
0.0
  0
VERTEX
  5
5C8
  8
PAL_2
  6
CONTINUOUS
 62
     5
 10
21.9791434488125
 20
83.77106898788536
 30
0.0
  0
VERTEX
  5
5C9
  8
PAL_2
  6
CONTINUOUS
 62
     5
 10
22.20609592828657
 20
84.16966154608387
 30
0.0
  0
VERTEX
  5
5CA
  8
PAL_2
  6
CONTINUOUS
 62
     5
 10
22.42404041620178
 20
84.56932339905289
 30
0.0
  0
VERTEX
  5
5CB
  8
PAL_2
  6
CONTINUOUS
 62
     5
 10
22.63301079274847
 20
84.96967878903564
 30
0.0
  0
VERTEX
  5
5CC
  8
PAL_2
  6
CONTINUOUS
 62
     5
 10
22.83305534491096
 20
85.37036333796007
 30
0.0
  0
VERTEX
  5
5CD
  8
PAL_2
  6
CONTINUOUS
 62
     5
 10
23.02423602054165
 20
85.771024609564
 30
0.0
  0
VERTEX
  5
5CE
  8
PAL_2
  6
CONTINUOUS
 62
     5
 10
23.20827179171992
 20
86.17501760483087
 30
0.0
  0
VERTEX
  5
5CF
  8
PAL_2
  6
CONTINUOUS
 62
     5
 10
23.38662780435175
 20
86.5858156858326
 30
0.0
  0
VERTEX
  5
5D0
  8
PAL_2
  6
CONTINUOUS
 62
     5
 10
23.55899425728503
 20
87.00323976571482
 30
0.0
  0
VERTEX
  5
5D1
  8
PAL_2
  6
CONTINUOUS
 62
     5
 10
23.7250609824472
 20
87.42709261674351
 30
0.0
  0
VERTEX
  5
5D2
  8
PAL_2
  6
CONTINUOUS
 62
     5
 10
23.8845183549302
 20
87.85715866021997
 30
0.0
  0
VERTEX
  5
5D3
  8
PAL_2
  6
CONTINUOUS
 62
     5
 10
24.0370582482891
 20
88.29320382824956
 30
0.0
  0
VERTEX
  5
5D4
  8
PAL_2
  6
CONTINUOUS
 62
     5
 10
24.18237503170543
 20
88.73497550259316
 30
0.0
  0
VERTEX
  5
5D5
  8
PAL_2
  6
CONTINUOUS
 62
     5
 10
24.32016660507844
 20
89.1822025355287
 30
0.0
  0
VERTEX
  5
5D6
  8
PAL_2
  6
CONTINUOUS
 62
     5
 10
24.45013546751895
 20
89.63459535727029
 30
0.0
  0
VERTEX
  5
5D7
  8
PAL_2
  6
CONTINUOUS
 62
     5
 10
24.57198981413876
 20
90.09184617403544
 30
0.0
  0
VERTEX
  5
5D8
  8
PAL_2
  6
CONTINUOUS
 62
     5
 10
24.68544465546263
 20
90.55362926031297
 30
0.0
  0
VERTEX
  5
5D9
  8
PAL_2
  6
CONTINUOUS
 62
     5
 10
24.79022295324901
 20
91.01960134827127
 30
0.0
  0
VERTEX
  5
5DA
  8
PAL_2
  6
CONTINUOUS
 62
     5
 10
24.88605676599889
 20
91.48940211655682
 30
0.0
  0
VERTEX
  5
5DB
  8
PAL_2
  6
CONTINUOUS
 62
     5
 10
24.97268839697029
 20
91.96265477997525
 30
0.0
  0
VERTEX
  5
5DC
  8
PAL_2
  6
CONTINUOUS
 62
     5
 10
25.04987153710753
 20
92.43896678072362
 30
0.0
  0
VERTEX
  5
5DD
  8
PAL_2
  6
CONTINUOUS
 62
     5
 10
25.11737239495032
 20
92.9179305809641
 30
0.0
  0
VERTEX
  5
5DE
  8
PAL_2
  6
CONTINUOUS
 62
     5
 10
25.1749708053153
 20
93.39912455560204
 30
0.0
  0
VERTEX
  5
5DF
  8
PAL_2
  6
CONTINUOUS
 62
     5
 10
25.22246130835283
 20
93.88211398316822
 30
0.0
  0
VERTEX
  5
5E0
  8
PAL_2
  6
CONTINUOUS
 62
     5
 10
25.25965419047922
 20
94.3664521317166
 30
0.0
  0
VERTEX
  5
5E1
  8
PAL_2
  6
CONTINUOUS
 62
     5
 10
25.28637647867863
 20
94.85168143564962
 30
0.0
  0
VERTEX
  5
5E2
  8
PAL_2
  6
CONTINUOUS
 62
     5
 10
25.30247287976174
 20
95.33733475838517
 30
0.0
  0
VERTEX
  5
5E3
  8
PAL_2
  6
CONTINUOUS
 62
     5
 10
25.30780665636626
 20
95.82293673479914
 30
0.0
  0
VERTEX
  5
5E4
  8
PAL_2
  6
CONTINUOUS
 62
     5
 10
25.30226043178724
 20
96.30800518643194
 30
0.0
  0
VERTEX
  5
5E5
  8
PAL_2
  6
CONTINUOUS
 62
     5
 10
25.28573691613396
 20
96.79205260154643
 30
0.0
  0
VERTEX
  5
5E6
  8
PAL_2
  6
CONTINUOUS
 62
     5
 10
25.25815954682303
 20
97.27458767129208
 30
0.0
  0
VERTEX
  5
5E7
  8
PAL_2
  6
CONTINUOUS
 62
     5
 10
25.21947303702995
 20
97.75511687247167
 30
0.0
  0
VERTEX
  5
5E8
  8
PAL_2
  6
CONTINUOUS
 62
     5
 10
25.16964382642811
 20
98.233146086745
 30
0.0
  0
VERTEX
  5
5E9
  8
PAL_2
  6
CONTINUOUS
 62
     5
 10
25.10866042933742
 20
98.70818224554414
 30
0.0
  0
VERTEX
  5
5EA
  8
PAL_2
  6
CONTINUOUS
 62
     5
 10
25.0365336762743
 20
99.17973498953414
 30
0.0
  0
VERTEX
  5
5EB
  8
PAL_2
  6
CONTINUOUS
 62
     5
 10
24.95329684583008
 20
99.64731833113592
 30
0.0
  0
VERTEX
  5
5EC
  8
PAL_2
  6
CONTINUOUS
 62
     5
 10
24.85900568479235
 20
100.1104523084469
 30
0.0
  0
VERTEX
  5
5ED
  8
PAL_2
  6
CONTINUOUS
 62
     5
 10
24.7537383154503
 20
100.568664618849
 30
0.0
  0
VERTEX
  5
5EE
  8
PAL_2
  6
CONTINUOUS
 62
     5
 10
24.63759503007451
 20
101.0214922206924
 30
0.0
  0
VERTEX
  5
5EF
  8
PAL_2
  6
CONTINUOUS
 62
     5
 10
24.51069797362004
 20
101.4684828916765
 30
0.0
  0
VERTEX
  5
5F0
  8
PAL_2
  6
CONTINUOUS
 62
     5
 10
24.3731907167513
 20
101.9091967329298
 30
0.0
  0
VERTEX
  5
5F1
  8
PAL_2
  6
CONTINUOUS
 62
     5
 10
24.22523772231365
 20
102.3432076082951
 30
0.0
  0
VERTEX
  5
5F2
  8
PAL_2
  6
CONTINUOUS
 62
     5
 10
24.06702370936399
 20
102.77010450896
 30
0.0
  0
VERTEX
  5
5F3
  8
PAL_2
  6
CONTINUOUS
 62
     5
 10
23.89875291980605
 20
103.1894928343238
 30
0.0
  0
VERTEX
  5
5F4
  8
PAL_2
  6
CONTINUOUS
 62
     5
 10
23.7206482935423
 20
103.6009955808412
 30
0.0
  0
VERTEX
  5
5F5
  8
PAL_2
  6
CONTINUOUS
 62
     5
 10
23.53295055884093
 20
104.0042544315279
 30
0.0
  0
VERTEX
  5
5F6
  8
PAL_2
  6
CONTINUOUS
 62
     5
 10
23.33591724531254
 20
104.398930739827
 30
0.0
  0
VERTEX
  5
5F7
  8
PAL_2
  6
CONTINUOUS
 62
     5
 10
23.12982162748856
 20
104.7847064026115
 30
0.0
  0
VERTEX
  5
5F8
  8
PAL_2
  6
CONTINUOUS
 62
     5
 10
22.9149516074846
 20
105.1612846182129
 30
0.0
  0
VERTEX
  5
5F9
  8
PAL_2
  6
CONTINUOUS
 62
     5
 10
22.69160854561213
 20
105.528390526506
 30
0.0
  0
VERTEX
  5
5FA
  8
PAL_2
  6
CONTINUOUS
 62
     5
 10
22.46010604806931
 20
105.8857717292244
 30
0.0
  0
VERTEX
  5
5FB
  8
PAL_2
  6
CONTINUOUS
 62
     5
 10
22.22076872099423
 20
106.2331986898198
 30
0.0
  0
VERTEX
  5
5FC
  8
PAL_2
  6
CONTINUOUS
 62
     5
 10
21.97393090020463
 20
106.5704650132818
 30
0.0
  0
VERTEX
  5
5FD
  8
PAL_2
  6
CONTINUOUS
 62
     5
 10
21.71993536587885
 20
106.8973876074086
 30
0.0
  0
VERTEX
  5
5FE
  8
PAL_2
  6
CONTINUOUS
 62
     5
 10
21.45913205126029
 20
107.2138067280228
 30
0.0
  0
VERTEX
  5
5FF
  8
PAL_2
  6
CONTINUOUS
 62
     5
 10
21.19187675419724
 20
107.5195859115794
 30
0.0
  0
VERTEX
  5
600
  8
PAL_2
  6
CONTINUOUS
 62
     5
 10
20.91852985997089
 20
107.8146117994686
 30
0.0
  0
VERTEX
  5
601
  8
PAL_2
  6
CONTINUOUS
 62
     5
 10
20.63945508342513
 20
108.0987938591058
 30
0.0
  0
VERTEX
  5
602
  8
PAL_2
  6
CONTINUOUS
 62
     5
 10
20.35501823790322
 20
108.3720640075779
 30
0.0
  0
VERTEX
  5
603
  8
PAL_2
  6
CONTINUOUS
 62
     5
 10
20.06558603792848
 20
108.63437614421
 30
0.0
  0
VERTEX
  5
604
  8
PAL_2
  6
CONTINUOUS
 62
     5
 10
19.77152494195112
 20
108.885705598899
 30
0.0
  0
VERTEX
  5
605
  8
PAL_2
  6
CONTINUOUS
 62
     5
 10
19.47320004083086
 20
109.1260485034496
 30
0.0
  0
VERTEX
  5
606
  8
PAL_2
  6
CONTINUOUS
 62
     5
 10
19.17097399704803
 20
109.3554210934328
 30
0.0
  0
VERTEX
  5
607
  8
PAL_2
  6
CONTINUOUS
 62
     5
 10
18.86520603894363
 20
109.5738589482729
 30
0.0
  0
VERTEX
  5
608
  8
PAL_2
  6
CONTINUOUS
 62
     5
 10
18.55625101359227
 20
109.7814161773632
 30
0.0
  0
VERTEX
  5
609
  8
PAL_2
  6
CONTINUOUS
 62
     5
 10
18.24445850122098
 20
109.9781645600154
 30
0.0
  0
VERTEX
  5
60A
  8
PAL_2
  6
CONTINUOUS
 62
     5
 10
17.9301719934092
 20
110.164192646967
 30
0.0
  0
VERTEX
  5
60B
  8
PAL_2
  6
CONTINUOUS
 62
     5
 10
17.61372813665037
 20
110.3396048310174
 30
0.0
  0
VERTEX
  5
60C
  8
PAL_2
  6
CONTINUOUS
 62
     5
 10
17.29545604222826
 20
110.5045203941418
 30
0.0
  0
SEQEND
  5
60D
  8
PAL_2
  6
CONTINUOUS
 62
     5
  0
POLYLINE
  5
60F
  8
PAL_1
  6
CONTINUOUS
 62
     5
 66
     1
 10
0.0
 20
0.0
 30
0.0
 70
     1
  0
VERTEX
  5
610
  8
PAL_1
  6
CONTINUOUS
 62
     5
 10
-217.2836931101447
 20
117.5106906751151
 30
0.0
  0
VERTEX
  5
611
  8
PAL_1
  6
CONTINUOUS
 62
     5
 10
-217.7775528588582
 20
117.5028687353858
 30
0.0
  0
VERTEX
  5
612
  8
PAL_1
  6
CONTINUOUS
 62
     5
 10
-218.275603542488
 20
117.4791250380201
 30
0.0
  0
VERTEX
  5
613
  8
PAL_1
  6
CONTINUOUS
 62
     5
 10
-218.7775189366127
 20
117.4390526079035
 30
0.0
  0
VERTEX
  5
614
  8
PAL_1
  6
CONTINUOUS
 62
     5
 10
-219.2829543534405
 20
117.382259023574
 30
0.0
  0
VERTEX
  5
615
  8
PAL_1
  6
CONTINUOUS
 62
     5
 10
-219.791546857876
 20
117.3083682301531
 30
0.0
  0
VERTEX
  5
616
  8
PAL_1
  6
CONTINUOUS
 62
     5
 10
-220.3029155772912
 20
117.2170223733319
 30
0.0
  0
VERTEX
  5
617
  8
PAL_1
  6
CONTINUOUS
 62
     5
 10
-220.8166621087015
 20
117.1078836440052
 30
0.0
  0
VERTEX
  5
618
  8
PAL_1
  6
CONTINUOUS
 62
     5
 10
-221.3323710264605
 20
116.9806361223414
 30
0.0
  0
VERTEX
  5
619
  8
PAL_1
  6
CONTINUOUS
 62
     5
 10
-221.8496104929333
 20
116.8349876093339
 30
0.0
  0
VERTEX
  5
61A
  8
PAL_1
  6
CONTINUOUS
 62
     5
 10
-222.367932973871
 20
116.6706714332223
 30
0.0
  0
VERTEX
  5
61B
  8
PAL_1
  6
CONTINUOUS
 62
     5
 10
-222.8868760594009
 20
116.4874482175975
 30
0.0
  0
VERTEX
  5
61C
  8
PAL_1
  6
CONTINUOUS
 62
     5
 10
-223.4059633906743
 20
116.2851075975534
 30
0.0
  0
VERTEX
  5
61D
  8
PAL_1
  6
CONTINUOUS
 62
     5
 10
-223.9247056912828
 20
116.0634698699099
 30
0.0
  0
VERTEX
  5
61E
  8
PAL_1
  6
CONTINUOUS
 62
     5
 10
-224.4426019015671
 20
115.8223875633384
 30
0.0
  0
VERTEX
  5
61F
  8
PAL_1
  6
CONTINUOUS
 62
     5
 10
-224.9591404129274
 20
115.5617469141781
 30
0.0
  0
VERTEX
  5
620
  8
PAL_1
  6
CONTINUOUS
 62
     5
 10
-225.4738003981909
 20
115.2814692338473
 30
0.0
  0
VERTEX
  5
621
  8
PAL_1
  6
CONTINUOUS
 62
     5
 10
-225.9860532330315
 20
114.9815121540437
 30
0.0
  0
VERTEX
  5
622
  8
PAL_1
  6
CONTINUOUS
 62
     5
 10
-226.4953640023764
 20
114.6618707363921
 30
0.0
  0
VERTEX
  5
623
  8
PAL_1
  6
CONTINUOUS
 62
     5
 10
-227.0011930846891
 20
114.3225784338441
 30
0.0
  0
VERTEX
  5
624
  8
PAL_1
  6
CONTINUOUS
 62
     5
 10
-227.5029978060083
 20
113.9637078919598
 30
0.0
  0
VERTEX
  5
625
  8
PAL_1
  6
CONTINUOUS
 62
     5
 10
-228.0002341546574
 20
113.5853715792081
 30
0.0
  0
VERTEX
  5
626
  8
PAL_1
  6
CONTINUOUS
 62
     5
 10
-228.4923585466489
 20
113.1877222365961
 30
0.0
  0
VERTEX
  5
627
  8
PAL_1
  6
CONTINUOUS
 62
     5
 10
-228.9788296309929
 20
112.7709531382817
 30
0.0
  0
VERTEX
  5
628
  8
PAL_1
  6
CONTINUOUS
 62
     5
 10
-229.4591101234019
 20
112.3352981563073
 30
0.0
  0
VERTEX
  5
629
  8
PAL_1
  6
CONTINUOUS
 62
     5
 10
-229.9326686562927
 20
111.8810316242201
 30
0.0
  0
VERTEX
  5
62A
  8
PAL_1
  6
CONTINUOUS
 62
     5
 10
-230.3989816324986
 20
111.4084679960763
 30
0.0
  0
VERTEX
  5
62B
  8
PAL_1
  6
CONTINUOUS
 62
     5
 10
-230.8575350697814
 20
110.9179612991568
 30
0.0
  0
VERTEX
  5
62C
  8
PAL_1
  6
CONTINUOUS
 62
     5
 10
-231.3078264230319
 20
110.4099043806164
 30
0.0
  0
VERTEX
  5
62D
  8
PAL_1
  6
CONTINUOUS
 62
     5
 10
-231.749366371018
 20
109.8847279502221
 30
0.0
  0
VERTEX
  5
62E
  8
PAL_1
  6
CONTINUOUS
 62
     5
 10
-232.1816805546567
 20
109.3428994232829
 30
0.0
  0
VERTEX
  5
62F
  8
PAL_1
  6
CONTINUOUS
 62
     5
 10
-232.6043112540689
 20
108.7849215698054
 30
0.0
  0
VERTEX
  5
630
  8
PAL_1
  6
CONTINUOUS
 62
     5
 10
-233.0168189921111
 20
108.211330977788
 30
0.0
  0
VERTEX
  5
631
  8
PAL_1
  6
CONTINUOUS
 62
     5
 10
-233.4187840526732
 20
107.6226963403781
 30
0.0
  0
VERTEX
  5
632
  8
PAL_1
  6
CONTINUOUS
 62
     5
 10
-233.809807902762
 20
107.0196165783173
 30
0.0
  0
VERTEX
  5
633
  8
PAL_1
  6
CONTINUOUS
 62
     5
 10
-234.1895145082685
 20
106.4027188106752
 30
0.0
  0
VERTEX
  5
634
  8
PAL_1
  6
CONTINUOUS
 62
     5
 10
-234.5575515343061
 20
105.7726561882907
 30
0.0
  0
VERTEX
  5
635
  8
PAL_1
  6
CONTINUOUS
 62
     5
 10
-234.9135914221149
 20
105.1301056055856
 30
0.0
  0
VERTEX
  5
636
  8
PAL_1
  6
CONTINUOUS
 62
     5
 10
-235.2573323357165
 20
104.4757653074641
 30
0.0
  0
VERTEX
  5
637
  8
PAL_1
  6
CONTINUOUS
 62
     5
 10
-235.5884989727741
 20
103.8103524088571
 30
0.0
  0
VERTEX
  5
638
  8
PAL_1
  6
CONTINUOUS
 62
     5
 10
-235.9068432354293
 20
103.1346003450934
 30
0.0
  0
VERTEX
  5
639
  8
PAL_1
  6
CONTINUOUS
 62
     5
 10
-236.2121447582413
 20
102.4492562716803
 30
0.0
  0
VERTEX
  5
63A
  8
PAL_1
  6
CONTINUOUS
 62
     5
 10
-236.5042112917162
 20
101.7550784322482
 30
0.0
  0
VERTEX
  5
63B
  8
PAL_1
  6
CONTINUOUS
 62
     5
 10
-236.7828789412732
 20
101.0528335133641
 30
0.0
  0
VERTEX
  5
63C
  8
PAL_1
  6
CONTINUOUS
 62
     5
 10
-237.0480122628174
 20
100.3432940046433
 30
0.0
  0
VERTEX
  5
63D
  8
PAL_1
  6
CONTINUOUS
 62
     5
 10
-237.2995042173752
 20
99.62723558211243
 30
0.0
  0
VERTEX
  5
63E
  8
PAL_1
  6
CONTINUOUS
 62
     5
 10
-237.5372759884607
 20
98.9054345320965
 30
0.0
  0
VERTEX
  5
63F
  8
PAL_1
  6
CONTINUOUS
 62
     5
 10
-237.7612766669805
 20
98.1786652320463
 30
0.0
  0
VERTEX
  5
640
  8
PAL_1
  6
CONTINUOUS
 62
     5
 10
-237.9714828095277
 20
97.44769770370462
 30
0.0
  0
VERTEX
  5
641
  8
PAL_1
  6
CONTINUOUS
 62
     5
 10
-238.1678978768531
 20
96.71329525284942
 30
0.0
  0
VERTEX
  5
642
  8
PAL_1
  6
CONTINUOUS
 62
     5
 10
-238.3505515601295
 20
95.97621220857525
 30
0.0
  0
VERTEX
  5
643
  8
PAL_1
  6
CONTINUOUS
 62
     5
 10
-238.5194990033235
 20
95.23719177370182
 30
0.0
  0
VERTEX
  5
644
  8
PAL_1
  6
CONTINUOUS
 62
     5
 10
-238.6748199305753
 20
94.49696399645563
 30
0.0
  0
VERTEX
  5
645
  8
PAL_1
  6
CONTINUOUS
 62
     5
 10
-238.8166176879342
 20
93.7562438720807
 30
0.0
  0
VERTEX
  5
646
  8
PAL_1
  6
CONTINUOUS
 62
     5
 10
-238.9450182091246
 20
93.0157295815198
 30
0.0
  0
VERTEX
  5
647
  8
PAL_1
  6
CONTINUOUS
 62
     5
 10
-239.1622375582002
 20
91.53801758920073
 30
0.0
  0
VERTEX
  5
648
  8
PAL_1
  6
CONTINUOUS
 62
     5
 10
-239.3278940648057
 20
90.06901936403442
 30
0.0
  0
VERTEX
  5
649
  8
PAL_1
  6
CONTINUOUS
 62
     5
 10
-239.443689827578
 20
88.61356907836725
 30
0.0
  0
VERTEX
  5
64A
  8
PAL_1
  6
CONTINUOUS
 62
     5
 10
-239.5115723101451
 20
87.176113426835
 30
0.0
  0
VERTEX
  5
64B
  8
PAL_1
  6
CONTINUOUS
 62
     5
 10
-239.5336931109447
 20
85.76069067511514
 30
0.0
  0
VERTEX
  5
64C
  8
PAL_1
  6
CONTINUOUS
 62
     5
 10
-239.5115723101451
 20
84.34526792339526
 30
0.0
  0
VERTEX
  5
64D
  8
PAL_1
  6
CONTINUOUS
 62
     5
 10
-239.443689827578
 20
82.90781227186301
 30
0.0
  0
VERTEX
  5
64E
  8
PAL_1
  6
CONTINUOUS
 62
     5
 10
-239.3278940648057
 20
81.45236198619585
 30
0.0
  0
VERTEX
  5
64F
  8
PAL_1
  6
CONTINUOUS
 62
     5
 10
-239.1622375582002
 20
79.98336376102955
 30
0.0
  0
VERTEX
  5
650
  8
PAL_1
  6
CONTINUOUS
 62
     5
 10
-238.9450182091246
 20
78.50565176871048
 30
0.0
  0
VERTEX
  5
651
  8
PAL_1
  6
CONTINUOUS
 62
     5
 10
-238.8166176879342
 20
77.7651374781496
 30
0.0
  0
VERTEX
  5
652
  8
PAL_1
  6
CONTINUOUS
 62
     5
 10
-238.6748199305753
 20
77.02441735377465
 30
0.0
  0
VERTEX
  5
653
  8
PAL_1
  6
CONTINUOUS
 62
     5
 10
-238.5194990033235
 20
76.28418957652848
 30
0.0
  0
VERTEX
  5
654
  8
PAL_1
  6
CONTINUOUS
 62
     5
 10
-238.3505515601295
 20
75.54516914165504
 30
0.0
  0
VERTEX
  5
655
  8
PAL_1
  6
CONTINUOUS
 62
     5
 10
-238.1678978768531
 20
74.80808609738088
 30
0.0
  0
VERTEX
  5
656
  8
PAL_1
  6
CONTINUOUS
 62
     5
 10
-237.9714828095277
 20
74.0736836465257
 30
0.0
  0
VERTEX
  5
657
  8
PAL_1
  6
CONTINUOUS
 62
     5
 10
-237.7612766669805
 20
73.34271611818399
 30
0.0
  0
VERTEX
  5
658
  8
PAL_1
  6
CONTINUOUS
 62
     5
 10
-237.5372759884607
 20
72.61594681813378
 30
0.0
  0
VERTEX
  5
659
  8
PAL_1
  6
CONTINUOUS
 62
     5
 10
-237.2995042173752
 20
71.89414576811788
 30
0.0
  0
VERTEX
  5
65A
  8
PAL_1
  6
CONTINUOUS
 62
     5
 10
-237.0480122628174
 20
71.17808734558704
 30
0.0
  0
VERTEX
  5
65B
  8
PAL_1
  6
CONTINUOUS
 62
     5
 10
-236.7828789412732
 20
70.46854783686625
 30
0.0
  0
VERTEX
  5
65C
  8
PAL_1
  6
CONTINUOUS
 62
     5
 10
-236.5042112917162
 20
69.7663029179821
 30
0.0
  0
VERTEX
  5
65D
  8
PAL_1
  6
CONTINUOUS
 62
     5
 10
-236.2121447582413
 20
69.07212507855004
 30
0.0
  0
VERTEX
  5
65E
  8
PAL_1
  6
CONTINUOUS
 62
     5
 10
-235.9068432354293
 20
68.38678100513687
 30
0.0
  0
VERTEX
  5
65F
  8
PAL_1
  6
CONTINUOUS
 62
     5
 10
-235.5884989727741
 20
67.7110289413732
 30
0.0
  0
VERTEX
  5
660
  8
PAL_1
  6
CONTINUOUS
 62
     5
 10
-235.2573323357165
 20
67.04561604276618
 30
0.0
  0
VERTEX
  5
661
  8
PAL_1
  6
CONTINUOUS
 62
     5
 10
-234.9135914221149
 20
66.39127574464467
 30
0.0
  0
VERTEX
  5
662
  8
PAL_1
  6
CONTINUOUS
 62
     5
 10
-234.5575515343061
 20
65.74872516193959
 30
0.0
  0
VERTEX
  5
663
  8
PAL_1
  6
CONTINUOUS
 62
     5
 10
-234.1895145082685
 20
65.11866253955513
 30
0.0
  0
VERTEX
  5
664
  8
PAL_1
  6
CONTINUOUS
 62
     5
 10
-233.809807902762
 20
64.501764771913
 30
0.0
  0
VERTEX
  5
665
  8
PAL_1
  6
CONTINUOUS
 62
     5
 10
-233.4187840526732
 20
63.89868500985219
 30
0.0
  0
VERTEX
  5
666
  8
PAL_1
  6
CONTINUOUS
 62
     5
 10
-233.0168189921111
 20
63.31005037244226
 30
0.0
  0
VERTEX
  5
667
  8
PAL_1
  6
CONTINUOUS
 62
     5
 10
-232.6043112540689
 20
62.73645978042487
 30
0.0
  0
VERTEX
  5
668
  8
PAL_1
  6
CONTINUOUS
 62
     5
 10
-232.1816805546567
 20
62.17848192694739
 30
0.0
  0
VERTEX
  5
669
  8
PAL_1
  6
CONTINUOUS
 62
     5
 10
-231.749366371018
 20
61.63665340000824
 30
0.0
  0
VERTEX
  5
66A
  8
PAL_1
  6
CONTINUOUS
 62
     5
 10
-231.3078264230319
 20
61.11147696961389
 30
0.0
  0
VERTEX
  5
66B
  8
PAL_1
  6
CONTINUOUS
 62
     5
 10
-230.8575350697814
 20
60.60342005107353
 30
0.0
  0
VERTEX
  5
66C
  8
PAL_1
  6
CONTINUOUS
 62
     5
 10
-230.3989816324986
 20
60.112913354154
 30
0.0
  0
VERTEX
  5
66D
  8
PAL_1
  6
CONTINUOUS
 62
     5
 10
-229.9326686562927
 20
59.64034972601014
 30
0.0
  0
VERTEX
  5
66E
  8
PAL_1
  6
CONTINUOUS
 62
     5
 10
-229.4591101234019
 20
59.18608319392296
 30
0.0
  0
VERTEX
  5
66F
  8
PAL_1
  6
CONTINUOUS
 62
     5
 10
-228.9788296309929
 20
58.75042821194862
 30
0.0
  0
VERTEX
  5
670
  8
PAL_1
  6
CONTINUOUS
 62
     5
 10
-228.4923585466489
 20
58.33365911363421
 30
0.0
  0
VERTEX
  5
671
  8
PAL_1
  6
CONTINUOUS
 62
     5
 10
-228.0002341546574
 20
57.93600977102226
 30
0.0
  0
VERTEX
  5
672
  8
PAL_1
  6
CONTINUOUS
 62
     5
 10
-227.5029978060083
 20
57.55767345827051
 30
0.0
  0
VERTEX
  5
673
  8
PAL_1
  6
CONTINUOUS
 62
     5
 10
-227.0011930846891
 20
57.19880291638626
 30
0.0
  0
VERTEX
  5
674
  8
PAL_1
  6
CONTINUOUS
 62
     5
 10
-226.4953640023764
 20
56.85951061383823
 30
0.0
  0
VERTEX
  5
675
  8
PAL_1
  6
CONTINUOUS
 62
     5
 10
-225.9860532330315
 20
56.53986919618662
 30
0.0
  0
VERTEX
  5
676
  8
PAL_1
  6
CONTINUOUS
 62
     5
 10
-225.4738003981909
 20
56.23991211638299
 30
0.0
  0
VERTEX
  5
677
  8
PAL_1
  6
CONTINUOUS
 62
     5
 10
-224.9591404129274
 20
55.95963443605217
 30
0.0
  0
VERTEX
  5
678
  8
PAL_1
  6
CONTINUOUS
 62
     5
 10
-224.4426019015671
 20
55.69899378689188
 30
0.0
  0
VERTEX
  5
679
  8
PAL_1
  6
CONTINUOUS
 62
     5
 10
-223.9247056912828
 20
55.45791148032039
 30
0.0
  0
VERTEX
  5
67A
  8
PAL_1
  6
CONTINUOUS
 62
     5
 10
-223.4059633906743
 20
55.2362737526769
 30
0.0
  0
VERTEX
  5
67B
  8
PAL_1
  6
CONTINUOUS
 62
     5
 10
-222.8868760594009
 20
55.03393313263285
 30
0.0
  0
VERTEX
  5
67C
  8
PAL_1
  6
CONTINUOUS
 62
     5
 10
-222.367932973871
 20
54.850709917008
 30
0.0
  0
VERTEX
  5
67D
  8
PAL_1
  6
CONTINUOUS
 62
     5
 10
-221.8496104929333
 20
54.68639374089634
 30
0.0
  0
VERTEX
  5
67E
  8
PAL_1
  6
CONTINUOUS
 62
     5
 10
-221.3323710264605
 20
54.54074522788891
 30
0.0
  0
VERTEX
  5
67F
  8
PAL_1
  6
CONTINUOUS
 62
     5
 10
-220.8166621087015
 20
54.41349770622504
 30
0.0
  0
VERTEX
  5
680
  8
PAL_1
  6
CONTINUOUS
 62
     5
 10
-220.3029155772912
 20
54.30435897689841
 30
0.0
  0
VERTEX
  5
681
  8
PAL_1
  6
CONTINUOUS
 62
     5
 10
-219.791546857876
 20
54.21301312007716
 30
0.0
  0
VERTEX
  5
682
  8
PAL_1
  6
CONTINUOUS
 62
     5
 10
-219.2829543534405
 20
54.13912232665624
 30
0.0
  0
VERTEX
  5
683
  8
PAL_1
  6
CONTINUOUS
 62
     5
 10
-218.7775189366127
 20
54.08232874232678
 30
0.0
  0
VERTEX
  5
684
  8
PAL_1
  6
CONTINUOUS
 62
     5
 10
-218.275603542488
 20
54.04225631221013
 30
0.0
  0
VERTEX
  5
685
  8
PAL_1
  6
CONTINUOUS
 62
     5
 10
-217.7775528588582
 20
54.01851261484444
 30
0.0
  0
VERTEX
  5
686
  8
PAL_1
  6
CONTINUOUS
 62
     5
 10
-217.2836931101447
 20
54.01069067511514
 30
0.0
  0
VERTEX
  5
687
  8
PAL_1
  6
CONTINUOUS
 62
     5
 10
-216.7898333614312
 20
54.01851261484444
 30
0.0
  0
VERTEX
  5
688
  8
PAL_1
  6
CONTINUOUS
 62
     5
 10
-216.2917826778014
 20
54.04225631221013
 30
0.0
  0
VERTEX
  5
689
  8
PAL_1
  6
CONTINUOUS
 62
     5
 10
-215.7898672836768
 20
54.08232874232678
 30
0.0
  0
VERTEX
  5
68A
  8
PAL_1
  6
CONTINUOUS
 62
     5
 10
-215.2844318668489
 20
54.13912232665624
 30
0.0
  0
VERTEX
  5
68B
  8
PAL_1
  6
CONTINUOUS
 62
     5
 10
-214.7758393624134
 20
54.21301312007716
 30
0.0
  0
VERTEX
  5
68C
  8
PAL_1
  6
CONTINUOUS
 62
     5
 10
-214.2644706429982
 20
54.30435897689841
 30
0.0
  0
VERTEX
  5
68D
  8
PAL_1
  6
CONTINUOUS
 62
     5
 10
-213.7507241115879
 20
54.41349770622504
 30
0.0
  0
VERTEX
  5
68E
  8
PAL_1
  6
CONTINUOUS
 62
     5
 10
-213.2350151938289
 20
54.54074522788891
 30
0.0
  0
VERTEX
  5
68F
  8
PAL_1
  6
CONTINUOUS
 62
     5
 10
-212.7177757273562
 20
54.68639374089634
 30
0.0
  0
VERTEX
  5
690
  8
PAL_1
  6
CONTINUOUS
 62
     5
 10
-212.1994532464185
 20
54.850709917008
 30
0.0
  0
VERTEX
  5
691
  8
PAL_1
  6
CONTINUOUS
 62
     5
 10
-211.6805101608887
 20
55.03393313263285
 30
0.0
  0
VERTEX
  5
692
  8
PAL_1
  6
CONTINUOUS
 62
     5
 10
-211.1614228296151
 20
55.2362737526769
 30
0.0
  0
VERTEX
  5
693
  8
PAL_1
  6
CONTINUOUS
 62
     5
 10
-210.6426805290066
 20
55.45791148032039
 30
0.0
  0
VERTEX
  5
694
  8
PAL_1
  6
CONTINUOUS
 62
     5
 10
-210.1247843187224
 20
55.69899378689188
 30
0.0
  0
VERTEX
  5
695
  8
PAL_1
  6
CONTINUOUS
 62
     5
 10
-209.6082458073621
 20
55.95963443605217
 30
0.0
  0
VERTEX
  5
696
  8
PAL_1
  6
CONTINUOUS
 62
     5
 10
-209.0935858220986
 20
56.23991211638299
 30
0.0
  0
VERTEX
  5
697
  8
PAL_1
  6
CONTINUOUS
 62
     5
 10
-208.581332987258
 20
56.53986919618662
 30
0.0
  0
VERTEX
  5
698
  8
PAL_1
  6
CONTINUOUS
 62
     5
 10
-208.0720222179132
 20
56.85951061383823
 30
0.0
  0
VERTEX
  5
699
  8
PAL_1
  6
CONTINUOUS
 62
     5
 10
-207.5661931356004
 20
57.19880291638626
 30
0.0
  0
VERTEX
  5
69A
  8
PAL_1
  6
CONTINUOUS
 62
     5
 10
-207.0643884142812
 20
57.55767345827051
 30
0.0
  0
VERTEX
  5
69B
  8
PAL_1
  6
CONTINUOUS
 62
     5
 10
-206.5671520656323
 20
57.93600977102226
 30
0.0
  0
VERTEX
  5
69C
  8
PAL_1
  6
CONTINUOUS
 62
     5
 10
-206.0750276736406
 20
58.33365911363421
 30
0.0
  0
VERTEX
  5
69D
  8
PAL_1
  6
CONTINUOUS
 62
     5
 10
-205.5885565892968
 20
58.75042821194862
 30
0.0
  0
VERTEX
  5
69E
  8
PAL_1
  6
CONTINUOUS
 62
     5
 10
-205.1082760968875
 20
59.18608319392296
 30
0.0
  0
VERTEX
  5
69F
  8
PAL_1
  6
CONTINUOUS
 62
     5
 10
-204.6347175639967
 20
59.64034972601014
 30
0.0
  0
VERTEX
  5
6A0
  8
PAL_1
  6
CONTINUOUS
 62
     5
 10
-204.1684045877908
 20
60.112913354154
 30
0.0
  0
VERTEX
  5
6A1
  8
PAL_1
  6
CONTINUOUS
 62
     5
 10
-203.7098511505081
 20
60.60342005107353
 30
0.0
  0
VERTEX
  5
6A2
  8
PAL_1
  6
CONTINUOUS
 62
     5
 10
-203.2595597972576
 20
61.11147696961389
 30
0.0
  0
VERTEX
  5
6A3
  8
PAL_1
  6
CONTINUOUS
 62
     5
 10
-202.8180198492715
 20
61.63665340000824
 30
0.0
  0
VERTEX
  5
6A4
  8
PAL_1
  6
CONTINUOUS
 62
     5
 10
-202.3857056656328
 20
62.17848192694739
 30
0.0
  0
VERTEX
  5
6A5
  8
PAL_1
  6
CONTINUOUS
 62
     5
 10
-201.9630749662206
 20
62.73645978042487
 30
0.0
  0
VERTEX
  5
6A6
  8
PAL_1
  6
CONTINUOUS
 62
     5
 10
-201.5505672281784
 20
63.31005037244226
 30
0.0
  0
VERTEX
  5
6A7
  8
PAL_1
  6
CONTINUOUS
 62
     5
 10
-201.1486021676163
 20
63.89868500985219
 30
0.0
  0
VERTEX
  5
6A8
  8
PAL_1
  6
CONTINUOUS
 62
     5
 10
-200.7575783175274
 20
64.501764771913
 30
0.0
  0
VERTEX
  5
6A9
  8
PAL_1
  6
CONTINUOUS
 62
     5
 10
-200.377871712021
 20
65.11866253955513
 30
0.0
  0
VERTEX
  5
6AA
  8
PAL_1
  6
CONTINUOUS
 62
     5
 10
-200.0098346859834
 20
65.74872516193959
 30
0.0
  0
VERTEX
  5
6AB
  8
PAL_1
  6
CONTINUOUS
 62
     5
 10
-199.6537947981746
 20
66.39127574464467
 30
0.0
  0
VERTEX
  5
6AC
  8
PAL_1
  6
CONTINUOUS
 62
     5
 10
-199.3100538845729
 20
67.04561604276618
 30
0.0
  0
VERTEX
  5
6AD
  8
PAL_1
  6
CONTINUOUS
 62
     5
 10
-198.9788872475153
 20
67.7110289413732
 30
0.0
  0
VERTEX
  5
6AE
  8
PAL_1
  6
CONTINUOUS
 62
     5
 10
-198.6605429848601
 20
68.38678100513687
 30
0.0
  0
VERTEX
  5
6AF
  8
PAL_1
  6
CONTINUOUS
 62
     5
 10
-198.3552414620483
 20
69.07212507855004
 30
0.0
  0
VERTEX
  5
6B0
  8
PAL_1
  6
CONTINUOUS
 62
     5
 10
-198.0631749285733
 20
69.7663029179821
 30
0.0
  0
VERTEX
  5
6B1
  8
PAL_1
  6
CONTINUOUS
 62
     5
 10
-197.7845072790164
 20
70.46854783686625
 30
0.0
  0
VERTEX
  5
6B2
  8
PAL_1
  6
CONTINUOUS
 62
     5
 10
-197.5193739574721
 20
71.17808734558704
 30
0.0
  0
VERTEX
  5
6B3
  8
PAL_1
  6
CONTINUOUS
 62
     5
 10
-197.2678820029143
 20
71.89414576811788
 30
0.0
  0
VERTEX
  5
6B4
  8
PAL_1
  6
CONTINUOUS
 62
     5
 10
-197.0301102318288
 20
72.61594681813378
 30
0.0
  0
VERTEX
  5
6B5
  8
PAL_1
  6
CONTINUOUS
 62
     5
 10
-196.8061095533089
 20
73.34271611818399
 30
0.0
  0
VERTEX
  5
6B6
  8
PAL_1
  6
CONTINUOUS
 62
     5
 10
-196.5959034107618
 20
74.0736836465257
 30
0.0
  0
VERTEX
  5
6B7
  8
PAL_1
  6
CONTINUOUS
 62
     5
 10
-196.3994883434363
 20
74.80808609738088
 30
0.0
  0
VERTEX
  5
6B8
  8
PAL_1
  6
CONTINUOUS
 62
     5
 10
-196.2168346601599
 20
75.54516914165504
 30
0.0
  0
VERTEX
  5
6B9
  8
PAL_1
  6
CONTINUOUS
 62
     5
 10
-196.047887216966
 20
76.28418957652848
 30
0.0
  0
VERTEX
  5
6BA
  8
PAL_1
  6
CONTINUOUS
 62
     5
 10
-195.8925662897142
 20
77.02441735377465
 30
0.0
  0
VERTEX
  5
6BB
  8
PAL_1
  6
CONTINUOUS
 62
     5
 10
-195.7507685323554
 20
77.7651374781496
 30
0.0
  0
VERTEX
  5
6BC
  8
PAL_1
  6
CONTINUOUS
 62
     5
 10
-195.6223680111648
 20
78.50565176871048
 30
0.0
  0
VERTEX
  5
6BD
  8
PAL_1
  6
CONTINUOUS
 62
     5
 10
-195.4051486620893
 20
79.98336376102955
 30
0.0
  0
VERTEX
  5
6BE
  8
PAL_1
  6
CONTINUOUS
 62
     5
 10
-195.2394921554837
 20
81.45236198619585
 30
0.0
  0
VERTEX
  5
6BF
  8
PAL_1
  6
CONTINUOUS
 62
     5
 10
-195.1236963927114
 20
82.90781227186301
 30
0.0
  0
VERTEX
  5
6C0
  8
PAL_1
  6
CONTINUOUS
 62
     5
 10
-195.0558139101444
 20
84.34526792339526
 30
0.0
  0
VERTEX
  5
6C1
  8
PAL_1
  6
CONTINUOUS
 62
     5
 10
-195.0336931093447
 20
85.76069067511514
 30
0.0
  0
VERTEX
  5
6C2
  8
PAL_1
  6
CONTINUOUS
 62
     5
 10
-195.0558139101444
 20
87.176113426835
 30
0.0
  0
VERTEX
  5
6C3
  8
PAL_1
  6
CONTINUOUS
 62
     5
 10
-195.1236963927114
 20
88.61356907836725
 30
0.0
  0
VERTEX
  5
6C4
  8
PAL_1
  6
CONTINUOUS
 62
     5
 10
-195.2394921554837
 20
90.06901936403442
 30
0.0
  0
VERTEX
  5
6C5
  8
PAL_1
  6
CONTINUOUS
 62
     5
 10
-195.4051486620893
 20
91.53801758920073
 30
0.0
  0
VERTEX
  5
6C6
  8
PAL_1
  6
CONTINUOUS
 62
     5
 10
-195.6223680111648
 20
93.0157295815198
 30
0.0
  0
VERTEX
  5
6C7
  8
PAL_1
  6
CONTINUOUS
 62
     5
 10
-195.7507685323554
 20
93.7562438720807
 30
0.0
  0
VERTEX
  5
6C8
  8
PAL_1
  6
CONTINUOUS
 62
     5
 10
-195.8925662897142
 20
94.49696399645563
 30
0.0
  0
VERTEX
  5
6C9
  8
PAL_1
  6
CONTINUOUS
 62
     5
 10
-196.047887216966
 20
95.23719177370182
 30
0.0
  0
VERTEX
  5
6CA
  8
PAL_1
  6
CONTINUOUS
 62
     5
 10
-196.2168346601599
 20
95.97621220857525
 30
0.0
  0
VERTEX
  5
6CB
  8
PAL_1
  6
CONTINUOUS
 62
     5
 10
-196.3994883434363
 20
96.71329525284942
 30
0.0
  0
VERTEX
  5
6CC
  8
PAL_1
  6
CONTINUOUS
 62
     5
 10
-196.5959034107618
 20
97.44769770370462
 30
0.0
  0
VERTEX
  5
6CD
  8
PAL_1
  6
CONTINUOUS
 62
     5
 10
-196.8061095533089
 20
98.1786652320463
 30
0.0
  0
VERTEX
  5
6CE
  8
PAL_1
  6
CONTINUOUS
 62
     5
 10
-197.0301102318288
 20
98.9054345320965
 30
0.0
  0
VERTEX
  5
6CF
  8
PAL_1
  6
CONTINUOUS
 62
     5
 10
-197.2678820029143
 20
99.62723558211243
 30
0.0
  0
VERTEX
  5
6D0
  8
PAL_1
  6
CONTINUOUS
 62
     5
 10
-197.5193739574721
 20
100.3432940046433
 30
0.0
  0
VERTEX
  5
6D1
  8
PAL_1
  6
CONTINUOUS
 62
     5
 10
-197.7845072790164
 20
101.0528335133641
 30
0.0
  0
VERTEX
  5
6D2
  8
PAL_1
  6
CONTINUOUS
 62
     5
 10
-198.0631749285733
 20
101.7550784322482
 30
0.0
  0
VERTEX
  5
6D3
  8
PAL_1
  6
CONTINUOUS
 62
     5
 10
-198.3552414620483
 20
102.4492562716803
 30
0.0
  0
VERTEX
  5
6D4
  8
PAL_1
  6
CONTINUOUS
 62
     5
 10
-198.6605429848601
 20
103.1346003450934
 30
0.0
  0
VERTEX
  5
6D5
  8
PAL_1
  6
CONTINUOUS
 62
     5
 10
-198.9788872475153
 20
103.8103524088571
 30
0.0
  0
VERTEX
  5
6D6
  8
PAL_1
  6
CONTINUOUS
 62
     5
 10
-199.3100538845729
 20
104.4757653074641
 30
0.0
  0
VERTEX
  5
6D7
  8
PAL_1
  6
CONTINUOUS
 62
     5
 10
-199.6537947981746
 20
105.1301056055856
 30
0.0
  0
VERTEX
  5
6D8
  8
PAL_1
  6
CONTINUOUS
 62
     5
 10
-200.0098346859834
 20
105.7726561882907
 30
0.0
  0
VERTEX
  5
6D9
  8
PAL_1
  6
CONTINUOUS
 62
     5
 10
-200.377871712021
 20
106.4027188106752
 30
0.0
  0
VERTEX
  5
6DA
  8
PAL_1
  6
CONTINUOUS
 62
     5
 10
-200.7575783175274
 20
107.0196165783173
 30
0.0
  0
VERTEX
  5
6DB
  8
PAL_1
  6
CONTINUOUS
 62
     5
 10
-201.1486021676163
 20
107.6226963403781
 30
0.0
  0
VERTEX
  5
6DC
  8
PAL_1
  6
CONTINUOUS
 62
     5
 10
-201.5505672281784
 20
108.211330977788
 30
0.0
  0
VERTEX
  5
6DD
  8
PAL_1
  6
CONTINUOUS
 62
     5
 10
-201.9630749662206
 20
108.7849215698054
 30
0.0
  0
VERTEX
  5
6DE
  8
PAL_1
  6
CONTINUOUS
 62
     5
 10
-202.3857056656328
 20
109.3428994232829
 30
0.0
  0
VERTEX
  5
6DF
  8
PAL_1
  6
CONTINUOUS
 62
     5
 10
-202.8180198492715
 20
109.8847279502221
 30
0.0
  0
VERTEX
  5
6E0
  8
PAL_1
  6
CONTINUOUS
 62
     5
 10
-203.2595597972576
 20
110.4099043806164
 30
0.0
  0
VERTEX
  5
6E1
  8
PAL_1
  6
CONTINUOUS
 62
     5
 10
-203.7098511505081
 20
110.9179612991568
 30
0.0
  0
VERTEX
  5
6E2
  8
PAL_1
  6
CONTINUOUS
 62
     5
 10
-204.1684045877908
 20
111.4084679960763
 30
0.0
  0
VERTEX
  5
6E3
  8
PAL_1
  6
CONTINUOUS
 62
     5
 10
-204.6347175639967
 20
111.8810316242201
 30
0.0
  0
VERTEX
  5
6E4
  8
PAL_1
  6
CONTINUOUS
 62
     5
 10
-205.1082760968875
 20
112.3352981563073
 30
0.0
  0
VERTEX
  5
6E5
  8
PAL_1
  6
CONTINUOUS
 62
     5
 10
-205.5885565892968
 20
112.7709531382817
 30
0.0
  0
VERTEX
  5
6E6
  8
PAL_1
  6
CONTINUOUS
 62
     5
 10
-206.0750276736406
 20
113.1877222365961
 30
0.0
  0
VERTEX
  5
6E7
  8
PAL_1
  6
CONTINUOUS
 62
     5
 10
-206.5671520656323
 20
113.5853715792081
 30
0.0
  0
VERTEX
  5
6E8
  8
PAL_1
  6
CONTINUOUS
 62
     5
 10
-207.0643884142812
 20
113.9637078919598
 30
0.0
  0
VERTEX
  5
6E9
  8
PAL_1
  6
CONTINUOUS
 62
     5
 10
-207.5661931356004
 20
114.3225784338441
 30
0.0
  0
VERTEX
  5
6EA
  8
PAL_1
  6
CONTINUOUS
 62
     5
 10
-208.0720222179132
 20
114.6618707363921
 30
0.0
  0
VERTEX
  5
6EB
  8
PAL_1
  6
CONTINUOUS
 62
     5
 10
-208.581332987258
 20
114.9815121540437
 30
0.0
  0
VERTEX
  5
6EC
  8
PAL_1
  6
CONTINUOUS
 62
     5
 10
-209.0935858220986
 20
115.2814692338473
 30
0.0
  0
VERTEX
  5
6ED
  8
PAL_1
  6
CONTINUOUS
 62
     5
 10
-209.6082458073621
 20
115.5617469141781
 30
0.0
  0
VERTEX
  5
6EE
  8
PAL_1
  6
CONTINUOUS
 62
     5
 10
-210.1247843187224
 20
115.8223875633384
 30
0.0
  0
VERTEX
  5
6EF
  8
PAL_1
  6
CONTINUOUS
 62
     5
 10
-210.6426805290066
 20
116.0634698699099
 30
0.0
  0
VERTEX
  5
6F0
  8
PAL_1
  6
CONTINUOUS
 62
     5
 10
-211.1614228296151
 20
116.2851075975534
 30
0.0
  0
VERTEX
  5
6F1
  8
PAL_1
  6
CONTINUOUS
 62
     5
 10
-211.6805101608887
 20
116.4874482175975
 30
0.0
  0
VERTEX
  5
6F2
  8
PAL_1
  6
CONTINUOUS
 62
     5
 10
-212.1994532464185
 20
116.6706714332223
 30
0.0
  0
VERTEX
  5
6F3
  8
PAL_1
  6
CONTINUOUS
 62
     5
 10
-212.7177757273562
 20
116.8349876093339
 30
0.0
  0
VERTEX
  5
6F4
  8
PAL_1
  6
CONTINUOUS
 62
     5
 10
-213.2350151938289
 20
116.9806361223414
 30
0.0
  0
VERTEX
  5
6F5
  8
PAL_1
  6
CONTINUOUS
 62
     5
 10
-213.7507241115879
 20
117.1078836440052
 30
0.0
  0
VERTEX
  5
6F6
  8
PAL_1
  6
CONTINUOUS
 62
     5
 10
-214.2644706429982
 20
117.2170223733319
 30
0.0
  0
VERTEX
  5
6F7
  8
PAL_1
  6
CONTINUOUS
 62
     5
 10
-214.7758393624134
 20
117.3083682301531
 30
0.0
  0
VERTEX
  5
6F8
  8
PAL_1
  6
CONTINUOUS
 62
     5
 10
-215.2844318668489
 20
117.382259023574
 30
0.0
  0
VERTEX
  5
6F9
  8
PAL_1
  6
CONTINUOUS
 62
     5
 10
-215.7898672836768
 20
117.4390526079035
 30
0.0
  0
VERTEX
  5
6FA
  8
PAL_1
  6
CONTINUOUS
 62
     5
 10
-216.2917826778014
 20
117.4791250380201
 30
0.0
  0
VERTEX
  5
6FB
  8
PAL_1
  6
CONTINUOUS
 62
     5
 10
-216.7898333614312
 20
117.5028687353858
 30
0.0
  0
SEQEND
  5
6FC
  8
PAL_1
  6
CONTINUOUS
 62
     5
  0
ARC
  5
6FD
  8
PAL_1
  6
CONTINUOUS
 62
     5
 10
-226.9291613064447
 20
195.2695514114151
 30
0.0
 40
19.00000000000001
 50
315.0000000000001
 51
79.88828381050006
  0
LINE
  5
6FE
  8
PAL_1
  6
CONTINUOUS
 62
     5
 10
-225.4258287339447
 20
169.9028262988152
 30
0.0
 11
-213.4941324638447
 21
181.8345225688151
 31
0.0
  0
ARC
  5
6FF
  8
PAL_1
  6
CONTINUOUS
 62
     5
 10
-211.2836931101447
 20
155.7606906751151
 30
0.0
 40
20.00000000000001
 50
135.0
 51
315.0
  0
LINE
  5
700
  8
PAL_1
  6
CONTINUOUS
 62
     5
 10
-187.7659910608447
 20
150.9941214769152
 30
0.0
 11
-197.1415574864448
 21
141.6185550513152
 31
0.0
  0
ARC
  5
701
  8
PAL_1
  6
CONTINUOUS
 62
     5
 10
-165.1385740629447
 20
128.3667044789152
 30
0.0
 40
31.99999999999999
 50
23.96264656240002
 51
135.0
  0
ARC
  5
702
  8
PAL_1
  6
CONTINUOUS
 62
     5
 10
-502.8746022010447
 20
-21.73930932488483
 30
0.0
 40
401.5909090909093
 50
0.0
 51
23.9626465624
  0
ARC
  5
703
  8
PAL_1
  6
CONTINUOUS
 62
     5
 10
-243.7836931101447
 20
-21.73930932488483
 30
0.0
 40
142.4999999999982
 50
180.0
 51
0.0
  0
ARC
  5
704
  8
PAL_1
  6
CONTINUOUS
 62
     5
 10
15.30721598075525
 20
-21.73930932488483
 30
0.0
 40
401.5909090909013
 50
154.6948869989
 51
180.0
  0
ARC
  5
705
  8
PAL_1
  6
CONTINUOUS
 62
     5
 10
-243.7836931101447
 20
100.7606906751151
 30
0.0
 40
115.0
 50
79.88828381050001
 51
154.6948869989
  0
ENDSEC
  0
EOF
