999
dxfrw 0.6.3
  0
SECTION
  2
HEADER
  9
$ACADVER
  1
AC1021
  9
$DWGCODEPAGE
  3
ANSI_1252
  9
$INSBASE
 10
0
 20
0
 30
0
  9
$EXTMIN
 10
-312.8558734983279
 20
64.96400474569998
 30
0
  9
$EXTMAX
 10
1290.532798514979
 20
434.5467645936059
 30
0
  9
$LIMMIN
 10
0
 20
0
  9
$LIMMAX
 10
594
 20
420
  9
$ORTHOMODE
 70
    0
  9
$REGENMODE
 70
    1
  9
$FILLMODE
 70
    1
  9
$QTEXTMODE
 70
    0
  9
$MIRRTEXT
 70
    1
  9
$LTSCALE
 40
1
  9
$ATTMODE
 70
    1
  9
$TEXTSIZE
 40
2.5
  9
$TRACEWID
 40
1
  9
$TEXTSTYLE
  7
STANDARD
  9
$CLAYER
  8
0
  9
$CELTYPE
  6
BYLAYER
  9
$CECOLOR
 62
  256
  9
$CELTSCALE
 40
1
  9
$DISPSILH
 70
    0
  9
$DIMSCALE
 40
1
  9
$DIMASZ
 40
2.5
  9
$DIMEXO
 40
0.625
  9
$DIMDLI
 40
3.75
  9
$DIMRND
 40
0
  9
$DIMDLE
 40
0
  9
$DIMEXE
 40
1.25
  9
$DIMTP
 40
0
  9
$DIMTM
 40
0
  9
$DIMTXT
 40
2.5
  9
$DIMCEN
 40
2.5
  9
$DIMTSZ
 40
0
  9
$DIMTOL
 70
    0
  9
$DIMLIM
 70
    0
  9
$DIMTIH
 70
    0
  9
$DIMTOH
 70
    0
  9
$DIMSE1
 70
    0
  9
$DIMSE2
 70
    0
  9
$DIMTAD
 70
    1
  9
$DIMZIN
 70
    8
  9
$DIMBLK
  1

  9
$DIMASO
 70
    1
  9
$DIMSHO
 70
    1
  9
$DIMPOST
  1

  9
$DIMAPOST
  1

  9
$DIMALT
 70
    0
  9
$DIMALTD
 70
    3
  9
$DIMALTF
 40
0.0393700787
  9
$DIMLFAC
 40
1
  9
$DIMTOFL
 70
    1
  9
$DIMTVP
 40
0
  9
$DIMTIX
 70
    0
  9
$DIMSOXD
 70
    0
  9
$DIMSAH
 70
    0
  9
$DIMBLK1
  1

  9
$DIMBLK2
  1

  9
$DIMSTYLE
  2
ISO-25
  9
$DIMCLRD
 70
    0
  9
$DIMCLRE
 70
    0
  9
$DIMCLRT
 70
    0
  9
$DIMTFAC
 40
1
  9
$DIMGAP
 40
0.625
  9
$DIMJUST
 70
    0
  9
$DIMSD1
 70
    0
  9
$DIMSD2
 70
    0
  9
$DIMTOLJ
 70
    0
  9
$DIMTZIN
 70
    8
  9
$DIMALTZ
 70
    0
  9
$DIMALTTZ
 70
    0
  9
$DIMUPT
 70
    0
  9
$DIMDEC
 70
    2
  9
$DIMTDEC
 70
    2
  9
$DIMALTU
 70
    2
  9
$DIMALTTD
 70
    3
  9
$DIMTXSTY
  7
STANDARD
  9
$DIMAUNIT
 70
    0
  9
$DIMADEC
 70
    0
  9
$DIMALTRND
 40
0
  9
$DIMAZIN
 70
    0
  9
$DIMDSEP
 70
   44
  9
$DIMATFIT
 70
    3
  9
$DIMFRAC
 70
    0
  9
$DIMLDRBLK
  1
STANDARD
  9
$DIMLUNIT
 70
    2
  9
$DIMLWD
 70
   -2
  9
$DIMLWE
 70
   -2
  9
$DIMTMOVE
 70
    0
  9
$DIMFXL
 40
1
  9
$DIMFXLON
 70
    0
  9
$DIMJOGANG
 40
0.7854
  9
$DIMTFILL
 70
    0
  9
$DIMTFILLCLR
 70
    0
  9
$DIMARCSYM
 70
    0
  9
$DIMLTYPE
  6

  9
$DIMLTEX1
  6

  9
$DIMLTEX2
  6

  9
$LUNITS
 70
    2
  9
$LUPREC
 70
    4
  9
$SKETCHINC
 40
1
  9
$FILLETRAD
 40
10
  9
$AUNITS
 70
    0
  9
$AUPREC
 70
    0
  9
$MENU
  1
.
  9
$ELEVATION
 40
0
  9
$PELEVATION
 40
0
  9
$THICKNESS
 40
0
  9
$LIMCHECK
 70
    0
  9
$CHAMFERA
 40
10
  9
$CHAMFERB
 40
10
  9
$CHAMFERC
 40
20
  9
$CHAMFERD
 40
0
  9
$SKPOLY
 70
    0
  9
$USRTIMER
 70
    1
  9
$ANGBASE
 50
0
  9
$ANGDIR
 70
    0
  9
$PDMODE
 70
    0
  9
$PDSIZE
 40
0
  9
$PLINEWID
 40
0
  9
$SPLFRAME
 70
    0
  9
$SPLINETYPE
 70
    6
  9
$SPLINESEGS
 70
    8
  9
$HANDSEED
  5
20000
  9
$SURFTAB1
 70
    6
  9
$SURFTAB2
 70
    6
  9
$SURFTYPE
 70
    6
  9
$SURFU
 70
    6
  9
$SURFV
 70
    6
  9
$UCSBASE
  2

  9
$UCSNAME
  2

  9
$UCSORG
 10
0
 20
0
 30
0
  9
$UCSXDIR
 10
1
 20
0
 30
0
  9
$UCSYDIR
 10
0
 20
1
 30
0
  9
$UCSORTHOREF
  2

  9
$UCSORTHOVIEW
 70
    0
  9
$UCSORGTOP
 10
0
 20
0
 30
0
  9
$UCSORGBOTTOM
 10
0
 20
0
 30
0
  9
$UCSORGLEFT
 10
0
 20
0
 30
0
  9
$UCSORGRIGHT
 10
0
 20
0
 30
0
  9
$UCSORGFRONT
 10
0
 20
0
 30
0
  9
$UCSORGBACK
 10
0
 20
0
 30
0
  9
$PUCSBASE
  2

  9
$PUCSNAME
  2

  9
$PUCSORG
 10
0
 20
0
 30
0
  9
$PUCSXDIR
 10
1
 20
0
 30
0
  9
$PUCSYDIR
 10
0
 20
1
 30
0
  9
$PUCSORTHOREF
  2

  9
$PUCSORTHOVIEW
 70
    0
  9
$PUCSORGTOP
 10
0
 20
0
 30
0
  9
$PUCSORGBOTTOM
 10
0
 20
0
 30
0
  9
$PUCSORGLEFT
 10
0
 20
0
 30
0
  9
$PUCSORGRIGHT
 10
0
 20
0
 30
0
  9
$PUCSORGFRONT
 10
0
 20
0
 30
0
  9
$PUCSORGBACK
 10
0
 20
0
 30
0
  9
$USERI1
 70
    0
  9
$USERI2
 70
    0
  9
$USERI3
 70
    0
  9
$USERI4
 70
    0
  9
$USERI5
 70
    0
  9
$USERR1
 40
0
  9
$USERR2
 40
0
  9
$USERR3
 40
0
  9
$USERR4
 40
0
  9
$USERR5
 40
0
  9
$WORLDVIEW
 70
    1
  9
$SHADEDGE
 70
    3
  9
$SHADEDIF
 70
   70
  9
$TILEMODE
 70
    1
  9
$MAXACTVP
 70
   64
  9
$PINSBASE
 10
0
 20
0
 30
0
  9
$PLIMCHECK
 70
    0
  9
$PEXTMIN
 10
0
 20
0
 30
0
  9
$PEXTMAX
 10
594
 20
420
 30
0
  9
$GRIDMODE
 70
    0
  9
$SNAPSTYLE
 70
    0
  9
$PLIMMIN
 10
0
 20
0
  9
$PLIMMAX
 10
594
 20
420
  9
$UNITMODE
 70
    0
  9
$VISRETAIN
 70
    1
  9
$PLINEGEN
 70
    0
  9
$PSLTSCALE
 70
    1
  9
$TREEDEPTH
 70
 3020
  9
$CMLSTYLE
  2
STANDARD
  9
$CMLJUST
 70
    0
  9
$CMLSCALE
 40
20
  9
$PROXYGRAPHICS
 70
    1
  9
$MEASUREMENT
 70
    1
  9
$CELWEIGHT
370
   -1
  9
$ENDCAPS
280
    0
  9
$JOINSTYLE
280
    0
  9
$LWDISPLAY
290
    0
  9
$INSUNITS
 70
    4
  9
$HYPERLINKBASE
  1

  9
$STYLESHEET
  1

  9
$XEDIT
290
    1
  9
$CEPSNTYPE
380
    0
  9
$PSTYLEMODE
290
    1
  9
$EXTNAMES
290
    1
  9
$PSVPSCALE
 40
1
  9
$OLESTARTUP
290
    0
  9
$SORTENTS
280
  127
  9
$INDEXCTL
280
    0
  9
$HIDETEXT
280
    1
  9
$XCLIPFRAME
290
    0
  9
$HALOGAP
280
    0
  9
$OBSCOLOR
 70
  257
  9
$OBSLTYPE
280
    0
  9
$INTERSECTIONDISPLAY
280
    0
  9
$INTERSECTIONCOLOR
 70
  257
  9
$DIMASSOC
280
    1
  9
$PROJECTNAME
  1

  9
$CAMERADISPLAY
290
    0
  9
$LENSLENGTH
 40
50
  9
$CAMERAHEIGHT
 40
0
  9
$STEPSPERSEC
 40
2
  9
$STEPSIZE
 40
50
  9
$3DDWFPREC
 40
2
  9
$PSOLWIDTH
 40
5
  9
$PSOLHEIGHT
 40
80
  9
$LOFTANG1
 40
1.570796326794897
  9
$LOFTANG2
 40
1.570796326794897
  9
$LOFTMAG1
 40
0
  9
$LOFTMAG2
 40
0
  9
$LOFTPARAM
 70
    7
  9
$LOFTNORMALS
280
    1
  9
$LATITUDE
 40
1
  9
$LONGITUDE
 40
1
  9
$NORTHDIRECTION
 40
0
  9
$TIMEZONE
 70
-8000
  9
$LIGHTGLYPHDISPLAY
280
    1
  9
$TILEMODELIGHTSYNCH
280
    1
  9
$SOLIDHIST
280
    1
  9
$SHOWHIST
280
    1
  9
$DWFFRAME
280
    2
  9
$DGNFRAME
280
    0
  9
$REALWORLDSCALE
290
    1
  9
$INTERFERECOLOR
 62
    1
  9
$CSHADOW
280
    0
  9
$SHADOWPLANELOCATION
 40
0
  0
ENDSEC
  0
SECTION
  2
CLASSES
  0
ENDSEC
  0
SECTION
  2
TABLES
  0
TABLE
  2
VPORT
  5
8
330
0
100
AcDbSymbolTable
 70
    1
  0
VPORT
  5
31
330
2
100
AcDbSymbolTableRecord
100
AcDbViewportTableRecord
  2
*ACTIVE
 70
    0
 10
0
 20
0
 11
1
 21
1
 12
323.3795887455636
 22
249.411856726257
 13
0
 23
0
 14
10
 24
10
 15
10
 25
10
 16
0
 26
0
 36
1
 17
0
 27
0
 37
0
 40
518.9967312759613
 41
1.886925795053004
 42
50
 43
0
 44
0
 50
0
 51
0
 71
    0
 72
  100
 73
    1
 74
    3
 75
    0
 76
    0
 77
    0
 78
    0
281
    0
 65
    1
110
0
120
0
130
0
111
1
121
0
131
0
112
0
122
1
132
0
 79
    0
146
0
348
10020
 60
    7
 61
    5
292
1
282
    1
141
0
142
0
 63
  250
421
3358443
  0
ENDTAB
  0
TABLE
  2
LTYPE
  5
5
330
0
100
AcDbSymbolTable
 70
    4
  0
LTYPE
  5
14
330
5
100
AcDbSymbolTableRecord
100
AcDbLinetypeTableRecord
  2
ByBlock
 70
    0
  3

 72
   65
 73
    0
 40
0
  0
LTYPE
  5
15
330
5
100
AcDbSymbolTableRecord
100
AcDbLinetypeTableRecord
  2
ByLayer
 70
    0
  3

 72
   65
 73
    0
 40
0
  0
LTYPE
  5
16
330
5
100
AcDbSymbolTableRecord
100
AcDbLinetypeTableRecord
  2
Continuous
 70
    0
  3
Solid line
 72
   65
 73
    0
 40
0
  0
LTYPE
  5
32
330
5
100
AcDbSymbolTableRecord
100
AcDbLinetypeTableRecord
  2
DOT
 70
    0
  3
Dot . . . . . . . . . . . . . . . . . . . . . .
 72
   65
 73
    2
 40
6.35
 49
0
 74
    0
 49
-6.35
 74
    0
  0
LTYPE
  5
33
330
5
100
AcDbSymbolTableRecord
100
AcDbLinetypeTableRecord
  2
DOTTINY
 70
    0
  3
Dot (.15x) .....................................
 72
   65
 73
    2
 40
0.9525
 49
0
 74
    0
 49
-0.9525
 74
    0
  0
LTYPE
  5
34
330
5
100
AcDbSymbolTableRecord
100
AcDbLinetypeTableRecord
  2
DOT2
 70
    0
  3
Dot (.5x) .....................................
 72
   65
 73
    2
 40
3.175
 49
0
 74
    0
 49
-3.175
 74
    0
  0
LTYPE
  5
35
330
5
100
AcDbSymbolTableRecord
100
AcDbLinetypeTableRecord
  2
DOTX2
 70
    0
  3
Dot (2x) .  .  .  .  .  .  .  .  .  .  .  .  .
 72
   65
 73
    2
 40
12.7
 49
0
 74
    0
 49
-12.7
 74
    0
  0
LTYPE
  5
36
330
5
100
AcDbSymbolTableRecord
100
AcDbLinetypeTableRecord
  2
DASHED
 70
    0
  3
Dashed _ _ _ _ _ _ _ _ _ _ _ _ _ _ _ _ _
 72
   65
 73
    2
 40
19.05
 49
12.7
 74
    0
 49
-6.35
 74
    0
  0
LTYPE
  5
37
330
5
100
AcDbSymbolTableRecord
100
AcDbLinetypeTableRecord
  2
DASHEDTINY
 70
    0
  3
Dashed (.15x) _ _ _ _ _ _ _ _ _ _ _ _ _ _ _ _ _
 72
   65
 73
    2
 40
2.8575
 49
1.905
 74
    0
 49
-0.9525
 74
    0
  0
LTYPE
  5
38
330
5
100
AcDbSymbolTableRecord
100
AcDbLinetypeTableRecord
  2
DASHED2
 70
    0
  3
Dashed (.5x) _ _ _ _ _ _ _ _ _ _ _ _ _ _ _ _ _
 72
   65
 73
    2
 40
9.524999999999999
 49
6.35
 74
    0
 49
-3.175
 74
    0
  0
LTYPE
  5
39
330
5
100
AcDbSymbolTableRecord
100
AcDbLinetypeTableRecord
  2
DASHEDX2
 70
    0
  3
Dashed (2x) ____  ____  ____  ____  ____  ___
 72
   65
 73
    2
 40
38.09999999999999
 49
25.4
 74
    0
 49
-12.7
 74
    0
  0
LTYPE
  5
3A
330
5
100
AcDbSymbolTableRecord
100
AcDbLinetypeTableRecord
  2
DASHDOT
 70
    0
  3
Dash dot __ . __ . __ . __ . __ . __ . __ . __
 72
   65
 73
    4
 40
25.4
 49
12.7
 74
    0
 49
-6.35
 74
    0
 49
0
 74
    0
 49
-6.35
 74
    0
  0
LTYPE
  5
3B
330
5
100
AcDbSymbolTableRecord
100
AcDbLinetypeTableRecord
  2
DASHDOTTINY
 70
    0
  3
Dash dot (.15x) _._._._._._._._._._._._._._._.
 72
   65
 73
    4
 40
3.81
 49
1.905
 74
    0
 49
-0.9525
 74
    0
 49
0
 74
    0
 49
-0.9525
 74
    0
  0
LTYPE
  5
3C
330
5
100
AcDbSymbolTableRecord
100
AcDbLinetypeTableRecord
  2
DASHDOT2
 70
    0
  3
Dash dot (.5x) _._._._._._._._._._._._._._._.
 72
   65
 73
    4
 40
12.7
 49
6.35
 74
    0
 49
-3.175
 74
    0
 49
0
 74
    0
 49
-3.175
 74
    0
  0
LTYPE
  5
3D
330
5
100
AcDbSymbolTableRecord
100
AcDbLinetypeTableRecord
  2
DASHDOTX2
 70
    0
  3
Dash dot (2x) ____  .  ____  .  ____  .  ___
 72
   65
 73
    4
 40
50.8
 49
25.4
 74
    0
 49
-12.7
 74
    0
 49
0
 74
    0
 49
-12.7
 74
    0
  0
LTYPE
  5
3E
330
5
100
AcDbSymbolTableRecord
100
AcDbLinetypeTableRecord
  2
DIVIDE
 70
    0
  3
Divide ____ . . ____ . . ____ . . ____ . . ____
 72
   65
 73
    6
 40
31.75
 49
12.7
 74
    0
 49
-6.35
 74
    0
 49
0
 74
    0
 49
-6.35
 74
    0
 49
0
 74
    0
 49
-6.35
 74
    0
  0
LTYPE
  5
3F
330
5
100
AcDbSymbolTableRecord
100
AcDbLinetypeTableRecord
  2
DIVIDETINY
 70
    0
  3
Divide (.15x) __..__..__..__..__..__..__..__.._
 72
   65
 73
    6
 40
4.7625
 49
1.905
 74
    0
 49
-0.9525
 74
    0
 49
0
 74
    0
 49
-0.9525
 74
    0
 49
0
 74
    0
 49
-0.9525
 74
    0
  0
LTYPE
  5
40
330
5
100
AcDbSymbolTableRecord
100
AcDbLinetypeTableRecord
  2
DIVIDE2
 70
    0
  3
Divide (.5x) __..__..__..__..__..__..__..__.._
 72
   65
 73
    6
 40
15.875
 49
6.35
 74
    0
 49
-3.175
 74
    0
 49
0
 74
    0
 49
-3.175
 74
    0
 49
0
 74
    0
 49
-3.175
 74
    0
  0
LTYPE
  5
41
330
5
100
AcDbSymbolTableRecord
100
AcDbLinetypeTableRecord
  2
DIVIDEX2
 70
    0
  3
Divide (2x) ________  .  .  ________  .  .  _
 72
   65
 73
    6
 40
63.5
 49
25.4
 74
    0
 49
-12.7
 74
    0
 49
0
 74
    0
 49
-12.7
 74
    0
 49
0
 74
    0
 49
-12.7
 74
    0
  0
LTYPE
  5
42
330
5
100
AcDbSymbolTableRecord
100
AcDbLinetypeTableRecord
  2
BORDER
 70
    0
  3
Border __ __ . __ __ . __ __ . __ __ . __ __ .
 72
   65
 73
    6
 40
44.45
 49
12.7
 74
    0
 49
-6.35
 74
    0
 49
12.7
 74
    0
 49
-6.35
 74
    0
 49
0
 74
    0
 49
-6.35
 74
    0
  0
LTYPE
  5
43
330
5
100
AcDbSymbolTableRecord
100
AcDbLinetypeTableRecord
  2
BORDERTINY
 70
    0
  3
Border (.15x) __.__.__.__.__.__.__.__.__.__.__.
 72
   65
 73
    6
 40
6.6675
 49
1.905
 74
    0
 49
-0.9525
 74
    0
 49
1.905
 74
    0
 49
-0.9525
 74
    0
 49
0
 74
    0
 49
-0.9525
 74
    0
  0
LTYPE
  5
44
330
5
100
AcDbSymbolTableRecord
100
AcDbLinetypeTableRecord
  2
BORDER2
 70
    0
  3
Border (.5x) __.__.__.__.__.__.__.__.__.__.__.
 72
   65
 73
    6
 40
22.225
 49
6.35
 74
    0
 49
-3.175
 74
    0
 49
6.35
 74
    0
 49
-3.175
 74
    0
 49
0
 74
    0
 49
-3.175
 74
    0
  0
LTYPE
  5
45
330
5
100
AcDbSymbolTableRecord
100
AcDbLinetypeTableRecord
  2
BORDERX2
 70
    0
  3
Border (2x) ____  ____  .  ____  ____  .  ___
 72
   65
 73
    6
 40
88.89999999999999
 49
25.4
 74
    0
 49
-12.7
 74
    0
 49
25.4
 74
    0
 49
-12.7
 74
    0
 49
0
 74
    0
 49
-12.7
 74
    0
  0
LTYPE
  5
46
330
5
100
AcDbSymbolTableRecord
100
AcDbLinetypeTableRecord
  2
CENTER
 70
    0
  3
Center ____ _ ____ _ ____ _ ____ _ ____ _ ____
 72
   65
 73
    4
 40
50.8
 49
31.75
 74
    0
 49
-6.35
 74
    0
 49
6.35
 74
    0
 49
-6.35
 74
    0
  0
LTYPE
  5
47
330
5
100
AcDbSymbolTableRecord
100
AcDbLinetypeTableRecord
  2
CENTERTINY
 70
    0
  3
Center (.15x) ___ _ ___ _ ___ _ ___ _ ___ _ ___
 72
   65
 73
    4
 40
7.62
 49
4.7625
 74
    0
 49
-0.9525
 74
    0
 49
0.9525
 74
    0
 49
-0.9525
 74
    0
  0
LTYPE
  5
48
330
5
100
AcDbSymbolTableRecord
100
AcDbLinetypeTableRecord
  2
CENTER2
 70
    0
  3
Center (.5x) ___ _ ___ _ ___ _ ___ _ ___ _ ___
 72
   65
 73
    4
 40
28.575
 49
19.05
 74
    0
 49
-3.175
 74
    0
 49
3.175
 74
    0
 49
-3.175
 74
    0
  0
LTYPE
  5
49
330
5
100
AcDbSymbolTableRecord
100
AcDbLinetypeTableRecord
  2
CENTERX2
 70
    0
  3
Center (2x) ________  __  ________  __  _____
 72
   65
 73
    4
 40
101.6
 49
63.5
 74
    0
 49
-12.7
 74
    0
 49
12.7
 74
    0
 49
-12.7
 74
    0
  0
ENDTAB
  0
TABLE
  2
LAYER
  5
2
330
0
100
AcDbSymbolTable
 70
    1
  0
LAYER
  5
10
330
2
100
AcDbSymbolTableRecord
100
AcDbLayerTableRecord
  2
0
 70
    0
 62
    7
  6
CONTINUOUS
370
   -3
390
F
  0
LAYER
  5
4A
330
2
100
AcDbSymbolTableRecord
100
AcDbLayerTableRecord
  2
BASE
 70
    0
 62
    7
  6
CONTINUOUS
370
   -3
390
F
  0
LAYER
  5
4B
330
2
100
AcDbSymbolTableRecord
100
AcDbLayerTableRecord
  2
DEFAULT
 70
    0
 62
    7
  6
CONTINUOUS
370
   -3
390
F
  0
LAYER
  5
4C
330
2
100
AcDbSymbolTableRecord
100
AcDbLayerTableRecord
  2
ELIPSA
 70
    0
 62
    7
  6
CONTINUOUS
370
   -3
390
F
  0
LAYER
  5
4D
330
2
100
AcDbSymbolTableRecord
100
AcDbLayerTableRecord
  2
ELIPSA_MALA
 70
    0
 62
    7
  6
CONTINUOUS
370
   -3
390
F
  0
LAYER
  5
4E
330
2
100
AcDbSymbolTableRecord
100
AcDbLayerTableRecord
  2
ELIPS_VELKA
 70
    0
 62
    7
  6
CONTINUOUS
370
   -3
390
F
  0
LAYER
  5
4F
330
2
100
AcDbSymbolTableRecord
100
AcDbLayerTableRecord
  2
KRUH_LINIJA_1
 70
    0
 62
    7
  6
CONTINUOUS
370
   -3
390
F
  0
LAYER
  5
50
330
2
100
AcDbSymbolTableRecord
100
AcDbLayerTableRecord
  2
KRUH_TALAS_1
 70
    0
 62
    7
  6
CONTINUOUS
370
   -3
390
F
  0
LAYER
  5
51
330
2
100
AcDbSymbolTableRecord
100
AcDbLayerTableRecord
  2
KRUH_VELKI
 70
    0
 62
    7
  6
CONTINUOUS
370
   -3
390
F
  0
LAYER
  5
52
330
2
100
AcDbSymbolTableRecord
100
AcDbLayerTableRecord
  2
KRUH_ZUB_1
 70
    0
 62
    7
  6
CONTINUOUS
370
   -3
390
F
  0
LAYER
  5
53
330
2
100
AcDbSymbolTableRecord
100
AcDbLayerTableRecord
  2
OBDLZNIJ_TROJUH1
 70
    0
 62
    7
  6
CONTINUOUS
370
   -3
390
F
  0
LAYER
  5
54
330
2
100
AcDbSymbolTableRecord
100
AcDbLayerTableRecord
  2
OBDLZ_TROJU_2
 70
    0
 62
    7
  6
CONTINUOUS
370
   -3
390
F
  0
LAYER
  5
55
330
2
100
AcDbSymbolTableRecord
100
AcDbLayerTableRecord
  2
OBDL_NAJM
 70
    0
 62
    7
  6
CONTINUOUS
370
   -3
390
F
  0
LAYER
  5
56
330
2
100
AcDbSymbolTableRecord
100
AcDbLayerTableRecord
  2
OBDL_NAJV
 70
    0
 62
    7
  6
CONTINUOUS
370
   -3
390
F
  0
LAYER
  5
57
330
2
100
AcDbSymbolTableRecord
100
AcDbLayerTableRecord
  2
OBDL_SRE
 70
    0
 62
    7
  6
CONTINUOUS
370
   -3
390
F
  0
LAYER
  5
58
330
2
100
AcDbSymbolTableRecord
100
AcDbLayerTableRecord
  2
SESTOUGAONIK_LIN
 70
    0
 62
    7
  6
CONTINUOUS
370
   -3
390
F
  0
LAYER
  5
59
330
2
100
AcDbSymbolTableRecord
100
AcDbLayerTableRecord
  2
SESTOUGAONIK_TAL
 70
    0
 62
    7
  6
CONTINUOUS
370
   -3
390
F
  0
LAYER
  5
5A
330
2
100
AcDbSymbolTableRecord
100
AcDbLayerTableRecord
  2
SESTOUGAONIK_ZIG
 70
    0
 62
    7
  6
CONTINUOUS
370
   -3
390
F
  0
LAYER
  5
5B
330
2
100
AcDbSymbolTableRecord
100
AcDbLayerTableRecord
  2
STVOREC_PRAVI
 70
    0
 62
    7
  6
CONTINUOUS
370
   -3
390
F
  0
LAYER
  5
5C
330
2
100
AcDbSymbolTableRecord
100
AcDbLayerTableRecord
  2
STVOREC_TALAS
 70
    0
 62
    7
  6
CONTINUOUS
370
   -3
390
F
  0
LAYER
  5
5D
330
2
100
AcDbSymbolTableRecord
100
AcDbLayerTableRecord
  2
STVOREC_ZIG_YAG
 70
    0
 62
    7
  6
CONTINUOUS
370
   -3
390
F
  0
ENDTAB
  0
TABLE
  2
STYLE
  5
3
330
0
100
AcDbSymbolTable
 70
    3
  0
STYLE
  5
5E
330
2
100
AcDbSymbolTableRecord
100
AcDbTextStyleTableRecord
  2
romant
 70
    0
 40
0
 41
1
 50
0
 71
    0
 42
1
  3
romant
  4

  0
STYLE
  5
5F
330
2
100
AcDbSymbolTableRecord
100
AcDbTextStyleTableRecord
  2
Standard
 70
    0
 40
0
 41
1
 50
0
 71
    0
 42
1
  3
txt
  4

  0
ENDTAB
  0
TABLE
  2
VIEW
  5
6
330
0
100
AcDbSymbolTable
 70
    0
  0
ENDTAB
  0
TABLE
  2
UCS
  5
7
330
0
100
AcDbSymbolTable
 70
    0
  0
ENDTAB
  0
TABLE
  2
APPID
  5
9
330
0
100
AcDbSymbolTable
 70
    1
  0
APPID
  5
12
330
9
100
AcDbSymbolTableRecord
100
AcDbRegAppTableRecord
  2
ACAD
 70
    0
  0
APPID
  5
60
330
9
100
AcDbSymbolTableRecord
100
AcDbRegAppTableRecord
  2
LibreCad
 70
    0
  0
ENDTAB
  0
TABLE
  2
DIMSTYLE
  5
A
330
0
100
AcDbSymbolTable
 70
    1
100
AcDbDimStyleTable
 71
    1
  0
DIMSTYLE
105
61
330
A
100
AcDbSymbolTableRecord
100
AcDbDimStyleTableRecord
  2
Standard
 70
    0
 40
1
 41
2.5
 42
0.625
 43
0.38
 44
1.25
 45
0
 46
0
 47
0
 48
0
 49
1
140
2.5
141
0.09
142
0
143
25.4
144
1
145
0
146
1
147
0.625
148
0
 71
    0
 72
    0
 73
    0
 74
    1
 75
    0
 76
    0
 77
    0
 78
    8
 79
    0
170
    0
171
    2
172
    0
173
    0
174
    0
175
    0
176
    0
177
    0
178
    0
179
    0
271
    2
272
    4
273
    2
274
    2
275
    0
276
    0
277
    2
278
    0
279
    0
280
    0
281
    0
282
    0
283
    1
284
    0
285
    0
286
    0
288
    0
289
    3
340
STANDARD
341

371
   -2
372
   -2
  0
ENDTAB
  0
TABLE
  2
BLOCK_RECORD
  5
1
330
0
100
AcDbSymbolTable
 70
    2
  0
BLOCK_RECORD
  5
1F
330
1
100
AcDbSymbolTableRecord
100
AcDbBlockTableRecord
  2
*Model_Space
 70
    0
280
    1
281
    0
  0
BLOCK_RECORD
  5
1E
330
1
100
AcDbSymbolTableRecord
100
AcDbBlockTableRecord
  2
*Paper_Space
 70
    0
280
    1
281
    0
  0
BLOCK_RECORD
  5
62
330
1
100
AcDbSymbolTableRecord
100
AcDbBlockTableRecord
  2
SE
 70
    0
280
    1
281
    0
  0
ENDTAB
  0
ENDSEC
  0
SECTION
  2
BLOCKS
  0
BLOCK
  5
20
330
1F
100
AcDbEntity
  8
0
100
AcDbBlockBegin
  2
*Model_Space
 70
    0
 10
0
 20
0
 30
0
  3
*Model_Space
  1

  0
ENDBLK
  5
21
330
1F
100
AcDbEntity
  8
0
100
AcDbBlockEnd
  0
BLOCK
  5
1C
330
1B
100
AcDbEntity
  8
0
100
AcDbBlockBegin
  2
*Paper_Space
 70
    0
 10
0
 20
0
 30
0
  3
*Paper_Space
  1

  0
ENDBLK
  5
1D
330
1F
100
AcDbEntity
  8
0
100
AcDbBlockEnd
  0
BLOCK
  5
63
330
62
100
AcDbEntity
  8
0
100
AcDbBlockBegin
  2
SE
 70
    0
 10
0
 20
0
  3
SE
  1

  0
LINE
  5
65
100
AcDbEntity
  8
BASE
  6
CONTINUOUS
 62
    7
370
   -1
100
AcDbLine
 10
339.2457862878
 20
346.9640047457
 11
339.2457862878
 21
74.9640047457
  0
ARC
  5
66
100
AcDbEntity
  8
BASE
  6
CONTINUOUS
 62
    7
370
   -1
100
AcDbCircle
 10
329.2457862878
 20
74.9640047457
 40
10.00000000000001
100
AcDbArc
 50
270
 51
0
  0
ARC
  5
67
100
AcDbEntity
  8
BASE
  6
CONTINUOUS
 62
    7
370
   -1
100
AcDbCircle
 10
329.2457862878
 20
346.9640047457
 40
10.00000000000001
100
AcDbArc
 50
0
 51
90
  0
LINE
  5
68
100
AcDbEntity
  8
BASE
  6
CONTINUOUS
 62
    7
370
   -1
100
AcDbLine
 10
329.2457862878
 20
64.9640047457
 11
57.2457862878
 21
64.9640047457
  0
LINE
  5
69
100
AcDbEntity
  8
BASE
  6
CONTINUOUS
 62
    7
370
   -1
100
AcDbLine
 10
57.2457862878
 20
356.9640047457
 11
329.2457862878
 21
356.9640047457
  0
ARC
  5
6A
100
AcDbEntity
  8
BASE
  6
CONTINUOUS
 62
    7
370
   -1
100
AcDbCircle
 10
57.2457862878
 20
74.9640047457
 40
10.00000000000001
100
AcDbArc
 50
180
 51
270
  0
ARC
  5
6B
100
AcDbEntity
  8
BASE
  6
CONTINUOUS
 62
    7
370
   -1
100
AcDbCircle
 10
57.2457862878
 20
346.9640047457
 40
10.00000000000001
100
AcDbArc
 50
90
 51
180
  0
LINE
  5
6C
100
AcDbEntity
  8
BASE
  6
CONTINUOUS
 62
    7
370
   -1
100
AcDbLine
 10
47.2457862878
 20
74.9640047457
 11
47.2457862878
 21
346.9640047457
  0
CIRCLE
  5
6D
100
AcDbEntity
  8
BASE
  6
CONTINUOUS
 62
    7
370
   -1
100
AcDbCircle
 10
88.2457862878
 20
316.9640047457
 40
30
  0
LINE
  5
6E
100
AcDbEntity
  8
BASE
  6
CONTINUOUS
 62
    7
370
   -1
100
AcDbLine
 10
164.7457862878
 20
205.9640047457
 11
164.7457862878
 21
147.9640047457
  0
LINE
  5
6F
100
AcDbEntity
  8
BASE
  6
CONTINUOUS
 62
    7
370
   -1
100
AcDbLine
 10
259.2457862878
 20
206.9640047457
 11
165.7457862878
 21
206.9640047457
  0
LINE
  5
70
100
AcDbEntity
  8
BASE
  6
CONTINUOUS
 62
    7
370
   -1
100
AcDbLine
 10
260.2457862878
 20
147.9640047457
 11
260.2457862878
 21
205.9640047457
  0
LINE
  5
71
100
AcDbEntity
  8
BASE
  6
CONTINUOUS
 62
    7
370
   -1
100
AcDbLine
 10
165.7457862878
 20
146.9640047457
 11
259.2457862878
 21
146.9640047457
  0
ARC
  5
72
100
AcDbEntity
  8
BASE
  6
CONTINUOUS
 62
    7
370
   -1
100
AcDbCircle
 10
259.2457862878
 20
147.9640047457
 40
1.000000000000001
100
AcDbArc
 50
270
 51
0
  0
ARC
  5
73
100
AcDbEntity
  8
BASE
  6
CONTINUOUS
 62
    7
370
   -1
100
AcDbCircle
 10
165.7457862878
 20
147.9640047457
 40
1.000000000000001
100
AcDbArc
 50
180
 51
270
  0
ARC
  5
74
100
AcDbEntity
  8
BASE
  6
CONTINUOUS
 62
    7
370
   -1
100
AcDbCircle
 10
259.2457862878
 20
205.9640047457
 40
1
100
AcDbArc
 50
0
 51
90
  0
ARC
  5
75
100
AcDbEntity
  8
BASE
  6
CONTINUOUS
 62
    7
370
   -1
100
AcDbCircle
 10
165.7457862878
 20
205.9640047457
 40
1
100
AcDbArc
 50
90
 51
180
  0
LINE
  5
76
100
AcDbEntity
  8
BASE
  6
CONTINUOUS
 62
    7
370
   -1
100
AcDbLine
 10
58.2457862878
 20
205.9640047457
 11
58.2457862878
 21
147.9640047457
  0
LINE
  5
77
100
AcDbEntity
  8
BASE
  6
CONTINUOUS
 62
    7
370
   -1
100
AcDbLine
 10
152.7457862878
 20
206.9640047457
 11
59.2457862878
 21
206.9640047457
  0
LINE
  5
78
100
AcDbEntity
  8
BASE
  6
CONTINUOUS
 62
    7
370
   -1
100
AcDbLine
 10
153.7457862878
 20
147.9640047457
 11
153.7457862878
 21
205.9640047457
  0
LINE
  5
79
100
AcDbEntity
  8
BASE
  6
CONTINUOUS
 62
    7
370
   -1
100
AcDbLine
 10
59.2457862878
 20
146.9640047457
 11
152.7457862878
 21
146.9640047457
  0
ARC
  5
7A
100
AcDbEntity
  8
BASE
  6
CONTINUOUS
 62
    7
370
   -1
100
AcDbCircle
 10
152.7457862878
 20
147.9640047457
 40
1.000000000000001
100
AcDbArc
 50
270
 51
0
  0
ARC
  5
7B
100
AcDbEntity
  8
BASE
  6
CONTINUOUS
 62
    7
370
   -1
100
AcDbCircle
 10
59.2457862878
 20
147.9640047457
 40
1.000000000000001
100
AcDbArc
 50
180
 51
270
  0
ARC
  5
7C
100
AcDbEntity
  8
BASE
  6
CONTINUOUS
 62
    7
370
   -1
100
AcDbCircle
 10
152.7457862878
 20
205.9640047457
 40
1
100
AcDbArc
 50
0
 51
90
  0
ARC
  5
7D
100
AcDbEntity
  8
BASE
  6
CONTINUOUS
 62
    7
370
   -1
100
AcDbCircle
 10
59.2457862878
 20
205.9640047457
 40
1
100
AcDbArc
 50
90
 51
180
  0
LINE
  5
7E
100
AcDbEntity
  8
BASE
  6
CONTINUOUS
 62
    7
370
   -1
100
AcDbLine
 10
259.2457862878
 20
276.9640047457
 11
201.2457862878
 21
276.9640047457
  0
LINE
  5
7F
100
AcDbEntity
  8
BASE
  6
CONTINUOUS
 62
    7
370
   -1
100
AcDbLine
 10
260.2457862878
 20
217.9640047457
 11
260.2457862878
 21
275.9640047457
  0
LINE
  5
80
100
AcDbEntity
  8
BASE
  6
CONTINUOUS
 62
    7
370
   -1
100
AcDbLine
 10
200.2457862878
 20
275.9640047457
 11
200.2457862878
 21
217.9640047457
  0
LINE
  5
81
100
AcDbEntity
  8
BASE
  6
CONTINUOUS
 62
    7
370
   -1
100
AcDbLine
 10
201.2457862878
 20
216.9640047457
 11
259.2457862878
 21
216.9640047457
  0
ARC
  5
82
100
AcDbEntity
  8
BASE
  6
CONTINUOUS
 62
    7
370
   -1
100
AcDbCircle
 10
259.2457862878
 20
217.9640047457
 40
1
100
AcDbArc
 50
270
 51
0
  0
ARC
  5
83
100
AcDbEntity
  8
BASE
  6
CONTINUOUS
 62
    7
370
   -1
100
AcDbCircle
 10
201.2457862878
 20
217.9640047457
 40
0.9999999999999991
100
AcDbArc
 50
180
 51
270
  0
ARC
  5
84
100
AcDbEntity
  8
BASE
  6
CONTINUOUS
 62
    7
370
   -1
100
AcDbCircle
 10
259.2457862878
 20
275.9640047457
 40
1.000000000000001
100
AcDbArc
 50
0
 51
90
  0
ARC
  5
85
100
AcDbEntity
  8
BASE
  6
CONTINUOUS
 62
    7
370
   -1
100
AcDbCircle
 10
201.2457862878
 20
275.9640047457
 40
1.000000000000001
100
AcDbArc
 50
90
 51
180
  0
SPLINE
  5
86
100
AcDbEntity
  8
BASE
  6
CONTINUOUS
 62
    7
370
   -1
100
AcDbSpline
210
0
220
0
230
0
 70
   11
 71
    3
 72
   72
 73
   68
 74
    0
 42
1e-007
 43
1e-007
 40
0
 40
0
 40
0
 40
0
 40
0.0156250000000001
 40
0.0156250000000001
 40
0.0312500000000002
 40
0.0312500000000002
 40
0.0625000000000004
 40
0.0625000000000004
 40
0.0937500000000005
 40
0.0937500000000005
 40
0.1250000000000007
 40
0.1250000000000007
 40
0.1562500000000008
 40
0.1562500000000008
 40
0.1875000000000009
 40
0.1875000000000009
 40
0.2500000000000012
 40
0.2500000000000012
 40
0.3125000000000015
 40
0.3125000000000015
 40
0.3750000000000018
 40
0.3750000000000018
 40
0.4062500000000019
 40
0.4062500000000019
 40
0.4375000000000021
 40
0.4375000000000021
 40
0.4531250000000021
 40
0.4531250000000021
 40
0.4687500000000021
 40
0.4687500000000021
 40
0.4843750000000021
 40
0.4843750000000021
 40
0.5000000000000021
 40
0.5000000000000021
 40
0.5156250000000021
 40
0.5156250000000021
 40
0.5312500000000021
 40
0.5312500000000021
 40
0.5468750000000021
 40
0.5468750000000021
 40
0.5625000000000021
 40
0.5625000000000021
 40
0.5781250000000022
 40
0.5781250000000022
 40
0.5937500000000022
 40
0.5937500000000022
 40
0.6250000000000021
 40
0.6250000000000021
 40
0.6875000000000017
 40
0.6875000000000017
 40
0.7500000000000013
 40
0.7500000000000013
 40
0.8125000000000009
 40
0.8125000000000009
 40
0.8437500000000008
 40
0.8437500000000008
 40
0.8750000000000006
 40
0.8750000000000006
 40
0.9062500000000003
 40
0.9062500000000003
 40
0.9375000000000002
 40
0.9375000000000002
 40
0.9687500000000002
 40
0.9687500000000002
 40
0.9843750000000001
 40
0.9843750000000001
 40
1
 40
1
 40
1
 40
1
 10
187.2457862878416
 20
105.9640047456627
 30
0
 10
187.2457862878416
 20
107.6102453050195
 30
0
 10
186.965921615485
 20
109.2439801015287
 30
0
 10
185.9554986439148
 20
112.3280284303087
 30
0
 10
185.2145163246686
 20
113.8130471893548
 30
0
 10
182.5710668081241
 20
117.89626924169
 30
0
 10
180.216585585746
 20
120.2290433484854
 30
0
 10
175.1256730841145
 20
124.2033422801705
 30
0
 10
172.3393873917061
 20
125.8871938351339
 30
0
 10
166.5459513785985
 20
128.809540671419
 30
0
 10
163.5685177608058
 20
130.03235174606
 30
0
 10
157.4995512015496
 20
132.1410256673033
 30
0
 10
154.4072054191653
 20
133.0244881025871
 30
0
 10
148.1280249163586
 20
134.5123764353651
 30
0
 10
144.9346695703495
 20
135.1159019045908
 30
0
 10
135.3852881081511
 20
136.5311283703219
 30
0
 10
129.0066899577559
 20
136.9700651324204
 30
0
 10
116.2277167798067
 20
136.9578211593163
 30
0
 10
109.813378853672
 20
136.5050385415747
 30
0
 10
97.01776249950511
 20
134.5731788214575
 30
0
 10
90.7415147686628
 20
133.1229218243327
 30
0
 10
81.58953131540267
 20
129.9021165228579
 30
0
 10
78.59137770465119
 20
128.6509959009812
 30
0
 10
72.85793489923806
 20
125.7162178091194
 30
0
 10
70.08760153196526
 20
124.0208626378859
 30
0
 10
66.27574203678951
 20
120.989956631156
 30
0
 10
65.07451034506173
 20
119.9064343837578
 30
0
 10
62.85562839350045
 20
117.5456697885272
 30
0
 10
61.83311640258382
 20
116.2582052945106
 30
0
 10
60.11943973072195
 20
113.5183014199378
 30
0
 10
59.41142117397813
 20
112.0377123727544
 30
0
 10
58.45812980077697
 20
108.9282515017673
 30
0
 10
58.21734277972229
 20
107.3099128768256
 30
0
 10
58.27967148125637
 20
104.048622532619
 30
0
 10
58.57787591912248
 20
102.4529368139666
 30
0
 10
59.64213033727381
 20
99.35977772060379
 30
0
 10
60.38245410876211
 20
97.92482741105668
 30
0
 10
62.17134244904612
 20
95.22019698018475
 30
0
 10
63.21960099140092
 20
93.95897729479914
 30
0
 10
65.47007540608834
 20
91.65176703030721
 30
0
 10
66.68299907171901
 20
90.5909652465772
 30
0
 10
69.2428857031562
 20
88.61122276156985
 30
0
 10
70.59062645686323
 20
87.69379376141815
 30
0
 10
73.33733839730347
 20
86.0080392419665
 30
0
 10
74.74413608766098
 20
85.23380878076098
 30
0
 10
79.04522675547403
 20
83.07676771781338
 30
0
 10
82.0191650627583
 20
81.85744741762782
 30
0
 10
91.17962328714805
 20
78.68935661466514
 30
0
 10
97.43465615907714
 20
77.27447197020115
 30
0
 10
110.0585941874141
 20
75.40430449083188
 30
0
 10
116.4690088511202
 20
74.95651146688878
 30
0
 10
129.3389970556869
 20
74.97168455387072
 30
0
 10
135.7094214276359
 20
75.4312648623156
 30
0
 10
145.1604607229035
 20
76.85282532031037
 30
0
 10
148.2931294878635
 20
77.45042402143117
 30
0
 10
154.517252742291
 20
78.93412496013363
 30
0
 10
157.6191599239435
 20
79.82280664601215
 30
0
 10
163.7227632288995
 20
81.95524906609431
 30
0
 10
166.7043290416064
 20
83.18896845164616
 30
0
 10
172.4737149135422
 20
86.11845139174312
 30
0
 10
175.2336623350338
 20
87.79680638354374
 30
0
 10
180.2966638403603
 20
91.77410408727469
 30
0
 10
182.6239350136688
 20
94.09038235027427
 30
0
 10
185.2574077222224
 20
98.1931841091739
 30
0
 10
185.9738611657656
 20
99.64642926752373
 30
0
 10
186.9670932926451
 20
102.6973942016176
 30
0
 10
187.2457862878416
 20
104.3177641863058
 30
0
 10
187.2457862878416
 20
105.9640047456626
 30
0
  0
SPLINE
  5
87
100
AcDbEntity
  8
BASE
  6
CONTINUOUS
 62
    7
370
   -1
100
AcDbSpline
210
0
220
0
230
0
 70
   11
 71
    3
 72
   72
 73
   68
 74
    0
 42
1e-007
 43
1e-007
 40
0
 40
0
 40
0
 40
0
 40
0.0156250000000001
 40
0.0156250000000001
 40
0.0312500000000002
 40
0.0312500000000002
 40
0.06250000000000031
 40
0.06250000000000031
 40
0.0937500000000004
 40
0.0937500000000004
 40
0.1250000000000004
 40
0.1250000000000004
 40
0.1562500000000005
 40
0.1562500000000005
 40
0.1875000000000006
 40
0.1875000000000006
 40
0.2500000000000007
 40
0.2500000000000007
 40
0.3125000000000008
 40
0.3125000000000008
 40
0.3750000000000009
 40
0.3750000000000009
 40
0.4062500000000009
 40
0.4062500000000009
 40
0.4375000000000009
 40
0.4375000000000009
 40
0.4531250000000009
 40
0.4531250000000009
 40
0.4687500000000009
 40
0.4687500000000009
 40
0.4843750000000009
 40
0.4843750000000009
 40
0.5000000000000009
 40
0.5000000000000009
 40
0.5156250000000009
 40
0.5156250000000009
 40
0.5312500000000009
 40
0.5312500000000009
 40
0.5468750000000009
 40
0.5468750000000009
 40
0.5625000000000008
 40
0.5625000000000008
 40
0.5781250000000008
 40
0.5781250000000008
 40
0.5937500000000008
 40
0.5937500000000008
 40
0.6250000000000008
 40
0.6250000000000008
 40
0.6875000000000007
 40
0.6875000000000007
 40
0.7500000000000007
 40
0.7500000000000007
 40
0.8125000000000006
 40
0.8125000000000006
 40
0.8437500000000006
 40
0.8437500000000006
 40
0.8750000000000006
 40
0.8750000000000006
 40
0.9062500000000006
 40
0.9062500000000006
 40
0.9375000000000004
 40
0.9375000000000004
 40
0.9687500000000002
 40
0.9687500000000002
 40
0.9843750000000001
 40
0.9843750000000001
 40
1
 40
1
 40
1
 40
1
 10
328.2457862878416
 20
105.9640047456626
 30
0
 10
328.2457862878416
 20
107.6102453050195
 30
0
 10
327.9659216154851
 20
109.2439801015288
 30
0
 10
326.9554986439147
 20
112.3280284303087
 30
0
 10
326.2145163246686
 20
113.8130471893549
 30
0
 10
323.5710668081241
 20
117.89626924169
 30
0
 10
321.2165855857461
 20
120.2290433484854
 30
0
 10
316.1256730841145
 20
124.2033422801705
 30
0
 10
313.3393873917061
 20
125.8871938351339
 30
0
 10
307.5459513785985
 20
128.809540671419
 30
0
 10
304.5685177608057
 20
130.03235174606
 30
0
 10
298.4995512015496
 20
132.1410256673034
 30
0
 10
295.4072054191653
 20
133.0244881025871
 30
0
 10
289.1280249163586
 20
134.5123764353651
 30
0
 10
285.9346695703494
 20
135.1159019045909
 30
0
 10
276.3852881081511
 20
136.5311283703219
 30
0
 10
270.006689957756
 20
136.9700651324204
 30
0
 10
257.2277167798067
 20
136.9578211593163
 30
0
 10
250.813378853672
 20
136.5050385415747
 30
0
 10
238.0177624995051
 20
134.5731788214575
 30
0
 10
231.7415147686628
 20
133.1229218243327
 30
0
 10
222.5895313154027
 20
129.9021165228579
 30
0
 10
219.5913777046512
 20
128.6509959009812
 30
0
 10
213.8579348992381
 20
125.7162178091194
 30
0
 10
211.0876015319655
 20
124.020862637886
 30
0
 10
207.2757420367896
 20
120.9899566311561
 30
0
 10
206.0745103450617
 20
119.9064343837579
 30
0
 10
203.8556283935005
 20
117.5456697885273
 30
0
 10
202.8331164025838
 20
116.2582052945106
 30
0
 10
201.1194397307219
 20
113.5183014199379
 30
0
 10
200.4114211739782
 20
112.0377123727545
 30
0
 10
199.458129800777
 20
108.9282515017674
 30
0
 10
199.2173427797223
 20
107.3099128768257
 30
0
 10
199.2796714812564
 20
104.0486225326192
 30
0
 10
199.5778759191225
 20
102.4529368139666
 30
0
 10
200.6421303372738
 20
99.35977772060383
 30
0
 10
201.382454108762
 20
97.92482741105677
 30
0
 10
203.171342449046
 20
95.22019698018482
 30
0
 10
204.2196009914009
 20
93.95897729479925
 30
0
 10
206.4700754060882
 20
91.65176703030725
 30
0
 10
207.6829990717189
 20
90.59096524657718
 30
0
 10
210.2428857031561
 20
88.61122276156993
 30
0
 10
211.5906264568632
 20
87.69379376141819
 30
0
 10
214.3373383973034
 20
86.00803924196654
 30
0
 10
215.7441360876609
 20
85.23380878076098
 30
0
 10
220.0452267554739
 20
83.07676771781347
 30
0
 10
223.0191650627582
 20
81.85744741762794
 30
0
 10
232.1796232871478
 20
78.68935661466517
 30
0
 10
238.434656159077
 20
77.27447197020123
 30
0
 10
251.0585941874139
 20
75.40430449083196
 30
0
 10
257.46900885112
 20
74.95651146688878
 30
0
 10
270.3389970556867
 20
74.97168455387069
 30
0
 10
276.7094214276358
 20
75.43126486231547
 30
0
 10
286.1604607229033
 20
76.85282532031037
 30
0
 10
289.2931294878634
 20
77.4504240214312
 30
0
 10
295.5172527422909
 20
78.93412496013363
 30
0
 10
298.6191599239435
 20
79.82280664601218
 30
0
 10
304.7227632288995
 20
81.95524906609425
 30
0
 10
307.7043290416064
 20
83.18896845164613
 30
0
 10
313.4737149135421
 20
86.11845139174311
 30
0
 10
316.2336623350338
 20
87.79680638354377
 30
0
 10
321.2966638403602
 20
91.77410408727467
 30
0
 10
323.6239350136687
 20
94.09038235027415
 30
0
 10
326.2574077222225
 20
98.19318410917387
 30
0
 10
326.9738611657655
 20
99.6464292675237
 30
0
 10
327.9670932926451
 20
102.6973942016176
 30
0
 10
328.2457862878416
 20
104.3177641863058
 30
0
 10
328.2457862878416
 20
105.9640047456627
 30
0
  0
LINE
  5
88
100
AcDbEntity
  8
BASE
  6
CONTINUOUS
 62
    7
370
   -1
100
AcDbLine
 10
188.2457862878
 20
276.9640047457
 11
130.2457862878
 21
276.9640047457
  0
LINE
  5
89
100
AcDbEntity
  8
BASE
  6
CONTINUOUS
 62
    7
370
   -1
100
AcDbLine
 10
189.2457862878
 20
217.9640047457
 11
189.2457862878
 21
275.9640047457
  0
LINE
  5
8A
100
AcDbEntity
  8
BASE
  6
CONTINUOUS
 62
    7
370
   -1
100
AcDbLine
 10
129.2457862878
 20
275.9640047457
 11
129.2457862878
 21
217.9640047457
  0
LINE
  5
8B
100
AcDbEntity
  8
BASE
  6
CONTINUOUS
 62
    7
370
   -1
100
AcDbLine
 10
130.2457862878
 20
216.9640047457
 11
188.2457862878
 21
216.9640047457
  0
ARC
  5
8C
100
AcDbEntity
  8
BASE
  6
CONTINUOUS
 62
    7
370
   -1
100
AcDbCircle
 10
188.2457862878
 20
217.9640047457
 40
1
100
AcDbArc
 50
270
 51
0
  0
ARC
  5
8D
100
AcDbEntity
  8
BASE
  6
CONTINUOUS
 62
    7
370
   -1
100
AcDbCircle
 10
130.2457862878
 20
217.9640047457
 40
1.000000000000001
100
AcDbArc
 50
180
 51
270
  0
ARC
  5
8E
100
AcDbEntity
  8
BASE
  6
CONTINUOUS
 62
    7
370
   -1
100
AcDbCircle
 10
188.2457862878
 20
275.9640047457
 40
1
100
AcDbArc
 50
0
 51
90
  0
ARC
  5
8F
100
AcDbEntity
  8
BASE
  6
CONTINUOUS
 62
    7
370
   -1
100
AcDbCircle
 10
130.2457862878
 20
275.9640047457
 40
1.000000000000001
100
AcDbArc
 50
90
 51
180
  0
LINE
  5
90
100
AcDbEntity
  8
BASE
  6
CONTINUOUS
 62
    7
370
   -1
100
AcDbLine
 10
59.2457862878
 20
216.9640047457
 11
117.2457862878
 21
216.9640047457
  0
LINE
  5
91
100
AcDbEntity
  8
BASE
  6
CONTINUOUS
 62
    7
370
   -1
100
AcDbLine
 10
58.2457862878
 20
275.9640047457
 11
58.2457862878
 21
217.9640047457
  0
LINE
  5
92
100
AcDbEntity
  8
BASE
  6
CONTINUOUS
 62
    7
370
   -1
100
AcDbLine
 10
118.2457862878
 20
217.9640047457
 11
118.2457862878
 21
275.9640047457
  0
LINE
  5
93
100
AcDbEntity
  8
BASE
  6
CONTINUOUS
 62
    7
370
   -1
100
AcDbLine
 10
117.2457862878
 20
276.9640047457
 11
59.2457862878
 21
276.9640047457
  0
ARC
  5
94
100
AcDbEntity
  8
BASE
  6
CONTINUOUS
 62
    7
370
   -1
100
AcDbCircle
 10
59.2457862878
 20
275.9640047457
 40
1.000000000000001
100
AcDbArc
 50
90
 51
180
  0
ARC
  5
95
100
AcDbEntity
  8
BASE
  6
CONTINUOUS
 62
    7
370
   -1
100
AcDbCircle
 10
117.2457862878
 20
275.9640047457
 40
1.000000000000001
100
AcDbArc
 50
0
 51
90
  0
ARC
  5
96
100
AcDbEntity
  8
BASE
  6
CONTINUOUS
 62
    7
370
   -1
100
AcDbCircle
 10
59.2457862878
 20
217.9640047457
 40
1
100
AcDbArc
 50
180
 51
270
  0
ARC
  5
97
100
AcDbEntity
  8
BASE
  6
CONTINUOUS
 62
    7
370
   -1
100
AcDbCircle
 10
117.2457862878
 20
217.9640047457
 40
1.000000000000001
100
AcDbArc
 50
270
 51
0
  0
LINE
  5
98
100
AcDbEntity
  8
BASE
  6
CONTINUOUS
 62
    7
370
   -1
100
AcDbLine
 10
297.7265484014
 20
147.2526798803
 11
322.7073105149
 21
161.6753296111
  0
LINE
  5
99
100
AcDbEntity
  8
BASE
  6
CONTINUOUS
 62
    7
370
   -1
100
AcDbLine
 10
271.7457862878
 20
161.6753296111
 11
296.7265484014
 21
147.2526798803
  0
LINE
  5
9A
100
AcDbEntity
  8
BASE
  6
CONTINUOUS
 62
    7
370
   -1
100
AcDbLine
 10
323.2073105149
 20
162.5413550149
 11
323.2073105149
 21
191.3866544765
  0
LINE
  5
9B
100
AcDbEntity
  8
BASE
  6
CONTINUOUS
 62
    7
370
   -1
100
AcDbLine
 10
271.2457862878
 20
191.3866544765
 11
271.2457862878
 21
162.5413550149
  0
LINE
  5
9C
100
AcDbEntity
  8
BASE
  6
CONTINUOUS
 62
    7
370
   -1
100
AcDbLine
 10
322.7073105149
 20
192.2526798803
 11
297.7265484014
 21
206.6753296111
  0
LINE
  5
9D
100
AcDbEntity
  8
BASE
  6
CONTINUOUS
 62
    7
370
   -1
100
AcDbLine
 10
296.7265484014
 20
206.6753296111
 11
271.7457862878
 21
192.2526798803
  0
ARC
  5
9E
100
AcDbEntity
  8
BASE
  6
CONTINUOUS
 62
    7
370
   -1
100
AcDbCircle
 10
297.2265484014
 20
205.8093042073
 40
1.000000000000002
100
AcDbArc
 50
59.99999999999999
 51
120
  0
ARC
  5
9F
100
AcDbEntity
  8
BASE
  6
CONTINUOUS
 62
    7
370
   -1
100
AcDbCircle
 10
322.2073105149
 20
191.3866544765
 40
1.000000000000003
100
AcDbArc
 50
0
 51
59.99999999999999
  0
ARC
  5
A0
100
AcDbEntity
  8
BASE
  6
CONTINUOUS
 62
    7
370
   -1
100
AcDbCircle
 10
272.2457862878
 20
191.3866544765
 40
1.000000000000001
100
AcDbArc
 50
120
 51
180
  0
ARC
  5
A1
100
AcDbEntity
  8
BASE
  6
CONTINUOUS
 62
    7
370
   -1
100
AcDbCircle
 10
322.2073105149
 20
162.5413550149
 40
1.000000000000001
100
AcDbArc
 50
300
 51
0
  0
ARC
  5
A2
100
AcDbEntity
  8
BASE
  6
CONTINUOUS
 62
    7
370
   -1
100
AcDbCircle
 10
272.2457862878
 20
162.5413550149
 40
1
100
AcDbArc
 50
180
 51
240
  0
ARC
  5
A3
100
AcDbEntity
  8
BASE
  6
CONTINUOUS
 62
    7
370
   -1
100
AcDbCircle
 10
297.2265484014
 20
148.118705284
 40
1.000000000000012
100
AcDbArc
 50
240
 51
300
  0
LINE
  5
A4
100
AcDbEntity
  8
BASE
  6
CONTINUOUS
 62
    7
370
   -1
100
AcDbLine
 10
322.7073105149
 20
262.2526798803
 11
297.7265484014
 21
276.6753296111
  0
LINE
  5
A5
100
AcDbEntity
  8
BASE
  6
CONTINUOUS
 62
    7
370
   -1
100
AcDbLine
 10
296.7265484014
 20
276.6753296111
 11
271.7457862878
 21
262.2526798803
  0
LINE
  5
A6
100
AcDbEntity
  8
BASE
  6
CONTINUOUS
 62
    7
370
   -1
100
AcDbLine
 10
323.2073105149
 20
232.5413550148
 11
323.2073105149
 21
261.3866544765
  0
LINE
  5
A7
100
AcDbEntity
  8
BASE
  6
CONTINUOUS
 62
    7
370
   -1
100
AcDbLine
 10
271.2457862878
 20
261.3866544765
 11
271.2457862878
 21
232.5413550149
  0
LINE
  5
A8
100
AcDbEntity
  8
BASE
  6
CONTINUOUS
 62
    7
370
   -1
100
AcDbLine
 10
297.7265484014
 20
217.2526798803
 11
322.7073105149
 21
231.6753296111
  0
LINE
  5
A9
100
AcDbEntity
  8
BASE
  6
CONTINUOUS
 62
    7
370
   -1
100
AcDbLine
 10
271.7457862878
 20
231.6753296111
 11
296.7265484014
 21
217.2526798803
  0
ARC
  5
AA
100
AcDbEntity
  8
BASE
  6
CONTINUOUS
 62
    7
370
   -1
100
AcDbCircle
 10
272.2457862878
 20
232.5413550149
 40
1.000000000000001
100
AcDbArc
 50
180
 51
240
  0
ARC
  5
AB
100
AcDbEntity
  8
BASE
  6
CONTINUOUS
 62
    7
370
   -1
100
AcDbCircle
 10
297.2265484014
 20
218.118705284
 40
1
100
AcDbArc
 50
240
 51
300
  0
ARC
  5
AC
100
AcDbEntity
  8
BASE
  6
CONTINUOUS
 62
    7
370
   -1
100
AcDbCircle
 10
272.2457862878
 20
261.3866544765
 40
1.000000000000003
100
AcDbArc
 50
120
 51
180
  0
ARC
  5
AD
100
AcDbEntity
  8
BASE
  6
CONTINUOUS
 62
    7
370
   -1
100
AcDbCircle
 10
322.2073105149
 20
232.5413550148
 40
0.9999999999999941
100
AcDbArc
 50
300
 51
0
  0
ARC
  5
AE
100
AcDbEntity
  8
BASE
  6
CONTINUOUS
 62
    7
370
   -1
100
AcDbCircle
 10
297.2265484014
 20
275.8093042073
 40
0.9999999999999938
100
AcDbArc
 50
59.99999999999999
 51
120
  0
ARC
  5
AF
100
AcDbEntity
  8
BASE
  6
CONTINUOUS
 62
    7
370
   -1
100
AcDbCircle
 10
322.2073105149
 20
261.3866544765
 40
1.000000000000001
100
AcDbArc
 50
0
 51
59.99999999999999
  0
LINE
  5
B0
100
AcDbEntity
  8
BASE
  6
CONTINUOUS
 62
    7
370
   -1
100
AcDbLine
 10
323.2073105149
 20
302.5413550149
 11
323.2073105149
 21
331.3866544765
  0
LINE
  5
B1
100
AcDbEntity
  8
BASE
  6
CONTINUOUS
 62
    7
370
   -1
100
AcDbLine
 10
297.7265484014
 20
287.2526798803
 11
322.7073105149
 21
301.6753296111
  0
LINE
  5
B2
100
AcDbEntity
  8
BASE
  6
CONTINUOUS
 62
    7
370
   -1
100
AcDbLine
 10
322.7073105149
 20
332.2526798803
 11
297.7265484014
 21
346.6753296111
  0
LINE
  5
B3
100
AcDbEntity
  8
BASE
  6
CONTINUOUS
 62
    7
370
   -1
100
AcDbLine
 10
271.7457862878
 20
301.6753296111
 11
296.7265484014
 21
287.2526798803
  0
LINE
  5
B4
100
AcDbEntity
  8
BASE
  6
CONTINUOUS
 62
    7
370
   -1
100
AcDbLine
 10
296.7265484014
 20
346.6753296111
 11
271.7457862878
 21
332.2526798803
  0
LINE
  5
B5
100
AcDbEntity
  8
BASE
  6
CONTINUOUS
 62
    7
370
   -1
100
AcDbLine
 10
271.2457862878
 20
331.3866544765
 11
271.2457862878
 21
302.5413550149
  0
ARC
  5
B6
100
AcDbEntity
  8
BASE
  6
CONTINUOUS
 62
    7
370
   -1
100
AcDbCircle
 10
272.2457862878
 20
331.3866544765
 40
1.000000000000001
100
AcDbArc
 50
120
 51
180
  0
ARC
  5
B7
100
AcDbEntity
  8
BASE
  6
CONTINUOUS
 62
    7
370
   -1
100
AcDbCircle
 10
297.2265484014
 20
345.8093042073
 40
1.000000000000007
100
AcDbArc
 50
59.99999999999999
 51
120
  0
ARC
  5
B8
100
AcDbEntity
  8
BASE
  6
CONTINUOUS
 62
    7
370
   -1
100
AcDbCircle
 10
272.2457862878
 20
302.5413550149
 40
1.000000000000001
100
AcDbArc
 50
180
 51
240
  0
ARC
  5
B9
100
AcDbEntity
  8
BASE
  6
CONTINUOUS
 62
    7
370
   -1
100
AcDbCircle
 10
322.2073105149
 20
331.3866544765
 40
0.9999999999999974
100
AcDbArc
 50
0
 51
59.99999999999999
  0
ARC
  5
BA
100
AcDbEntity
  8
BASE
  6
CONTINUOUS
 62
    7
370
   -1
100
AcDbCircle
 10
297.2265484014
 20
288.118705284
 40
0.9999999999999991
100
AcDbArc
 50
240
 51
300
  0
ARC
  5
BB
100
AcDbEntity
  8
BASE
  6
CONTINUOUS
 62
    7
370
   -1
100
AcDbCircle
 10
322.2073105149
 20
302.5413550149
 40
0.9999999999999872
100
AcDbArc
 50
300
 51
0
  0
CIRCLE
  5
BC
100
AcDbEntity
  8
BASE
  6
CONTINUOUS
 62
    7
370
   -1
100
AcDbCircle
 10
230.2457862878
 20
316.9640047457
 40
30
  0
CIRCLE
  5
BD
100
AcDbEntity
  8
BASE
  6
CONTINUOUS
 62
    7
370
   -1
100
AcDbCircle
 10
159.2457862878
 20
316.9640047457
 40
30
  0
LINE
  5
BE
100
AcDbEntity
  8
KRUH_ZUB_1
  6
CONTINUOUS
 62
    7
370
   -1
100
AcDbLine
 10
97.5809009929
 20
323.8292125317
 11
78.91067158280001
 21
310.0987969597
  0
LINE
  5
BF
100
AcDbEntity
  8
KRUH_ZUB_1
  6
CONTINUOUS
 62
    7
370
   -1
100
AcDbLine
 10
77.976196415
 20
309.9647078667
 11
59.4122929296
 21
316.7214161671
  0
LINE
  5
C0
100
AcDbEntity
  8
KRUH_ZUB_1
  6
CONTINUOUS
 62
    7
370
   -1
100
AcDbLine
 10
116.3672918951
 20
317.4657356727
 11
98.5153761607
 21
323.9633016247
  0
ARC
  5
C1
100
AcDbEntity
  8
KRUH_ZUB_1
  6
CONTINUOUS
 62
    7
370
   -1
100
AcDbCircle
 10
88.2457862878
 20
316.9640047457
 40
29.50000000000001
100
AcDbArc
 50
2.8990433544
 51
178.59841743
  0
ARC
  5
C2
100
AcDbEntity
  8
KRUH_ZUB_1
  6
CONTINUOUS
 62
    7
370
   -1
100
AcDbCircle
 10
116.7093120385
 20
318.4054282935
 40
1.000000000000001
100
AcDbArc
 50
250
 51
2.8990433544
  0
ARC
  5
C3
100
AcDbEntity
  8
KRUH_ZUB_1
  6
CONTINUOUS
 62
    7
370
   -1
100
AcDbCircle
 10
59.754313073
 20
317.6611087879
 40
0.9999999999999979
100
AcDbArc
 50
178.59841743
 51
250
  0
ARC
  5
C4
100
AcDbEntity
  8
KRUH_ZUB_1
  6
CONTINUOUS
 62
    7
370
   -1
100
AcDbCircle
 10
98.1733560174
 20
323.0236090039
 40
1.000000000000006
100
AcDbArc
 50
70
 51
126.3314184217
  0
ARC
  5
C5
100
AcDbEntity
  8
KRUH_ZUB_1
  6
CONTINUOUS
 62
    7
370
   -1
100
AcDbCircle
 10
78.31821655829999
 20
310.9044004874
 40
1.000000000000002
100
AcDbArc
 50
250
 51
306.3314184217
  0
LINE
  5
C6
100
AcDbEntity
  8
KRUH_ZUB_1
  6
CONTINUOUS
 62
    7
370
   -1
100
AcDbLine
 10
78.91067158280001
 20
310.0987969597
 11
97.5809009929
 21
323.8292125317
  0
LINE
  5
C7
100
AcDbEntity
  8
KRUH_ZUB_1
  6
CONTINUOUS
 62
    7
370
   -1
100
AcDbLine
 10
98.5153761607
 20
323.9633016247
 11
117.079279646
 21
317.2065933242
  0
LINE
  5
C8
100
AcDbEntity
  8
KRUH_ZUB_1
  6
CONTINUOUS
 62
    7
370
   -1
100
AcDbLine
 10
60.1242806806
 20
316.4622738186
 11
77.976196415
 21
309.9647078667
  0
ARC
  5
C9
100
AcDbEntity
  8
KRUH_ZUB_1
  6
CONTINUOUS
 62
    7
370
   -1
100
AcDbCircle
 10
88.2457862878
 20
316.9640047457
 40
29.50000000000001
100
AcDbArc
 50
182.8990433544
 51
358.59841743
  0
ARC
  5
CA
100
AcDbEntity
  8
KRUH_ZUB_1
  6
CONTINUOUS
 62
    7
370
   -1
100
AcDbCircle
 10
59.7822605372
 20
315.5225811978
 40
1.000000000000001
100
AcDbArc
 50
70
 51
182.8990433544
  0
ARC
  5
CB
100
AcDbEntity
  8
KRUH_ZUB_1
  6
CONTINUOUS
 62
    7
370
   -1
100
AcDbCircle
 10
116.7372595027
 20
316.2669007034
 40
0.9999999999999931
100
AcDbArc
 50
358.59841743
 51
70
  0
ARC
  5
CC
100
AcDbEntity
  8
KRUH_ZUB_1
  6
CONTINUOUS
 62
    7
370
   -1
100
AcDbCircle
 10
78.31821655829999
 20
310.9044004874
 40
1.000000000000006
100
AcDbArc
 50
250
 51
306.3314184217
  0
ARC
  5
CD
100
AcDbEntity
  8
KRUH_ZUB_1
  6
CONTINUOUS
 62
    7
370
   -1
100
AcDbCircle
 10
98.1733560174
 20
323.0236090039
 40
0.9999999999999941
100
AcDbArc
 50
70
 51
126.3314184217
  0
ARC
  5
CE
100
AcDbEntity
  8
KRUH_TALAS_1
  6
CONTINUOUS
 62
    7
370
   -1
100
AcDbCircle
 10
130.3193791795
 20
314.8993082054
 40
0.5000000000000063
100
AcDbArc
 50
32.5957142158
 51
184.0827092233
  0
ARC
  5
CF
100
AcDbEntity
  8
KRUH_TALAS_1
  6
CONTINUOUS
 62
    7
370
   -1
100
AcDbCircle
 10
144.4957862878
 20
323.9640047457
 40
16.32674186725569
100
AcDbArc
 50
212.5957142158
 51
334.6120937089
  0
ARC
  5
D0
100
AcDbEntity
  8
KRUH_TALAS_1
  6
CONTINUOUS
 62
    7
370
   -1
100
AcDbCircle
 10
159.2457862878
 20
316.9640047457
 40
29.5
100
AcDbArc
 50
184.0827092233
 51
357.2233309747
  0
ARC
  5
D1
100
AcDbEntity
  8
KRUH_TALAS_1
  6
CONTINUOUS
 62
    7
370
   -1
100
AcDbCircle
 10
173.9957862878
 20
309.9640047457
 40
16.3267418672557
100
AcDbArc
 50
30.87875660950001
 51
154.6120937089
  0
ARC
  5
D2
100
AcDbEntity
  8
KRUH_TALAS_1
  6
CONTINUOUS
 62
    7
370
   -1
100
AcDbCircle
 10
183.7170219715
 20
315.7771500311
 40
5.000000000000001
100
AcDbArc
 50
357.2233309747
 51
30.87875660950001
  0
ARC
  5
D3
100
AcDbEntity
  8
KRUH_TALAS_1
  6
CONTINUOUS
 62
    7
370
   -1
100
AcDbCircle
 10
188.1721933962
 20
319.0287012859
 40
0.5000000000000029
100
AcDbArc
 50
212.5957142158
 51
4.0827092233
  0
ARC
  5
D4
100
AcDbEntity
  8
KRUH_TALAS_1
  6
CONTINUOUS
 62
    7
370
   -1
100
AcDbCircle
 10
173.9957862878
 20
309.9640047457
 40
16.32674186725569
100
AcDbArc
 50
32.5957142158
 51
154.6120937089
  0
ARC
  5
D5
100
AcDbEntity
  8
KRUH_TALAS_1
  6
CONTINUOUS
 62
    7
370
   -1
100
AcDbCircle
 10
159.2457862878
 20
316.9640047457
 40
29.5
100
AcDbArc
 50
4.0827092233
 51
177.2233309747
  0
ARC
  5
D6
100
AcDbEntity
  8
KRUH_TALAS_1
  6
CONTINUOUS
 62
    7
370
   -1
100
AcDbCircle
 10
144.4957862878
 20
323.9640047457
 40
16.3267418672557
100
AcDbArc
 50
210.8787566095
 51
334.6120937089
  0
ARC
  5
D7
100
AcDbEntity
  8
KRUH_TALAS_1
  6
CONTINUOUS
 62
    7
370
   -1
100
AcDbCircle
 10
134.7745506042
 20
318.1508594602
 40
4.999999999999996
100
AcDbArc
 50
177.2233309747
 51
210.8787566095
  0
ARC
  5
D8
100
AcDbEntity
  8
KRUH_LINIJA_1
  6
CONTINUOUS
 62
    7
370
   -1
100
AcDbCircle
 10
230.2457862878
 20
316.9640047457
 40
29.5
100
AcDbArc
 50
182.0107909694
 51
357.9892090306
  0
LINE
  5
D9
100
AcDbEntity
  8
KRUH_LINIJA_1
  6
CONTINUOUS
 62
    7
370
   -1
100
AcDbLine
 10
201.7633355506
 20
316.9640047457
 11
258.7282370251
 21
316.9640047457
  0
ARC
  5
DA
100
AcDbEntity
  8
KRUH_LINIJA_1
  6
CONTINUOUS
 62
    7
370
   -1
100
AcDbCircle
 10
258.7282370251
 20
315.9640047457
 40
1.000000000000001
100
AcDbArc
 50
357.9892090306
 51
90
  0
ARC
  5
DB
100
AcDbEntity
  8
KRUH_LINIJA_1
  6
CONTINUOUS
 62
    7
370
   -1
100
AcDbCircle
 10
201.7633355506
 20
315.9640047457
 40
1.000000000000005
100
AcDbArc
 50
90
 51
182.0107909694
  0
ARC
  5
DC
100
AcDbEntity
  8
KRUH_LINIJA_1
  6
CONTINUOUS
 62
    7
370
   -1
100
AcDbCircle
 10
230.2457862878
 20
316.9640047457
 40
29.5
100
AcDbArc
 50
2.0107909694
 51
177.9892090306
  0
LINE
  5
DD
100
AcDbEntity
  8
KRUH_LINIJA_1
  6
CONTINUOUS
 62
    7
370
   -1
100
AcDbLine
 10
258.7282370251
 20
316.9640047457
 11
201.7633355506
 21
316.9640047457
  0
ARC
  5
DE
100
AcDbEntity
  8
KRUH_LINIJA_1
  6
CONTINUOUS
 62
    7
370
   -1
100
AcDbCircle
 10
201.7633355506
 20
317.9640047457
 40
1.000000000000001
100
AcDbArc
 50
177.9892090306
 51
270
  0
ARC
  5
DF
100
AcDbEntity
  8
KRUH_LINIJA_1
  6
CONTINUOUS
 62
    7
370
   -1
100
AcDbCircle
 10
258.7282370251
 20
317.9640047457
 40
0.999999999999997
100
AcDbArc
 50
270
 51
2.0107909694
  0
LINE
  5
E0
100
AcDbEntity
  8
SESTOUGAONIK_LIN
  6
CONTINUOUS
 62
    7
370
   -1
100
AcDbLine
 10
322.7073105149
 20
331.0979793419
 11
322.7073105149
 21
317.9640047457
  0
LINE
  5
E1
100
AcDbEntity
  8
SESTOUGAONIK_LIN
  6
CONTINUOUS
 62
    7
370
   -1
100
AcDbLine
 10
321.7073105149
 20
316.9640047457
 11
272.7457862878
 21
316.9640047457
  0
ARC
  5
E2
100
AcDbEntity
  8
SESTOUGAONIK_LIN
  6
CONTINUOUS
 62
    7
370
   -1
100
AcDbCircle
 10
321.7073105149
 20
317.9640047457
 40
1.000000000000001
100
AcDbArc
 50
270
 51
360
  0
ARC
  5
E3
100
AcDbEntity
  8
SESTOUGAONIK_LIN
  6
CONTINUOUS
 62
    7
370
   -1
100
AcDbCircle
 10
321.7073105149
 20
331.0979793419
 40
1.000000000000007
100
AcDbArc
 50
0
 51
59.99999999999999
  0
ARC
  5
E4
100
AcDbEntity
  8
SESTOUGAONIK_LIN
  6
CONTINUOUS
 62
    7
370
   -1
100
AcDbCircle
 10
272.7457862878
 20
317.9640047457
 40
1.000000000000001
100
AcDbArc
 50
180
 51
270
  0
LINE
  5
E5
100
AcDbEntity
  8
SESTOUGAONIK_LIN
  6
CONTINUOUS
 62
    7
370
   -1
100
AcDbLine
 10
271.7457862878
 20
331.0979793419
 11
271.7457862878
 21
317.9640047457
  0
ARC
  5
E6
100
AcDbEntity
  8
SESTOUGAONIK_LIN
  6
CONTINUOUS
 62
    7
370
   -1
100
AcDbCircle
 10
272.7457862878
 20
331.0979793419
 40
1.000000000000007
100
AcDbArc
 50
120
 51
180
  0
LINE
  5
E7
100
AcDbEntity
  8
SESTOUGAONIK_LIN
  6
CONTINUOUS
 62
    7
370
   -1
100
AcDbLine
 10
296.7265484014
 20
346.0979793419
 11
272.2457862878
 21
331.9640047457
  0
LINE
  5
E8
100
AcDbEntity
  8
SESTOUGAONIK_LIN
  6
CONTINUOUS
 62
    7
370
   -1
100
AcDbLine
 10
297.7265484014
 20
346.0979793419
 11
322.2073105149
 21
331.9640047457
  0
ARC
  5
E9
100
AcDbEntity
  8
SESTOUGAONIK_LIN
  6
CONTINUOUS
 62
    7
370
   -1
100
AcDbCircle
 10
297.2265484014
 20
345.2319539381
 40
1.000000000000001
100
AcDbArc
 50
59.99999999999999
 51
120
  0
LINE
  5
EA
100
AcDbEntity
  8
KRUH_VELKI
  6
CONTINUOUS
 62
    7
370
   -1
100
AcDbLine
 10
298.7456376377
 20
90.4623959366
 11
228.7456376377
 21
90.4623959366
  0
LINE
  5
EB
100
AcDbEntity
  8
KRUH_VELKI
  6
CONTINUOUS
 62
    7
370
   -1
100
AcDbLine
 10
300.7456376377
 20
119.4623959366
 11
300.7456376377
 21
92.4623959366
  0
LINE
  5
EC
100
AcDbEntity
  8
KRUH_VELKI
  6
CONTINUOUS
 62
    7
370
   -1
100
AcDbLine
 10
226.7456376377
 20
92.4623959366
 11
226.7456376377
 21
119.4623959366
  0
LINE
  5
ED
100
AcDbEntity
  8
KRUH_VELKI
  6
CONTINUOUS
 62
    7
370
   -1
100
AcDbLine
 10
228.7456376377
 20
121.4623959366
 11
298.7456376377
 21
121.4623959366
  0
ARC
  5
EE
100
AcDbEntity
  8
KRUH_VELKI
  6
CONTINUOUS
 62
    7
370
   -1
100
AcDbCircle
 10
228.7456376377
 20
119.4623959366
 40
2.000000000000002
100
AcDbArc
 50
90
 51
180
  0
ARC
  5
EF
100
AcDbEntity
  8
KRUH_VELKI
  6
CONTINUOUS
 62
    7
370
   -1
100
AcDbCircle
 10
228.7456376377
 20
92.4623959366
 40
2.000000000000002
100
AcDbArc
 50
180
 51
270
  0
ARC
  5
F0
100
AcDbEntity
  8
KRUH_VELKI
  6
CONTINUOUS
 62
    7
370
   -1
100
AcDbCircle
 10
298.7456376377
 20
119.4623959366
 40
2.000000000000002
100
AcDbArc
 50
0
 51
90
  0
ARC
  5
F1
100
AcDbEntity
  8
KRUH_VELKI
  6
CONTINUOUS
 62
    7
370
   -1
100
AcDbCircle
 10
298.7456376377
 20
92.4623959366
 40
2.000000000000002
100
AcDbArc
 50
270
 51
0
  0
LINE
  5
F2
100
AcDbEntity
  8
SESTOUGAONIK_LIN
  6
CONTINUOUS
 62
    7
370
   -1
100
AcDbLine
 10
271.7457862879
 20
302.8300301494
 11
271.7457862879
 21
315.9640047457
  0
LINE
  5
F3
100
AcDbEntity
  8
SESTOUGAONIK_LIN
  6
CONTINUOUS
 62
    7
370
   -1
100
AcDbLine
 10
272.7457862879
 20
316.9640047457
 11
321.7073105149
 21
316.9640047457
  0
ARC
  5
F4
100
AcDbEntity
  8
SESTOUGAONIK_LIN
  6
CONTINUOUS
 62
    7
370
   -1
100
AcDbCircle
 10
272.7457862879
 20
315.9640047457
 40
1.000000000000001
100
AcDbArc
 50
90
 51
180
  0
ARC
  5
F5
100
AcDbEntity
  8
SESTOUGAONIK_LIN
  6
CONTINUOUS
 62
    7
370
   -1
100
AcDbCircle
 10
272.7457862879
 20
302.8300301494
 40
1.000000000000001
100
AcDbArc
 50
180
 51
240
  0
ARC
  5
F6
100
AcDbEntity
  8
SESTOUGAONIK_LIN
  6
CONTINUOUS
 62
    7
370
   -1
100
AcDbCircle
 10
321.7073105149
 20
315.9640047457
 40
1.000000000000001
100
AcDbArc
 50
0
 51
90
  0
LINE
  5
F7
100
AcDbEntity
  8
SESTOUGAONIK_LIN
  6
CONTINUOUS
 62
    7
370
   -1
100
AcDbLine
 10
322.7073105149
 20
302.8300301494
 11
322.7073105149
 21
315.9640047457
  0
ARC
  5
F8
100
AcDbEntity
  8
SESTOUGAONIK_LIN
  6
CONTINUOUS
 62
    7
370
   -1
100
AcDbCircle
 10
321.7073105149
 20
302.8300301494
 40
0.9999999999999881
100
AcDbArc
 50
300
 51
360
  0
LINE
  5
F9
100
AcDbEntity
  8
SESTOUGAONIK_LIN
  6
CONTINUOUS
 62
    7
370
   -1
100
AcDbLine
 10
297.7265484014
 20
287.8300301494
 11
322.2073105149
 21
301.9640047457
  0
LINE
  5
FA
100
AcDbEntity
  8
SESTOUGAONIK_LIN
  6
CONTINUOUS
 62
    7
370
   -1
100
AcDbLine
 10
296.7265484014
 20
287.8300301494
 11
272.2457862879
 21
301.9640047457
  0
ARC
  5
FB
100
AcDbEntity
  8
SESTOUGAONIK_LIN
  6
CONTINUOUS
 62
    7
370
   -1
100
AcDbCircle
 10
297.2265484014
 20
288.6960555532
 40
0.9999999999999938
100
AcDbArc
 50
240
 51
300
  0
LINE
  5
FC
100
AcDbEntity
  8
SESTOUGAONIK_TAL
  6
CONTINUOUS
 62
    7
370
   -1
100
AcDbLine
 10
297.7265484014
 20
276.0979793419
 11
322.2073105149
 21
261.9640047457
  0
LINE
  5
FD
100
AcDbEntity
  8
SESTOUGAONIK_TAL
  6
CONTINUOUS
 62
    7
370
   -1
100
AcDbLine
 10
322.7073105149
 20
261.0979793419
 11
322.7073105149
 21
248.8900945082
  0
LINE
  5
FE
100
AcDbEntity
  8
SESTOUGAONIK_TAL
  6
CONTINUOUS
 62
    7
370
   -1
100
AcDbLine
 10
272.2457862878
 20
261.9640047457
 11
296.7265484014
 21
276.0979793419
  0
LINE
  5
FF
100
AcDbEntity
  8
SESTOUGAONIK_TAL
  6
CONTINUOUS
 62
    7
370
   -1
100
AcDbLine
 10
271.7457862878
 20
247.1920270621
 11
271.7457862878
 21
261.0979793419
  0
ARC
  5
100
100
AcDbEntity
  8
SESTOUGAONIK_TAL
  6
CONTINUOUS
 62
    7
370
   -1
100
AcDbCircle
 10
284.4861673446
 20
252.9640047457
 40
14.08251786690213
100
AcDbArc
 50
206.1803284489
 51
334.7822126205
  0
ARC
  5
101
100
AcDbEntity
  8
SESTOUGAONIK_TAL
  6
CONTINUOUS
 62
    7
370
   -1
100
AcDbCircle
 10
272.7457862878
 20
247.1920270621
 40
1.000000000000001
100
AcDbArc
 50
180
 51
206.1803284489
  0
ARC
  5
102
100
AcDbEntity
  8
SESTOUGAONIK_TAL
  6
CONTINUOUS
 62
    7
370
   -1
100
AcDbCircle
 10
272.7457862878
 20
261.0979793419
 40
0.9999999999999972
100
AcDbArc
 50
120
 51
180
  0
ARC
  5
103
100
AcDbEntity
  8
SESTOUGAONIK_TAL
  6
CONTINUOUS
 62
    7
370
   -1
100
AcDbCircle
 10
321.7073105149
 20
261.0979793419
 40
1.000000000000001
100
AcDbArc
 50
0
 51
59.99999999999999
  0
ARC
  5
104
100
AcDbEntity
  8
SESTOUGAONIK_TAL
  6
CONTINUOUS
 62
    7
370
   -1
100
AcDbCircle
 10
297.2265484014
 20
275.2319539381
 40
1.00000000000001
100
AcDbArc
 50
59.99999999999999
 51
120
  0
ARC
  5
105
100
AcDbEntity
  8
SESTOUGAONIK_TAL
  6
CONTINUOUS
 62
    7
370
   -1
100
AcDbCircle
 10
309.9669294581
 20
240.9640047457
 40
14.0825178669021
100
AcDbArc
 50
32.9245180656
 51
154.7822126205
  0
ARC
  5
106
100
AcDbEntity
  8
SESTOUGAONIK_TAL
  6
CONTINUOUS
 62
    7
370
   -1
100
AcDbCircle
 10
322.2073105149
 20
248.8900945082
 40
0.5000000000000092
100
AcDbArc
 50
212.9245180656
 51
360
  0
LINE
  5
107
100
AcDbEntity
  8
SESTOUGAONIK_TAL
  6
CONTINUOUS
 62
    7
370
   -1
100
AcDbLine
 10
296.7265484014
 20
217.8300301494
 11
272.2457862878
 21
231.9640047457
  0
LINE
  5
108
100
AcDbEntity
  8
SESTOUGAONIK_TAL
  6
CONTINUOUS
 62
    7
370
   -1
100
AcDbLine
 10
271.7457862878
 20
232.8300301494
 11
271.7457862878
 21
245.0379149831
  0
LINE
  5
109
100
AcDbEntity
  8
SESTOUGAONIK_TAL
  6
CONTINUOUS
 62
    7
370
   -1
100
AcDbLine
 10
322.2073105149
 20
231.9640047457
 11
297.7265484014
 21
217.8300301494
  0
LINE
  5
10A
100
AcDbEntity
  8
SESTOUGAONIK_TAL
  6
CONTINUOUS
 62
    7
370
   -1
100
AcDbLine
 10
322.7073105149
 20
246.7359824292
 11
322.7073105149
 21
232.8300301494
  0
ARC
  5
10B
100
AcDbEntity
  8
SESTOUGAONIK_TAL
  6
CONTINUOUS
 62
    7
370
   -1
100
AcDbCircle
 10
309.9669294581
 20
240.9640047457
 40
14.08251786690213
100
AcDbArc
 50
26.1803284489
 51
154.7822126206
  0
ARC
  5
10C
100
AcDbEntity
  8
SESTOUGAONIK_TAL
  6
CONTINUOUS
 62
    7
370
   -1
100
AcDbCircle
 10
321.7073105149
 20
246.7359824292
 40
1.000000000000001
100
AcDbArc
 50
0
 51
26.1803284489
  0
ARC
  5
10D
100
AcDbEntity
  8
SESTOUGAONIK_TAL
  6
CONTINUOUS
 62
    7
370
   -1
100
AcDbCircle
 10
321.7073105149
 20
232.8300301494
 40
1.000000000000002
100
AcDbArc
 50
300
 51
360
  0
ARC
  5
10E
100
AcDbEntity
  8
SESTOUGAONIK_TAL
  6
CONTINUOUS
 62
    7
370
   -1
100
AcDbCircle
 10
272.7457862878
 20
232.8300301494
 40
1.000000000000001
100
AcDbArc
 50
180
 51
240
  0
ARC
  5
10F
100
AcDbEntity
  8
SESTOUGAONIK_TAL
  6
CONTINUOUS
 62
    7
370
   -1
100
AcDbCircle
 10
297.2265484014
 20
218.6960555532
 40
0.9999999999999996
100
AcDbArc
 50
240
 51
300
  0
ARC
  5
110
100
AcDbEntity
  8
SESTOUGAONIK_TAL
  6
CONTINUOUS
 62
    7
370
   -1
100
AcDbCircle
 10
284.4861673446
 20
252.9640047457
 40
14.0825178669021
100
AcDbArc
 50
212.9245180656
 51
334.7822126206
  0
ARC
  5
111
100
AcDbEntity
  8
SESTOUGAONIK_TAL
  6
CONTINUOUS
 62
    7
370
   -1
100
AcDbCircle
 10
272.2457862878
 20
245.0379149831
 40
0.5000000000000034
100
AcDbArc
 50
32.9245180656
 51
180
  0
LINE
  5
112
100
AcDbEntity
  8
SESTOUGAONIK_ZIG
  6
CONTINUOUS
 62
    7
370
   -1
100
AcDbLine
 10
296.7265484014
 20
147.8300301494
 11
272.2457862878
 21
161.9640047457
  0
LINE
  5
113
100
AcDbEntity
  8
SESTOUGAONIK_ZIG
  6
CONTINUOUS
 62
    7
370
   -1
100
AcDbLine
 10
322.2073105149
 20
161.9640047457
 11
297.7265484014
 21
147.8300301494
  0
LINE
  5
114
100
AcDbEntity
  8
SESTOUGAONIK_ZIG
  6
CONTINUOUS
 62
    7
370
   -1
100
AcDbLine
 10
271.7457862878
 20
162.8300301494
 11
271.7457862878
 21
176.2499307423
  0
LINE
  5
115
100
AcDbEntity
  8
SESTOUGAONIK_ZIG
  6
CONTINUOUS
 62
    7
370
   -1
100
AcDbLine
 10
322.7073105149
 20
176.2637972075
 11
322.7073105149
 21
162.8300301494
  0
LINE
  5
116
100
AcDbEntity
  8
SESTOUGAONIK_ZIG
  6
CONTINUOUS
 62
    7
370
   -1
100
AcDbLine
 10
305.0259540535
 20
183.3994921991
 11
322.0493306582
 21
177.2034898282
  0
LINE
  5
117
100
AcDbEntity
  8
SESTOUGAONIK_ZIG
  6
CONTINUOUS
 62
    7
370
   -1
100
AcDbLine
 10
290.4458560867
 20
170.7319447971
 11
304.007240716
 21
183.1960646943
  0
ARC
  5
118
100
AcDbEntity
  8
SESTOUGAONIK_ZIG
  6
CONTINUOUS
 62
    7
370
   -1
100
AcDbCircle
 10
304.6839339101
 20
182.4597995783
 40
0.9999999999999957
100
AcDbArc
 50
70
 51
132.5857748762
  0
ARC
  5
119
100
AcDbEntity
  8
SESTOUGAONIK_ZIG
  6
CONTINUOUS
 62
    7
370
   -1
100
AcDbCircle
 10
321.7073105149
 20
176.2637972075
 40
1.000000000000001
100
AcDbArc
 50
0
 51
70
  0
ARC
  5
11A
100
AcDbEntity
  8
SESTOUGAONIK_ZIG
  6
CONTINUOUS
 62
    7
370
   -1
100
AcDbCircle
 10
289.7691628926
 20
171.468209913
 40
1.000000000000003
100
AcDbArc
 50
250
 51
312.5857748762
  0
ARC
  5
11B
100
AcDbEntity
  8
SESTOUGAONIK_ZIG
  6
CONTINUOUS
 62
    7
370
   -1
100
AcDbCircle
 10
321.7073105149
 20
162.8300301494
 40
1
100
AcDbArc
 50
300
 51
360
  0
ARC
  5
11C
100
AcDbEntity
  8
SESTOUGAONIK_ZIG
  6
CONTINUOUS
 62
    7
370
   -1
100
AcDbCircle
 10
272.7457862878
 20
162.8300301494
 40
1.000000000000001
100
AcDbArc
 50
180
 51
240
  0
ARC
  5
11D
100
AcDbEntity
  8
SESTOUGAONIK_ZIG
  6
CONTINUOUS
 62
    7
370
   -1
100
AcDbCircle
 10
297.2265484014
 20
148.6960555532
 40
1.000000000000008
100
AcDbArc
 50
240
 51
300
  0
LINE
  5
11E
100
AcDbEntity
  8
SESTOUGAONIK_ZIG
  6
CONTINUOUS
 62
    7
370
   -1
100
AcDbLine
 10
272.4167963595
 20
176.7197770527
 11
289.4271427493
 21
170.5285172922
  0
ARC
  5
11F
100
AcDbEntity
  8
SESTOUGAONIK_ZIG
  6
CONTINUOUS
 62
    7
370
   -1
100
AcDbCircle
 10
272.2457862878
 20
176.2499307423
 40
0.5000000000000019
100
AcDbArc
 50
70
 51
180
  0
SPLINE
  5
120
100
AcDbEntity
  8
ELIPSA_MALA
  6
CONTINUOUS
 62
    7
370
   -1
100
AcDbSpline
210
0
220
0
230
0
 70
   11
 71
    3
 72
   66
 73
   62
 74
    0
 42
1e-007
 43
1e-007
 40
0
 40
0
 40
0
 40
0
 40
0.015625
 40
0.015625
 40
0.03125
 40
0.03125
 40
0.046875
 40
0.046875
 40
0.0625
 40
0.0625
 40
0.0937500000000001
 40
0.0937500000000001
 40
0.1250000000000001
 40
0.1250000000000001
 40
0.1875000000000002
 40
0.1875000000000002
 40
0.2500000000000003
 40
0.2500000000000003
 40
0.3125000000000004
 40
0.3125000000000004
 40
0.3750000000000006
 40
0.3750000000000006
 40
0.4062500000000006
 40
0.4062500000000006
 40
0.4375000000000006
 40
0.4375000000000006
 40
0.4687500000000006
 40
0.4687500000000006
 40
0.4843750000000007
 40
0.4843750000000007
 40
0.4921875000000007
 40
0.4921875000000007
 40
0.5000000000000007
 40
0.5000000000000007
 40
0.5156250000000007
 40
0.5156250000000007
 40
0.5312500000000007
 40
0.5312500000000007
 40
0.5625000000000007
 40
0.5625000000000007
 40
0.5937500000000006
 40
0.5937500000000006
 40
0.6250000000000004
 40
0.6250000000000004
 40
0.6875000000000004
 40
0.6875000000000004
 40
0.7500000000000003
 40
0.7500000000000003
 40
0.8125000000000003
 40
0.8125000000000003
 40
0.8750000000000003
 40
0.8750000000000003
 40
0.9062500000000002
 40
0.9062500000000002
 40
0.9375000000000001
 40
0.9375000000000001
 40
0.9687500000000001
 40
0.9687500000000001
 40
0.9843750000000001
 40
0.9843750000000001
 40
1
 40
1
 40
1
 40
1
 10
174.2456376377035
 20
105.9640047456627
 30
0
 10
174.2456376377035
 20
104.7271363258773
 30
0
 10
173.8648218662931
 20
103.5266619630251
 30
0
 10
172.664042944491
 20
101.4075139521156
 30
0
 10
171.8511152062991
 20
100.4676506510258
 30
0
 10
170.0742340009216
 20
98.81261821590127
 30
0
 10
169.0862749728392
 20
98.07559155194895
 30
0
 10
167.0509365019085
 20
96.75720992309218
 30
0
 10
165.9975055257875
 20
96.17104613637284
 30
0
 10
162.7654447725756
 20
94.55910779174827
 30
0
 10
160.5119524461996
 20
93.67604964729786
 30
0
 10
155.9091475966679
 20
92.14820559172247
 30
0
 10
153.5879705780928
 20
91.51564710332271
 30
0
 10
146.5837175439823
 20
89.88848962009207
 30
0
 10
141.8605457330487
 20
89.16024884474746
 30
0
 10
132.340330452594
 20
88.19450013166235
 30
0
 10
127.5269967736389
 20
87.96297776343667
 30
0
 10
117.9011895687395
 20
87.96503848100861
 30
0
 10
113.1167398474967
 20
88.1969680483148
 30
0
 10
103.6097706928542
 20
89.16338268115234
 30
0
 10
98.88649292843837
 20
89.89171399809175
 30
0
 10
91.86817508638137
 20
91.52465082249795
 30
0
 10
89.53098738730897
 20
92.16322978739447
 30
0
 10
84.93425284859697
 20
93.69300250470819
 30
0
 10
82.67615515112115
 20
94.57906601421875
 30
0
 10
78.34106994951151
 20
96.75089391522268
 30
0
 10
76.28417863577786
 20
97.99920674317754
 30
0
 10
73.61981349892019
 20
100.4895210644455
 30
0
 10
72.80975773267079
 20
101.4284852012712
 30
0
 10
71.90872856989346
 20
103.0336549017909
 30
0
 10
71.66775131920025
 20
103.5904387059502
 30
0
 10
71.33390011512078
 20
104.7582105075096
 30
0
 10
71.24385601118182
 20
105.3771527143146
 30
0
 10
71.24928514722772
 20
107.1941045243393
 30
0
 10
71.62370433856469
 20
108.3993009566993
 30
0
 10
72.84002696137337
 20
110.5402473346561
 30
0
 10
73.63728802661862
 20
111.4583869418948
 30
0
 10
76.32632325297669
 20
113.9609073503016
 30
0
 10
78.4045323752586
 20
115.2148090713652
 30
0
 10
82.76555795107227
 20
117.3876228244947
 30
0
 10
85.01262664504837
 20
118.2634092138636
 30
0
 10
89.56833470324658
 20
119.7748292178256
 30
0
 10
91.88134123521937
 20
120.4067454984326
 30
0
 10
98.89553758425876
 20
122.0377504594802
 30
0
 10
103.6948364313236
 20
122.7770699411137
 30
0
 10
113.2416492497367
 20
123.7398585315818
 30
0
 10
118.0099728291874
 20
123.9649130736724
 30
0
 10
127.5376588770577
 20
123.96309102894
 30
0
 10
132.2970192031625
 20
123.7361063998509
 30
0
 10
141.8056861505014
 20
122.7751037865275
 30
0
 10
146.5783097883662
 20
122.0426809704882
 30
0
 10
153.6424609923687
 20
120.3987408033248
 30
0
 10
155.9765146106143
 20
119.7599334896795
 30
0
 10
160.5678730249013
 20
118.2308387134605
 30
0
 10
162.8120050250282
 20
117.3494182285818
 30
0
 10
167.1255897727727
 20
115.1905266022771
 30
0
 10
169.2283289792296
 20
113.9135599810902
 30
0
 10
171.8855444460404
 20
111.4229922377057
 30
0
 10
172.6715602022525
 20
110.5113250702077
 30
0
 10
173.8720577568922
 20
108.3844309233992
 30
0
 10
174.2456376377035
 20
107.200873165448
 30
0
 10
174.2456376377035
 20
105.9640047456627
 30
0
  0
LINE
  5
121
100
AcDbEntity
  8
SESTOUGAONIK_ZIG
  6
CONTINUOUS
 62
    7
370
   -1
100
AcDbLine
 10
297.7265484014
 20
206.0979793419
 11
322.2073105149
 21
191.9640047457
  0
LINE
  5
122
100
AcDbEntity
  8
SESTOUGAONIK_ZIG
  6
CONTINUOUS
 62
    7
370
   -1
100
AcDbLine
 10
272.2457862878
 20
191.9640047457
 11
296.7265484014
 21
206.0979793419
  0
LINE
  5
123
100
AcDbEntity
  8
SESTOUGAONIK_ZIG
  6
CONTINUOUS
 62
    7
370
   -1
100
AcDbLine
 10
322.7073105149
 20
191.0979793419
 11
322.7073105149
 21
177.678078749
  0
LINE
  5
124
100
AcDbEntity
  8
SESTOUGAONIK_ZIG
  6
CONTINUOUS
 62
    7
370
   -1
100
AcDbLine
 10
271.7457862878
 20
177.6642122839
 11
271.7457862878
 21
191.0979793419
  0
LINE
  5
125
100
AcDbEntity
  8
SESTOUGAONIK_ZIG
  6
CONTINUOUS
 62
    7
370
   -1
100
AcDbLine
 10
289.4271427493
 20
170.5285172922
 11
272.4037661445
 21
176.7245196631
  0
LINE
  5
126
100
AcDbEntity
  8
SESTOUGAONIK_ZIG
  6
CONTINUOUS
 62
    7
370
   -1
100
AcDbLine
 10
304.007240716
 20
183.1960646943
 11
290.4458560867
 21
170.7319447971
  0
ARC
  5
127
100
AcDbEntity
  8
SESTOUGAONIK_ZIG
  6
CONTINUOUS
 62
    7
370
   -1
100
AcDbCircle
 10
289.7691628926
 20
171.468209913
 40
0.9999999999999925
100
AcDbArc
 50
250
 51
312.5857748762
  0
ARC
  5
128
100
AcDbEntity
  8
SESTOUGAONIK_ZIG
  6
CONTINUOUS
 62
    7
370
   -1
100
AcDbCircle
 10
272.7457862878
 20
177.6642122839
 40
1.000000000000001
100
AcDbArc
 50
180
 51
250
  0
ARC
  5
129
100
AcDbEntity
  8
SESTOUGAONIK_ZIG
  6
CONTINUOUS
 62
    7
370
   -1
100
AcDbCircle
 10
304.6839339101
 20
182.4597995783
 40
1.000000000000003
100
AcDbArc
 50
70
 51
132.5857748762
  0
ARC
  5
12A
100
AcDbEntity
  8
SESTOUGAONIK_ZIG
  6
CONTINUOUS
 62
    7
370
   -1
100
AcDbCircle
 10
272.7457862878
 20
191.0979793419
 40
1.000000000000003
100
AcDbArc
 50
120
 51
180
  0
ARC
  5
12B
100
AcDbEntity
  8
SESTOUGAONIK_ZIG
  6
CONTINUOUS
 62
    7
370
   -1
100
AcDbCircle
 10
321.7073105149
 20
191.0979793419
 40
1.000000000000001
100
AcDbArc
 50
0
 51
59.99999999999999
  0
ARC
  5
12C
100
AcDbEntity
  8
SESTOUGAONIK_ZIG
  6
CONTINUOUS
 62
    7
370
   -1
100
AcDbCircle
 10
297.2265484014
 20
205.2319539381
 40
1.000000000000006
100
AcDbArc
 50
59.99999999999999
 51
120
  0
LINE
  5
12D
100
AcDbEntity
  8
SESTOUGAONIK_ZIG
  6
CONTINUOUS
 62
    7
370
   -1
100
AcDbLine
 10
322.0363004432
 20
177.2082324386
 11
305.0259540535
 21
183.3994921991
  0
ARC
  5
12E
100
AcDbEntity
  8
SESTOUGAONIK_ZIG
  6
CONTINUOUS
 62
    7
370
   -1
100
AcDbCircle
 10
322.2073105149
 20
177.678078749
 40
0.5000000000000019
100
AcDbArc
 50
250
 51
360
  0
LINE
  5
12F
100
AcDbEntity
  8
STVOREC_PRAVI
  6
CONTINUOUS
 62
    7
370
   -1
100
AcDbLine
 10
116.7457862878
 20
246.9640047457
 11
59.7457862878
 21
246.9640047457
  0
LINE
  5
130
100
AcDbEntity
  8
STVOREC_PRAVI
  6
CONTINUOUS
 62
    7
370
   -1
100
AcDbLine
 10
117.7457862878
 20
275.4640047457
 11
117.7457862878
 21
247.9640047457
  0
LINE
  5
131
100
AcDbEntity
  8
STVOREC_PRAVI
  6
CONTINUOUS
 62
    7
370
   -1
100
AcDbLine
 10
58.7457862878
 20
247.9640047457
 11
58.7457862878
 21
275.4640047457
  0
LINE
  5
132
100
AcDbEntity
  8
STVOREC_PRAVI
  6
CONTINUOUS
 62
    7
370
   -1
100
AcDbLine
 10
59.7457862878
 20
276.4640047457
 11
116.7457862878
 21
276.4640047457
  0
ARC
  5
133
100
AcDbEntity
  8
STVOREC_PRAVI
  6
CONTINUOUS
 62
    7
370
   -1
100
AcDbCircle
 10
116.7457862878
 20
275.4640047457
 40
1.000000000000001
100
AcDbArc
 50
0
 51
90
  0
ARC
  5
134
100
AcDbEntity
  8
STVOREC_PRAVI
  6
CONTINUOUS
 62
    7
370
   -1
100
AcDbCircle
 10
59.7457862878
 20
275.4640047457
 40
1.000000000000001
100
AcDbArc
 50
90
 51
180
  0
ARC
  5
135
100
AcDbEntity
  8
STVOREC_PRAVI
  6
CONTINUOUS
 62
    7
370
   -1
100
AcDbCircle
 10
116.7457862878
 20
247.9640047457
 40
1.000000000000001
100
AcDbArc
 50
270
 51
0
  0
ARC
  5
136
100
AcDbEntity
  8
STVOREC_PRAVI
  6
CONTINUOUS
 62
    7
370
   -1
100
AcDbCircle
 10
59.7457862878
 20
247.9640047457
 40
1.000000000000001
100
AcDbArc
 50
180
 51
270
  0
LINE
  5
137
100
AcDbEntity
  8
STVOREC_PRAVI
  6
CONTINUOUS
 62
    7
370
   -1
100
AcDbLine
 10
116.7457862878
 20
217.4640047457
 11
59.7457862878
 21
217.4640047457
  0
LINE
  5
138
100
AcDbEntity
  8
STVOREC_PRAVI
  6
CONTINUOUS
 62
    7
370
   -1
100
AcDbLine
 10
117.7457862878
 20
245.9640047457
 11
117.7457862878
 21
218.4640047457
  0
LINE
  5
139
100
AcDbEntity
  8
STVOREC_PRAVI
  6
CONTINUOUS
 62
    7
370
   -1
100
AcDbLine
 10
58.7457862878
 20
218.4640047457
 11
58.7457862878
 21
245.9640047457
  0
LINE
  5
13A
100
AcDbEntity
  8
STVOREC_PRAVI
  6
CONTINUOUS
 62
    7
370
   -1
100
AcDbLine
 10
59.7457862878
 20
246.9640047457
 11
116.7457862878
 21
246.9640047457
  0
ARC
  5
13B
100
AcDbEntity
  8
STVOREC_PRAVI
  6
CONTINUOUS
 62
    7
370
   -1
100
AcDbCircle
 10
116.7457862878
 20
245.9640047457
 40
1.000000000000001
100
AcDbArc
 50
0
 51
90
  0
ARC
  5
13C
100
AcDbEntity
  8
STVOREC_PRAVI
  6
CONTINUOUS
 62
    7
370
   -1
100
AcDbCircle
 10
59.7457862878
 20
245.9640047457
 40
1.000000000000001
100
AcDbArc
 50
90
 51
180
  0
ARC
  5
13D
100
AcDbEntity
  8
STVOREC_PRAVI
  6
CONTINUOUS
 62
    7
370
   -1
100
AcDbCircle
 10
116.7457862878
 20
218.4640047457
 40
1.000000000000001
100
AcDbArc
 50
270
 51
0
  0
ARC
  5
13E
100
AcDbEntity
  8
STVOREC_PRAVI
  6
CONTINUOUS
 62
    7
370
   -1
100
AcDbCircle
 10
59.7457862878
 20
218.4640047457
 40
1.000000000000001
100
AcDbArc
 50
180
 51
270
  0
ARC
  5
13F
100
AcDbEntity
  8
STVOREC_TALAS
  6
CONTINUOUS
 62
    7
370
   -1
100
AcDbCircle
 10
173.9957862878
 20
250.9640047457
 40
15.28275171557793
100
AcDbArc
 50
195.1729153455
 51
334.5398350427
  0
ARC
  5
140
100
AcDbEntity
  8
STVOREC_TALAS
  6
CONTINUOUS
 62
    7
370
   -1
100
AcDbCircle
 10
188.2457862878
 20
244.1792607037
 40
0.4999999999999993
100
AcDbArc
 50
0
 51
154.5398350427
  0
LINE
  5
141
100
AcDbEntity
  8
STVOREC_TALAS
  6
CONTINUOUS
 62
    7
370
   -1
100
AcDbLine
 10
129.7457862878
 20
218.4640047457
 11
129.7457862878
 21
246.2308813647
  0
LINE
  5
142
100
AcDbEntity
  8
STVOREC_TALAS
  6
CONTINUOUS
 62
    7
370
   -1
100
AcDbLine
 10
187.7457862878
 20
217.4640047457
 11
130.7457862878
 21
217.4640047457
  0
LINE
  5
143
100
AcDbEntity
  8
STVOREC_TALAS
  6
CONTINUOUS
 62
    7
370
   -1
100
AcDbLine
 10
188.7457862878
 20
244.1792607037
 11
188.7457862878
 21
218.4640047457
  0
ARC
  5
144
100
AcDbEntity
  8
STVOREC_TALAS
  6
CONTINUOUS
 62
    7
370
   -1
100
AcDbCircle
 10
187.7457862878
 20
218.4640047457
 40
1.000000000000001
100
AcDbArc
 50
270
 51
0
  0
ARC
  5
145
100
AcDbEntity
  8
STVOREC_TALAS
  6
CONTINUOUS
 62
    7
370
   -1
100
AcDbCircle
 10
130.7457862878
 20
218.4640047457
 40
1.000000000000001
100
AcDbArc
 50
180
 51
270
  0
ARC
  5
146
100
AcDbEntity
  8
STVOREC_TALAS
  6
CONTINUOUS
 62
    7
370
   -1
100
AcDbCircle
 10
144.4957862878
 20
242.9640047457
 40
15.28275171557792
100
AcDbArc
 50
15.1729153455
 51
161.4758398169
  0
ARC
  5
147
100
AcDbEntity
  8
STVOREC_TALAS
  6
CONTINUOUS
 62
    7
370
   -1
100
AcDbCircle
 10
134.7457862878
 20
246.2308813647
 40
4.99999999999999
100
AcDbArc
 50
161.4758398169
 51
180
  0
SPLINE
  5
148
100
AcDbEntity
  8
ELIPS_VELKA
  6
CONTINUOUS
 62
    7
370
   -1
100
AcDbSpline
210
0
220
0
230
0
 70
   11
 71
    3
 72
   68
 73
   64
 74
    0
 42
1e-007
 43
1e-007
 40
0
 40
0
 40
0
 40
0
 40
0.015625
 40
0.015625
 40
0.0312499999999999
 40
0.0312499999999999
 40
0.0624999999999999
 40
0.0624999999999999
 40
0.09374999999999981
 40
0.09374999999999981
 40
0.1249999999999997
 40
0.1249999999999997
 40
0.1874999999999996
 40
0.1874999999999996
 40
0.2499999999999994
 40
0.2499999999999994
 40
0.3124999999999993
 40
0.3124999999999993
 40
0.3749999999999992
 40
0.3749999999999992
 40
0.4062499999999992
 40
0.4062499999999992
 40
0.4374999999999992
 40
0.4374999999999992
 40
0.4531249999999992
 40
0.4531249999999992
 40
0.4687499999999992
 40
0.4687499999999992
 40
0.4843749999999993
 40
0.4843749999999993
 40
0.4999999999999992
 40
0.4999999999999992
 40
0.5078124999999992
 40
0.5078124999999992
 40
0.5156249999999992
 40
0.5156249999999992
 40
0.5312499999999992
 40
0.5312499999999992
 40
0.5624999999999993
 40
0.5624999999999993
 40
0.5937499999999993
 40
0.5937499999999993
 40
0.6249999999999993
 40
0.6249999999999993
 40
0.6874999999999994
 40
0.6874999999999994
 40
0.7499999999999996
 40
0.7499999999999996
 40
0.8124999999999998
 40
0.8124999999999998
 40
0.8749999999999998
 40
0.8749999999999998
 40
0.9062499999999999
 40
0.9062499999999999
 40
0.9374999999999999
 40
0.9374999999999999
 40
0.96875
 40
0.96875
 40
0.984375
 40
0.984375
 40
0.9921875
 40
0.9921875
 40
1
 40
1
 40
1
 40
1
 10
174.7456376377035
 20
105.9640047456627
 30
0
 10
174.7456376377035
 20
107.2061250933766
 30
0
 10
174.3828745930189
 20
108.4095638269124
 30
0
 10
173.1967508402926
 20
110.5799833091461
 30
0
 10
172.4082860691954
 20
111.5234932007241
 30
0
 10
169.7416008411622
 20
114.0897718904625
 30
0
 10
167.6551295908255
 20
115.3886698070661
 30
0
 10
163.2951287382812
 20
117.6252697171355
 30
0
 10
161.0289630568887
 20
118.5356733863894
 30
0
 10
156.3962032148392
 20
120.114170668523
 30
0
 10
154.0384756955427
 20
120.7736915913039
 30
0
 10
146.9581017066729
 20
122.4604521652668
 30
0
 10
142.1901680571056
 20
123.2140024296427
 30
0
 10
132.5894351418058
 20
124.216485537378
 30
0
 10
127.7558201786744
 20
124.45907272117
 30
0
 10
118.0274731437626
 20
124.4687909138226
 30
0
 10
113.1682811206896
 20
124.2343782947028
 30
0
 10
103.5552110115248
 20
123.2499397512503
 30
0
 10
98.78655083436921
 20
122.5058969544645
 30
0
 10
91.71577577724193
 20
120.8431980227199
 30
0
 10
89.37271444514879
 20
120.1967877829942
 30
0
 10
84.7268259953744
 20
118.6364569539502
 30
0
 10
82.4520612176462
 20
117.7348380887151
 30
0
 10
79.18727052578357
 20
116.0907852868984
 30
0
 10
78.1228186638659
 20
115.4931966186604
 30
0
 10
76.064709026882
 20
114.1506405495807
 30
0
 10
75.07538676029523
 20
113.4082821313351
 30
0
 10
73.28348139217363
 20
111.7421696784078
 30
0
 10
72.45920382771109
 20
110.7967741363899
 30
0
 10
71.2184651212944
 20
108.6781529347301
 30
0
 10
70.80309891504983
 20
107.4778769042541
 30
0
 10
70.72550751826546
 20
105.6191482022197
 30
0
 10
70.79050159040683
 20
104.988340594873
 30
0
 10
71.07826911138012
 20
103.7900250714393
 30
0
 10
71.29980224291802
 20
103.2123041661984
 30
0
 10
72.14658262644716
 20
101.5530098222971
 30
0
 10
72.91123808278488
 20
100.6007837605318
 30
0
 10
75.53148641506712
 20
97.99512432842816
 30
0
 10
77.64463236099638
 20
96.65465415470497
 30
0
 10
81.98687489569004
 20
94.39451967146549
 30
0
 10
84.24863527452762
 20
93.47470676671196
 30
0
 10
88.87742818642414
 20
91.8792793679377
 30
0
 10
91.24511755900572
 20
91.20927967939613
 30
0
 10
98.39343704928454
 20
89.4904898528317
 30
0
 10
103.2537091764293
 20
88.71945934152791
 30
0
 10
112.9224032621149
 20
87.70887509903521
 30
0
 10
117.758174684977
 20
87.46906050030695
 30
0
 10
127.4322374884679
 20
87.45910381699075
 30
0
 10
132.2705289636889
 20
87.68897936259748
 30
0
 10
141.9499557850337
 20
88.67877425632514
 30
0
 10
146.8212861140728
 20
89.44138495971434
 30
0
 10
153.9382172369946
 20
91.12733554283359
 30
0
 10
156.2831241400817
 20
91.780569539434
 30
0
 10
160.8963231746449
 20
93.34215608230816
 30
0
 10
163.1661867381276
 20
94.2452759372088
 30
0
 10
167.5743457963046
 20
96.48962247924159
 30
0
 10
169.6695075241338
 20
97.78354057494927
 30
0
 10
172.3699855603374
 20
100.3606170965269
 30
0
 10
173.1666999761949
 20
101.3048239695994
 30
0
 10
174.0716260870279
 20
102.9433041704444
 30
0
 10
174.3162842235795
 20
103.5167557806166
 30
0
 10
174.6538130673828
 20
104.7117088107658
 30
0
 10
174.7456376377035
 20
105.3429445718057
 30
0
 10
174.7456376377035
 20
105.9640047456627
 30
0
  0
SPLINE
  5
149
100
AcDbEntity
  8
ELIPS_VELKA
  6
CONTINUOUS
 62
    7
370
   -1
100
AcDbSpline
210
0
220
0
230
0
 70
   11
 71
    3
 72
   72
 73
   68
 74
    0
 42
1e-007
 43
1e-007
 40
0
 40
0
 40
0
 40
0
 40
0.015625
 40
0.015625
 40
0.03125
 40
0.03125
 40
0.0625
 40
0.0625
 40
0.09375
 40
0.09375
 40
0.125
 40
0.125
 40
0.15625
 40
0.15625
 40
0.1875
 40
0.1875
 40
0.2499999999999999
 40
0.2499999999999999
 40
0.3124999999999999
 40
0.3124999999999999
 40
0.3749999999999998
 40
0.3749999999999998
 40
0.4062499999999998
 40
0.4062499999999998
 40
0.4374999999999997
 40
0.4374999999999997
 40
0.4531249999999997
 40
0.4531249999999997
 40
0.4687499999999998
 40
0.4687499999999998
 40
0.4843749999999998
 40
0.4843749999999998
 40
0.4999999999999998
 40
0.4999999999999998
 40
0.5156249999999998
 40
0.5156249999999998
 40
0.5312499999999998
 40
0.5312499999999998
 40
0.5468749999999998
 40
0.5468749999999998
 40
0.5624999999999998
 40
0.5624999999999998
 40
0.5781249999999998
 40
0.5781249999999998
 40
0.5937499999999999
 40
0.5937499999999999
 40
0.6249999999999999
 40
0.6249999999999999
 40
0.6562499999999999
 40
0.6562499999999999
 40
0.6874999999999999
 40
0.6874999999999999
 40
0.7499999999999999
 40
0.7499999999999999
 40
0.8125
 40
0.8125
 40
0.875
 40
0.875
 40
0.90625
 40
0.90625
 40
0.9375000000000001
 40
0.9375000000000001
 40
0.9687500000000001
 40
0.9687500000000001
 40
0.9843750000000001
 40
0.9843750000000001
 40
1
 40
1
 40
1
 40
1
 10
58.74563763770346
 20
105.9640047456627
 30
0
 10
58.74563763770346
 20
107.591403201453
 30
0
 10
59.02650739313178
 20
109.210045036033
 30
0
 10
60.04173498935256
 20
112.2636999329163
 30
0
 10
60.78283442771751
 20
113.7264687819798
 30
0
 10
63.42456347067918
 20
117.7517797328765
 30
0
 10
65.7670894344014
 20
120.0417257519968
 30
0
 10
70.82715625590953
 20
123.9452950339457
 30
0
 10
73.5865111239013
 20
125.5940731377943
 30
0
 10
79.33414347118133
 20
128.4623853146737
 30
0
 10
82.28496479593879
 20
129.6615201618973
 30
0
 10
88.29506471916082
 20
131.7287761161514
 30
0
 10
91.35513012899962
 20
132.5944958593365
 30
0
 10
97.56484128425753
 20
134.0525343932889
 30
0
 10
100.7249787563901
 20
134.6448772967662
 30
0
 10
110.1808497645198
 20
136.035243641626
 30
0
 10
116.4923518122139
 20
136.4670415093721
 30
0
 10
129.1286848337182
 20
136.4609366367667
 30
0
 10
135.4535106461319
 20
136.023370672958
 30
0
 10
148.1185753450509
 20
134.1425493301892
 30
0
 10
154.3468842279133
 20
132.7252016806916
 30
0
 10
163.4224218741686
 20
129.5786018178949
 30
0
 10
166.3863669492315
 20
128.3601698755818
 30
0
 10
172.0658392400803
 20
125.5006422974927
 30
0
 10
174.7978107661233
 20
123.8610658032377
 30
0
 10
178.6137336375439
 20
120.8880822732351
 30
0
 10
179.8170601312796
 20
119.8252631821394
 30
0
 10
182.042668148265
 20
117.5102018897771
 30
0
 10
183.0693004685734
 20
116.2484336991542
 30
0
 10
184.7951326683679
 20
113.5669303042743
 30
0
 10
185.5059600094521
 20
112.139371345942
 30
0
 10
186.5022727769101
 20
109.0474449839247
 30
0
 10
186.7595286389282
 20
107.4579452021728
 30
0
 10
186.7305922493629
 20
104.2109957928948
 30
0
 10
186.4468820122435
 20
102.6367367900825
 30
0
 10
185.4098889926978
 20
99.57405360496088
 30
0
 10
184.6726975754113
 20
98.13779868256663
 30
0
 10
182.9055823770569
 20
95.46414694889357
 30
0
 10
181.8629845120224
 20
94.21172768042024
 30
0
 10
179.625519392013
 20
91.92617866864641
 30
0
 10
178.4216301491464
 20
90.87884944999098
 30
0
 10
175.8857322111804
 20
88.92778981793279
 30
0
 10
174.5469758328941
 20
88.02127509030039
 30
0
 10
171.8145768148507
 20
86.35437401697044
 30
0
 10
170.4167111856195
 20
85.59015024293787
 30
0
 10
166.1473319739991
 20
83.46315014660135
 30
0
 10
163.2010507647854
 20
82.26382677402788
 30
0
 10
157.1608536439615
 20
80.18793104578775
 30
0
 10
154.071728906065
 20
79.31676747451499
 30
0
 10
147.8882693701274
 20
77.8681624230888
 30
0
 10
144.7775528779653
 20
77.28575976499971
 30
0
 10
135.3965714025594
 20
75.90350438139376
 30
0
 10
129.0783737540643
 20
75.46188295395434
 30
0
 10
116.3232275044694
 20
75.46614150707465
 30
0
 10
109.9776605519759
 20
75.91541720444283
 30
0
 10
97.50204935755826
 20
77.76440877223234
 30
0
 10
91.34734990219916
 20
79.1515311625797
 30
0
 10
82.29997610739539
 20
82.26024644651761
 30
0
 10
79.30671600997769
 20
83.47925549950386
 30
0
 10
73.61219377694242
 20
86.32117578111713
 30
0
 10
70.88600021381282
 20
87.94464184918536
 30
0
 10
65.82017701156104
 20
91.83816742581247
 30
0
 10
63.46010584529122
 20
94.13201691641366
 30
0
 10
60.79503284828836
 20
98.17806475033335
 30
0
 10
60.05098075228571
 20
99.6426462278971
 30
0
 10
59.02964749349554
 20
102.7024471696753
 30
0
 10
58.74563763770346
 20
104.3366062898724
 30
0
 10
58.74563763770346
 20
105.9640047456627
 30
0
  0
LINE
  5
14A
100
AcDbEntity
  8
ELIPSA
  6
CONTINUOUS
 62
    7
370
   -1
100
AcDbLine
 10
301.2456376377
 20
91.9623959366
 11
301.2456376377
 21
119.9623959366
  0
LINE
  5
14B
100
AcDbEntity
  8
ELIPSA
  6
CONTINUOUS
 62
    7
370
   -1
100
AcDbLine
 10
299.2456376377
 20
121.9623959366
 11
228.2456376377
 21
121.9623959366
  0
LINE
  5
14C
100
AcDbEntity
  8
ELIPSA
  6
CONTINUOUS
 62
    7
370
   -1
100
AcDbLine
 10
228.2456376377
 20
89.9623959366
 11
299.2456376377
 21
89.9623959366
  0
LINE
  5
14D
100
AcDbEntity
  8
ELIPSA
  6
CONTINUOUS
 62
    7
370
   -1
100
AcDbLine
 10
226.2456376377
 20
119.9623959366
 11
226.2456376377
 21
91.9623959366
  0
ARC
  5
14E
100
AcDbEntity
  8
ELIPSA
  6
CONTINUOUS
 62
    7
370
   -1
100
AcDbCircle
 10
228.2456376377
 20
91.9623959366
 40
2.000000000000002
100
AcDbArc
 50
180
 51
270
  0
ARC
  5
14F
100
AcDbEntity
  8
ELIPSA
  6
CONTINUOUS
 62
    7
370
   -1
100
AcDbCircle
 10
228.2456376377
 20
119.9623959366
 40
2.000000000000002
100
AcDbArc
 50
90
 51
180
  0
ARC
  5
150
100
AcDbEntity
  8
ELIPSA
  6
CONTINUOUS
 62
    7
370
   -1
100
AcDbCircle
 10
299.2456376377
 20
91.9623959366
 40
2.000000000000002
100
AcDbArc
 50
270
 51
0
  0
ARC
  5
151
100
AcDbEntity
  8
ELIPSA
  6
CONTINUOUS
 62
    7
370
   -1
100
AcDbCircle
 10
299.2456376377
 20
119.9623959366
 40
2.000000000000002
100
AcDbArc
 50
0
 51
90
  0
SPLINE
  5
152
100
AcDbEntity
  8
ELIPSA
  6
CONTINUOUS
 62
    7
370
   -1
100
AcDbSpline
210
0
220
0
230
0
 70
   11
 71
    3
 72
   72
 73
   68
 74
    0
 42
1e-007
 43
1e-007
 40
0
 40
0
 40
0
 40
0
 40
0.015625
 40
0.015625
 40
0.03125
 40
0.03125
 40
0.0624999999999999
 40
0.0624999999999999
 40
0.0937499999999999
 40
0.0937499999999999
 40
0.1249999999999999
 40
0.1249999999999999
 40
0.1874999999999998
 40
0.1874999999999998
 40
0.2499999999999998
 40
0.2499999999999998
 40
0.3124999999999997
 40
0.3124999999999997
 40
0.3437499999999997
 40
0.3437499999999997
 40
0.3749999999999997
 40
0.3749999999999997
 40
0.4062499999999996
 40
0.4062499999999996
 40
0.4218749999999996
 40
0.4218749999999996
 40
0.4374999999999996
 40
0.4374999999999996
 40
0.4531249999999996
 40
0.4531249999999996
 40
0.4687499999999996
 40
0.4687499999999996
 40
0.4843749999999995
 40
0.4843749999999995
 40
0.4999999999999995
 40
0.4999999999999995
 40
0.5156249999999994
 40
0.5156249999999994
 40
0.5312499999999994
 40
0.5312499999999994
 40
0.5468749999999994
 40
0.5468749999999994
 40
0.5624999999999994
 40
0.5624999999999994
 40
0.5937499999999993
 40
0.5937499999999993
 40
0.6249999999999993
 40
0.6249999999999993
 40
0.6874999999999993
 40
0.6874999999999993
 40
0.7499999999999994
 40
0.7499999999999994
 40
0.8124999999999994
 40
0.8124999999999994
 40
0.8437499999999996
 40
0.8437499999999996
 40
0.8749999999999997
 40
0.8749999999999997
 40
0.9062499999999998
 40
0.9062499999999998
 40
0.9374999999999998
 40
0.9374999999999998
 40
0.9687499999999999
 40
0.9687499999999999
 40
0.984375
 40
0.984375
 40
1
 40
1
 40
1
 40
1
 10
199.745637637703
 20
105.9623959366465
 30
0
 10
199.745637637703
 20
107.5970975537423
 30
0
 10
200.0296976127875
 20
109.2239690574812
 30
0
 10
201.0506561162369
 20
112.2829164516842
 30
0
 10
201.7940427219503
 20
113.746643397047
 30
0
 10
204.459781203872
 20
117.794269357155
 30
0
 10
206.8198703014093
 20
120.0879562700696
 30
0
 10
211.8856668215216
 20
123.9815438399586
 30
0
 10
214.6118523074759
 20
125.6050320999054
 30
0
 10
220.306361920156
 20
128.4469908540721
 30
0
 10
223.2996187422984
 20
129.6660164775236
 30
0
 10
232.3469976431713
 20
132.7747784116821
 30
0
 10
238.5017022378273
 20
134.1619222425642
 30
0
 10
250.9773245710195
 20
136.0109519030562
 30
0
 10
257.3228941605639
 20
136.4602437557529
 30
0
 10
270.0780624146882
 20
136.4645329318228
 30
0
 10
276.3962708377039
 20
136.0229251137815
 30
0
 10
285.7772685294087
 20
134.6406905517206
 30
0
 10
288.8879904351077
 20
134.058294894713
 30
0
 10
295.0714609125947
 20
132.6097047009977
 30
0
 10
298.1605907572753
 20
131.7385492626464
 30
0
 10
304.2008048351173
 20
129.6626691513233
 30
0
 10
307.1470947574538
 20
128.4633541001088
 30
0
 10
311.4164881305404
 20
126.3363688726049
 30
0
 10
312.8143586666146
 20
125.5721504622474
 30
0
 10
315.5467681611633
 20
123.9052615652876
 30
0
 10
316.8855315957934
 20
122.9987527804359
 30
0
 10
319.4214462479744
 20
121.0477051522792
 30
0
 10
320.625344414823
 20
120.0003825709385
 30
0
 10
322.8628296474708
 20
117.7148493720861
 30
0
 10
323.9054399320529
 20
116.4624385503517
 30
0
 10
325.6725869583574
 20
113.7888000622244
 30
0
 10
326.409794248391
 20
112.3525580612851
 30
0
 10
327.4468326185092
 20
109.2898785999027
 30
0
 10
327.7305658765297
 20
107.7156215221363
 30
0
 10
327.7595511083877
 20
104.4686764748615
 30
0
 10
327.5023173814904
 20
102.8791631256794
 30
0
 10
326.5060454900513
 20
99.78722562042481
 30
0
 10
325.7952298004516
 20
98.35964908468573
 30
0
 10
324.0694214066127
 20
95.67812710541068
 30
0
 10
323.042798163664
 20
94.41634962162391
 30
0
 10
320.8172019630805
 20
92.10126944646544
 30
0
 10
319.6138799531305
 20
91.03844240430399
 30
0
 10
315.7979681596294
 20
88.06543750437619
 30
0
 10
313.0659944851537
 20
86.42584667020861
 30
0
 10
307.3865226828705
 20
83.5662990949232
 30
0
 10
304.4225775213132
 20
82.34785934326078
 30
0
 10
295.3470316382798
 20
79.20123708293129
 30
0
 10
289.1187177072064
 20
77.78387971996884
 30
0
 10
276.4536350048884
 20
75.90304125095759
 30
0
 10
270.128800227332
 20
75.46546910931789
 30
0
 10
257.4924493112675
 20
75.4593542120989
 30
0
 10
251.1809383352275
 20
75.89114830298304
 30
0
 10
241.7250539530248
 20
77.28151018611698
 30
0
 10
238.5649116675336
 20
77.87385185740814
 30
0
 10
232.3551905196289
 20
79.33188854895035
 30
0
 10
229.2951201919635
 20
80.19760761050438
 30
0
 10
223.2850105792775
 20
82.264862647668
 30
0
 10
220.3341844830539
 20
83.46399725995538
 30
0
 10
214.5865427376614
 20
86.33230940895513
 30
0
 10
211.8271823804303
 20
87.98108826064437
 30
0
 10
206.767105935038
 20
91.88465943503878
 30
0
 10
204.4245749636189
 20
94.1746070946662
 30
0
 10
201.7828398079915
 20
98.19992187344701
 30
0
 10
201.0417384675125
 20
99.66269239646616
 30
0
 10
200.0265081910265
 20
102.7163511374675
 30
0
 10
199.745637637703
 20
104.3276943195508
 30
0
 10
199.745637637703
 20
105.9623959366465
 30
0
  0
ARC
  5
153
100
AcDbEntity
  8
STVOREC_TALAS
  6
CONTINUOUS
 62
    7
370
   -1
100
AcDbCircle
 10
144.4957862878
 20
242.9640047457
 40
15.28275171557792
100
AcDbArc
 50
15.1729153455
 51
154.5398350427
  0
ARC
  5
154
100
AcDbEntity
  8
STVOREC_TALAS
  6
CONTINUOUS
 62
    7
370
   -1
100
AcDbCircle
 10
130.2457862878
 20
249.7487487877
 40
0.5000000000000056
100
AcDbArc
 50
180
 51
334.5398350427
  0
LINE
  5
155
100
AcDbEntity
  8
STVOREC_TALAS
  6
CONTINUOUS
 62
    7
370
   -1
100
AcDbLine
 10
188.7457862878
 20
275.4640047457
 11
188.7457862878
 21
247.6971281266
  0
LINE
  5
156
100
AcDbEntity
  8
STVOREC_TALAS
  6
CONTINUOUS
 62
    7
370
   -1
100
AcDbLine
 10
130.7457862878
 20
276.4640047457
 11
187.7457862878
 21
276.4640047457
  0
LINE
  5
157
100
AcDbEntity
  8
STVOREC_TALAS
  6
CONTINUOUS
 62
    7
370
   -1
100
AcDbLine
 10
129.7457862878
 20
249.7487487877
 11
129.7457862878
 21
275.4640047457
  0
ARC
  5
158
100
AcDbEntity
  8
STVOREC_TALAS
  6
CONTINUOUS
 62
    7
370
   -1
100
AcDbCircle
 10
130.7457862878
 20
275.4640047457
 40
1.000000000000001
100
AcDbArc
 50
90
 51
180
  0
ARC
  5
159
100
AcDbEntity
  8
STVOREC_TALAS
  6
CONTINUOUS
 62
    7
370
   -1
100
AcDbCircle
 10
187.7457862878
 20
275.4640047457
 40
1.000000000000001
100
AcDbArc
 50
0
 51
90
  0
ARC
  5
15A
100
AcDbEntity
  8
STVOREC_TALAS
  6
CONTINUOUS
 62
    7
370
   -1
100
AcDbCircle
 10
173.9957862878
 20
250.9640047457
 40
15.28275171557793
100
AcDbArc
 50
195.1729153455
 51
341.4758398169
  0
ARC
  5
15B
100
AcDbEntity
  8
STVOREC_TALAS
  6
CONTINUOUS
 62
    7
370
   -1
100
AcDbCircle
 10
183.7457862878
 20
247.6971281266
 40
5
100
AcDbArc
 50
341.4758398169
 51
0
  0
LINE
  5
15C
100
AcDbEntity
  8
STVOREC_ZIG_YAG
  6
CONTINUOUS
 62
    7
370
   -1
100
AcDbLine
 10
259.7457862878
 20
275.4640047457
 11
259.7457862878
 21
248.0362582059
  0
LINE
  5
15D
100
AcDbEntity
  8
STVOREC_ZIG_YAG
  6
CONTINUOUS
 62
    7
370
   -1
100
AcDbLine
 10
244.5497275409
 20
258.6529782724
 11
215.9418450348
 21
235.2750312189
  0
LINE
  5
15E
100
AcDbEntity
  8
STVOREC_ZIG_YAG
  6
CONTINUOUS
 62
    7
370
   -1
100
AcDbLine
 10
201.7457862878
 20
276.4640047457
 11
258.7457862878
 21
276.4640047457
  0
LINE
  5
15F
100
AcDbEntity
  8
STVOREC_ZIG_YAG
  6
CONTINUOUS
 62
    7
370
   -1
100
AcDbLine
 10
214.6662818698
 20
235.283322037
 11
201.1029986782
 21
246.6642679607
  0
LINE
  5
160
100
AcDbEntity
  8
STVOREC_ZIG_YAG
  6
CONTINUOUS
 62
    7
370
   -1
100
AcDbLine
 10
200.7457862878
 20
247.4303124038
 11
200.7457862878
 21
275.4640047457
  0
ARC
  5
161
100
AcDbEntity
  8
STVOREC_ZIG_YAG
  6
CONTINUOUS
 62
    7
370
   -1
100
AcDbCircle
 10
201.7457862878
 20
247.4303124038
 40
1.000000000000001
100
AcDbArc
 50
180
 51
230
  0
ARC
  5
162
100
AcDbEntity
  8
STVOREC_ZIG_YAG
  6
CONTINUOUS
 62
    7
370
   -1
100
AcDbCircle
 10
201.7457862878
 20
275.4640047457
 40
1.000000000000001
100
AcDbArc
 50
90
 51
180
  0
ARC
  5
163
100
AcDbEntity
  8
STVOREC_ZIG_YAG
  6
CONTINUOUS
 62
    7
370
   -1
100
AcDbCircle
 10
215.3090694795
 20
236.0493664801
 40
0.9999999999999986
100
AcDbArc
 50
230
 51
309.2551961257
  0
ARC
  5
164
100
AcDbEntity
  8
STVOREC_ZIG_YAG
  6
CONTINUOUS
 62
    7
370
   -1
100
AcDbCircle
 10
258.7457862878
 20
275.4640047457
 40
1.000000000000001
100
AcDbArc
 50
0
 51
90
  0
ARC
  5
165
100
AcDbEntity
  8
STVOREC_ZIG_YAG
  6
CONTINUOUS
 62
    7
370
   -1
100
AcDbCircle
 10
245.1825030961
 20
257.8786430112
 40
0.9999999999999996
100
AcDbArc
 50
50
 51
129.2551961257
  0
LINE
  5
166
100
AcDbEntity
  8
STVOREC_ZIG_YAG
  6
CONTINUOUS
 62
    7
370
   -1
100
AcDbLine
 10
258.924392483
 20
247.6532359844
 11
245.8252907058
 21
258.6446874543
  0
ARC
  5
167
100
AcDbEntity
  8
STVOREC_ZIG_YAG
  6
CONTINUOUS
 62
    7
370
   -1
100
AcDbCircle
 10
259.2457862878
 20
248.0362582059
 40
0.5000000000000062
100
AcDbArc
 50
230
 51
0
  0
LINE
  5
168
100
AcDbEntity
  8
STVOREC_ZIG_YAG
  6
CONTINUOUS
 62
    7
370
   -1
100
AcDbLine
 10
200.7457862878
 20
218.4640047457
 11
200.7457862878
 21
245.8917512854
  0
LINE
  5
169
100
AcDbEntity
  8
STVOREC_ZIG_YAG
  6
CONTINUOUS
 62
    7
370
   -1
100
AcDbLine
 10
215.9418450348
 20
235.2750312189
 11
244.5497275409
 21
258.6529782724
  0
LINE
  5
16A
100
AcDbEntity
  8
STVOREC_ZIG_YAG
  6
CONTINUOUS
 62
    7
370
   -1
100
AcDbLine
 10
258.7457862878
 20
217.4640047457
 11
201.7457862878
 21
217.4640047457
  0
LINE
  5
16B
100
AcDbEntity
  8
STVOREC_ZIG_YAG
  6
CONTINUOUS
 62
    7
370
   -1
100
AcDbLine
 10
245.8252907058
 20
258.6446874543
 11
259.3885738975
 21
247.2637415306
  0
LINE
  5
16C
100
AcDbEntity
  8
STVOREC_ZIG_YAG
  6
CONTINUOUS
 62
    7
370
   -1
100
AcDbLine
 10
259.7457862878
 20
246.4976970875
 11
259.7457862878
 21
218.4640047457
  0
ARC
  5
16D
100
AcDbEntity
  8
STVOREC_ZIG_YAG
  6
CONTINUOUS
 62
    7
370
   -1
100
AcDbCircle
 10
258.7457862878
 20
246.4976970875
 40
1.000000000000001
100
AcDbArc
 50
0
 51
50
  0
ARC
  5
16E
100
AcDbEntity
  8
STVOREC_ZIG_YAG
  6
CONTINUOUS
 62
    7
370
   -1
100
AcDbCircle
 10
258.7457862878
 20
218.4640047457
 40
1.000000000000001
100
AcDbArc
 50
270
 51
0
  0
ARC
  5
16F
100
AcDbEntity
  8
STVOREC_ZIG_YAG
  6
CONTINUOUS
 62
    7
370
   -1
100
AcDbCircle
 10
245.1825030961
 20
257.8786430112
 40
1.000000000000004
100
AcDbArc
 50
50
 51
129.2551961257
  0
ARC
  5
170
100
AcDbEntity
  8
STVOREC_ZIG_YAG
  6
CONTINUOUS
 62
    7
370
   -1
100
AcDbCircle
 10
201.7457862878
 20
218.4640047457
 40
1.000000000000001
100
AcDbArc
 50
180
 51
270
  0
ARC
  5
171
100
AcDbEntity
  8
STVOREC_ZIG_YAG
  6
CONTINUOUS
 62
    7
370
   -1
100
AcDbCircle
 10
215.3090694795
 20
236.0493664801
 40
0.9999999999999996
100
AcDbArc
 50
230
 51
309.2551961257
  0
LINE
  5
172
100
AcDbEntity
  8
STVOREC_ZIG_YAG
  6
CONTINUOUS
 62
    7
370
   -1
100
AcDbLine
 10
201.5671800927
 20
246.274773507
 11
214.6662818698
 21
235.283322037
  0
ARC
  5
173
100
AcDbEntity
  8
STVOREC_ZIG_YAG
  6
CONTINUOUS
 62
    7
370
   -1
100
AcDbCircle
 10
201.2457862878
 20
245.8917512854
 40
0.5000000000000018
100
AcDbArc
 50
50
 51
180
  0
LINE
  5
174
100
AcDbEntity
  8
OBDL_NAJM
  6
CONTINUOUS
 62
    7
370
   -1
100
AcDbLine
 10
184.7457862878
 20
187.9640047457
 11
240.2457862878
 21
187.9640047457
  0
LINE
  5
175
100
AcDbEntity
  8
OBDL_NAJM
  6
CONTINUOUS
 62
    7
370
   -1
100
AcDbLine
 10
183.7457862878
 20
166.9640047457
 11
183.7457862878
 21
186.9640047457
  0
LINE
  5
176
100
AcDbEntity
  8
OBDL_NAJM
  6
CONTINUOUS
 62
    7
370
   -1
100
AcDbLine
 10
240.2457862878
 20
165.9640047457
 11
184.7457862878
 21
165.9640047457
  0
LINE
  5
177
100
AcDbEntity
  8
OBDL_NAJM
  6
CONTINUOUS
 62
    7
370
   -1
100
AcDbLine
 10
241.2457862878
 20
186.9640047457
 11
241.2457862878
 21
166.9640047457
  0
ARC
  5
178
100
AcDbEntity
  8
OBDL_NAJM
  6
CONTINUOUS
 62
    7
370
   -1
100
AcDbCircle
 10
184.7457862878
 20
166.9640047457
 40
1.000000000000001
100
AcDbArc
 50
180
 51
270
  0
ARC
  5
179
100
AcDbEntity
  8
OBDL_NAJM
  6
CONTINUOUS
 62
    7
370
   -1
100
AcDbCircle
 10
240.2457862878
 20
166.9640047457
 40
1.000000000000001
100
AcDbArc
 50
270
 51
0
  0
ARC
  5
17A
100
AcDbEntity
  8
OBDL_NAJM
  6
CONTINUOUS
 62
    7
370
   -1
100
AcDbCircle
 10
184.7457862878
 20
186.9640047457
 40
1.000000000000001
100
AcDbArc
 50
90
 51
180
  0
ARC
  5
17B
100
AcDbEntity
  8
OBDL_NAJM
  6
CONTINUOUS
 62
    7
370
   -1
100
AcDbCircle
 10
240.2457862878
 20
186.9640047457
 40
1.000000000000001
100
AcDbArc
 50
0
 51
90
  0
LINE
  5
17C
100
AcDbEntity
  8
OBDL_SRE
  6
CONTINUOUS
 62
    7
370
   -1
100
AcDbLine
 10
175.7457862878
 20
196.9640047457
 11
249.2457862878
 21
196.9640047457
  0
LINE
  5
17D
100
AcDbEntity
  8
OBDL_SRE
  6
CONTINUOUS
 62
    7
370
   -1
100
AcDbLine
 10
174.7457862878
 20
157.9640047457
 11
174.7457862878
 21
195.9640047457
  0
LINE
  5
17E
100
AcDbEntity
  8
OBDL_SRE
  6
CONTINUOUS
 62
    7
370
   -1
100
AcDbLine
 10
249.2457862878
 20
156.9640047457
 11
175.7457862878
 21
156.9640047457
  0
LINE
  5
17F
100
AcDbEntity
  8
OBDL_SRE
  6
CONTINUOUS
 62
    7
370
   -1
100
AcDbLine
 10
250.2457862878
 20
195.9640047457
 11
250.2457862878
 21
157.9640047457
  0
ARC
  5
180
100
AcDbEntity
  8
OBDL_SRE
  6
CONTINUOUS
 62
    7
370
   -1
100
AcDbCircle
 10
175.7457862878
 20
157.9640047457
 40
1.000000000000001
100
AcDbArc
 50
180
 51
270
  0
ARC
  5
181
100
AcDbEntity
  8
OBDL_SRE
  6
CONTINUOUS
 62
    7
370
   -1
100
AcDbCircle
 10
249.2457862878
 20
157.9640047457
 40
1.000000000000001
100
AcDbArc
 50
270
 51
0
  0
ARC
  5
182
100
AcDbEntity
  8
OBDL_SRE
  6
CONTINUOUS
 62
    7
370
   -1
100
AcDbCircle
 10
175.7457862878
 20
195.9640047457
 40
1.000000000000001
100
AcDbArc
 50
90
 51
180
  0
ARC
  5
183
100
AcDbEntity
  8
OBDL_SRE
  6
CONTINUOUS
 62
    7
370
   -1
100
AcDbCircle
 10
249.2457862878
 20
195.9640047457
 40
1.000000000000001
100
AcDbArc
 50
0
 51
90
  0
LINE
  5
184
100
AcDbEntity
  8
OBDL_SRE
  6
CONTINUOUS
 62
    7
370
   -1
100
AcDbLine
 10
241.7457862878
 20
166.4640047457
 11
241.7457862878
 21
187.4640047457
  0
LINE
  5
185
100
AcDbEntity
  8
OBDL_SRE
  6
CONTINUOUS
 62
    7
370
   -1
100
AcDbLine
 10
184.2457862878
 20
165.4640047457
 11
240.7457862878
 21
165.4640047457
  0
LINE
  5
186
100
AcDbEntity
  8
OBDL_SRE
  6
CONTINUOUS
 62
    7
370
   -1
100
AcDbLine
 10
183.2457862878
 20
187.4640047457
 11
183.2457862878
 21
166.4640047457
  0
LINE
  5
187
100
AcDbEntity
  8
OBDL_SRE
  6
CONTINUOUS
 62
    7
370
   -1
100
AcDbLine
 10
240.7457862878
 20
188.4640047457
 11
184.2457862878
 21
188.4640047457
  0
ARC
  5
188
100
AcDbEntity
  8
OBDL_SRE
  6
CONTINUOUS
 62
    7
370
   -1
100
AcDbCircle
 10
184.2457862878
 20
187.4640047457
 40
1.000000000000001
100
AcDbArc
 50
90
 51
180
  0
ARC
  5
189
100
AcDbEntity
  8
OBDL_SRE
  6
CONTINUOUS
 62
    7
370
   -1
100
AcDbCircle
 10
240.7457862878
 20
187.4640047457
 40
1.000000000000001
100
AcDbArc
 50
0
 51
90
  0
ARC
  5
18A
100
AcDbEntity
  8
OBDL_SRE
  6
CONTINUOUS
 62
    7
370
   -1
100
AcDbCircle
 10
184.2457862878
 20
166.4640047457
 40
1.000000000000001
100
AcDbArc
 50
180
 51
270
  0
ARC
  5
18B
100
AcDbEntity
  8
OBDL_SRE
  6
CONTINUOUS
 62
    7
370
   -1
100
AcDbCircle
 10
240.7457862878
 20
166.4640047457
 40
1.000000000000001
100
AcDbArc
 50
270
 51
0
  0
LINE
  5
18C
100
AcDbEntity
  8
OBDL_NAJV
  6
CONTINUOUS
 62
    7
370
   -1
100
AcDbLine
 10
259.7457862878
 20
205.4640047457
 11
259.7457862878
 21
148.4640047457
  0
LINE
  5
18D
100
AcDbEntity
  8
OBDL_NAJV
  6
CONTINUOUS
 62
    7
370
   -1
100
AcDbLine
 10
166.2457862878
 20
206.4640047457
 11
258.7457862878
 21
206.4640047457
  0
LINE
  5
18E
100
AcDbEntity
  8
OBDL_NAJV
  6
CONTINUOUS
 62
    7
370
   -1
100
AcDbLine
 10
165.2457862878
 20
148.4640047457
 11
165.2457862878
 21
205.4640047457
  0
LINE
  5
18F
100
AcDbEntity
  8
OBDL_NAJV
  6
CONTINUOUS
 62
    7
370
   -1
100
AcDbLine
 10
258.7457862878
 20
147.4640047457
 11
166.2457862878
 21
147.4640047457
  0
ARC
  5
190
100
AcDbEntity
  8
OBDL_NAJV
  6
CONTINUOUS
 62
    7
370
   -1
100
AcDbCircle
 10
166.2457862878
 20
205.4640047457
 40
1.000000000000001
100
AcDbArc
 50
90
 51
180
  0
ARC
  5
191
100
AcDbEntity
  8
OBDL_NAJV
  6
CONTINUOUS
 62
    7
370
   -1
100
AcDbCircle
 10
166.2457862878
 20
148.4640047457
 40
1.000000000000001
100
AcDbArc
 50
180
 51
270
  0
ARC
  5
192
100
AcDbEntity
  8
OBDL_NAJV
  6
CONTINUOUS
 62
    7
370
   -1
100
AcDbCircle
 10
258.7457862878
 20
205.4640047457
 40
1.000000000000001
100
AcDbArc
 50
0
 51
90
  0
ARC
  5
193
100
AcDbEntity
  8
OBDL_NAJV
  6
CONTINUOUS
 62
    7
370
   -1
100
AcDbCircle
 10
258.7457862878
 20
148.4640047457
 40
1.000000000000008
100
AcDbArc
 50
270
 51
0
  0
LINE
  5
194
100
AcDbEntity
  8
OBDL_NAJV
  6
CONTINUOUS
 62
    7
370
   -1
100
AcDbLine
 10
249.7457862878
 20
197.4640047457
 11
175.2457862878
 21
197.4640047457
  0
LINE
  5
195
100
AcDbEntity
  8
OBDL_NAJV
  6
CONTINUOUS
 62
    7
370
   -1
100
AcDbLine
 10
174.2457862878
 20
196.4640047457
 11
174.2457862878
 21
157.4640047457
  0
LINE
  5
196
100
AcDbEntity
  8
OBDL_NAJV
  6
CONTINUOUS
 62
    7
370
   -1
100
AcDbLine
 10
250.7457862878
 20
157.4640047457
 11
250.7457862878
 21
196.4640047457
  0
LINE
  5
197
100
AcDbEntity
  8
OBDL_NAJV
  6
CONTINUOUS
 62
    7
370
   -1
100
AcDbLine
 10
175.2457862878
 20
156.4640047457
 11
249.7457862878
 21
156.4640047457
  0
ARC
  5
198
100
AcDbEntity
  8
OBDL_NAJV
  6
CONTINUOUS
 62
    7
370
   -1
100
AcDbCircle
 10
175.2457862878
 20
157.4640047457
 40
1.000000000000001
100
AcDbArc
 50
180
 51
270
  0
ARC
  5
199
100
AcDbEntity
  8
OBDL_NAJV
  6
CONTINUOUS
 62
    7
370
   -1
100
AcDbCircle
 10
249.7457862878
 20
157.4640047457
 40
1.000000000000001
100
AcDbArc
 50
270
 51
0
  0
ARC
  5
19A
100
AcDbEntity
  8
OBDL_NAJV
  6
CONTINUOUS
 62
    7
370
   -1
100
AcDbCircle
 10
175.2457862878
 20
196.4640047457
 40
1.000000000000001
100
AcDbArc
 50
90
 51
180
  0
ARC
  5
19B
100
AcDbEntity
  8
OBDL_NAJV
  6
CONTINUOUS
 62
    7
370
   -1
100
AcDbCircle
 10
249.7457862878
 20
196.4640047457
 40
1.000000000000001
100
AcDbArc
 50
0
 51
90
  0
LINE
  5
19C
100
AcDbEntity
  8
OBDLZ_TROJU_2
  6
CONTINUOUS
 62
    7
370
   -1
100
AcDbLine
 10
105.6038980991
 20
147.9585802139
 11
59.8880216023
 21
205.6534831723
  0
ARC
  5
19D
100
AcDbEntity
  8
OBDLZ_TROJU_2
  6
CONTINUOUS
 62
    7
370
   -1
100
AcDbCircle
 10
105.9957862878
 20
148.2691017872
 40
0.4999999999999963
100
AcDbArc
 50
218.3923506451
 51
321.6076493549
  0
LINE
  5
19E
100
AcDbEntity
  8
OBDLZ_TROJU_2
  6
CONTINUOUS
 62
    7
370
   -1
100
AcDbLine
 10
152.1035509734
 20
205.6534831723
 11
106.3876744766
 21
147.9585802139
  0
ARC
  5
19F
100
AcDbEntity
  8
OBDLZ_TROJU_2
  6
CONTINUOUS
 62
    7
370
   -1
100
AcDbCircle
 10
151.7116627846
 20
205.9640047457
 40
0.5000000000000004
100
AcDbArc
 50
321.6076493549
 51
90
  0
LINE
  5
1A0
100
AcDbEntity
  8
OBDLZ_TROJU_2
  6
CONTINUOUS
 62
    7
370
   -1
100
AcDbLine
 10
60.2799097911
 20
206.4640047457
 11
151.7116627846
 21
206.4640047457
  0
ARC
  5
1A1
100
AcDbEntity
  8
OBDLZ_TROJU_2
  6
CONTINUOUS
 62
    7
370
   -1
100
AcDbCircle
 10
60.2799097911
 20
205.9640047457
 40
0.5000000000000052
100
AcDbArc
 50
90
 51
218.3923506451
  0
LINE
  5
1A2
100
AcDbEntity
  8
OBDLZNIJ_TROJUH1
  6
CONTINUOUS
 62
    7
370
   -1
100
AcDbLine
 10
60.5295626654
 20
204.8438377665
 11
104.7113156589
 21
149.0850478923
  0
ARC
  5
1A3
100
AcDbEntity
  8
OBDLZNIJ_TROJUH1
  6
CONTINUOUS
 62
    7
370
   -1
100
AcDbCircle
 10
59.7457862878
 20
204.2227946199
 40
1.000000000000001
100
AcDbArc
 50
38.3923506451
 51
180
  0
LINE
  5
1A4
100
AcDbEntity
  8
OBDLZNIJ_TROJUH1
  6
CONTINUOUS
 62
    7
370
   -1
100
AcDbLine
 10
58.7457862878
 20
148.4640047457
 11
58.7457862878
 21
204.2227946199
  0
ARC
  5
1A5
100
AcDbEntity
  8
OBDLZNIJ_TROJUH1
  6
CONTINUOUS
 62
    7
370
   -1
100
AcDbCircle
 10
59.7457862878
 20
148.4640047457
 40
1.000000000000001
100
AcDbArc
 50
180
 51
270
  0
LINE
  5
1A6
100
AcDbEntity
  8
OBDLZNIJ_TROJUH1
  6
CONTINUOUS
 62
    7
370
   -1
100
AcDbLine
 10
103.9275392814
 20
147.4640047457
 11
59.7457862878
 21
147.4640047457
  0
ARC
  5
1A7
100
AcDbEntity
  8
OBDLZNIJ_TROJUH1
  6
CONTINUOUS
 62
    7
370
   -1
100
AcDbCircle
 10
103.9275392814
 20
148.4640047457
 40
1.000000000000006
100
AcDbArc
 50
270
 51
38.3923506451
  0
LINE
  5
1A8
100
AcDbEntity
  8
OBDLZNIJ_TROJUH1
  6
CONTINUOUS
 62
    7
370
   -1
100
AcDbLine
 10
153.2457862878
 20
204.2227946199
 11
153.2457862878
 21
148.4640047457
  0
ARC
  5
1A9
100
AcDbEntity
  8
OBDLZNIJ_TROJUH1
  6
CONTINUOUS
 62
    7
370
   -1
100
AcDbCircle
 10
152.2457862878
 20
204.2227946199
 40
1.000000000000001
100
AcDbArc
 50
0
 51
141.6076493549
  0
LINE
  5
1AA
100
AcDbEntity
  8
OBDLZNIJ_TROJUH1
  6
CONTINUOUS
 62
    7
370
   -1
100
AcDbLine
 10
152.2457862878
 20
147.4640047457
 11
108.0640332943
 21
147.4640047457
  0
ARC
  5
1AB
100
AcDbEntity
  8
OBDLZNIJ_TROJUH1
  6
CONTINUOUS
 62
    7
370
   -1
100
AcDbCircle
 10
152.2457862878
 20
148.4640047457
 40
1.000000000000008
100
AcDbArc
 50
270
 51
0
  0
LINE
  5
1AC
100
AcDbEntity
  8
OBDLZNIJ_TROJUH1
  6
CONTINUOUS
 62
    7
370
   -1
100
AcDbLine
 10
107.2802569167
 20
149.0850478923
 11
151.4620099103
 21
204.8438377665
  0
ARC
  5
1AD
100
AcDbEntity
  8
OBDLZNIJ_TROJUH1
  6
CONTINUOUS
 62
    7
370
   -1
100
AcDbCircle
 10
108.0640332943
 20
148.4640047457
 40
0.9999999999999888
100
AcDbArc
 50
141.6076493549
 51
270
  0
ENDBLK
  5
64
330
62
100
AcDbEntity
  8
0
100
AcDbBlockEnd
  0
ENDSEC
  0
SECTION
  2
ENTITIES
  0
INSERT
  5
1AE
100
AcDbEntity
  8
DEFAULT
  6
ByLayer
 62
  256
370
   -1
100
AcDbBlockReference
  2
SE
 10
0
 20
0
 30
0
 41
1
 42
1
 43
0
 50
0
 70
    1
 71
    1
 44
0
 45
0
  0
MTEXT
  5
1AF
100
AcDbEntity
  8
0
  6
ByLayer
 62
  256
370
   -1
100
AcDbMText
 10
-39.27068582518537
 20
409.7810694801952
 30
0
 40
6
 41
466.6428533333337
 71
    1
 72
    1
  1
WWW.CRAFTSMANSPACE.COM\PShape matching board plan\PCut the shapes twice and glue them together to get the thickness out of the plan.
  7
romant
210
0
220
0
230
1
 50
0
 73
    2
 44
1
  0
ENDSEC
  0
SECTION
  2
OBJECTS
  0
DICTIONARY
  5
C
330
0
100
AcDbDictionary
281
    1
  3
ACAD_GROUP
350
D
  0
DICTIONARY
  5
D
330
C
100
AcDbDictionary
281
    1
  0
ENDSEC
  0
EOF
