999
dxfrw 0.6.3
  0
SECTION
  2
HEADER
  9
$ACADVER
  1
AC1021
  9
$DWGCODEPAGE
  3
ANSI_1252
  9
$INSBASE
 10
0
 20
0
 30
0
  9
$EXTMIN
 10
72.98047675309849
 20
455.7287246107848
 30
0
  9
$EXTMAX
 10
585.3615434197651
 20
515.7287023885626
 30
0
  9
$LIMMIN
 10
0
 20
0
  9
$LIMMAX
 10
594
 20
420
  9
$ORTHOMODE
 70
    0
  9
$REGENMODE
 70
    1
  9
$FILLMODE
 70
    1
  9
$QTEXTMODE
 70
    0
  9
$MIRRTEXT
 70
    1
  9
$LTSCALE
 40
1
  9
$ATTMODE
 70
    1
  9
$TEXTSIZE
 40
2.5
  9
$TRACEWID
 40
1
  9
$TEXTSTYLE
  7
STANDARD
  9
$CLAYER
  8
0
  9
$CELTYPE
  6
BYLAYER
  9
$CECOLOR
 62
  256
  9
$CELTSCALE
 40
1
  9
$DISPSILH
 70
    0
  9
$DIMSCALE
 40
1
  9
$DIMASZ
 40
2.5
  9
$DIMEXO
 40
0.625
  9
$DIMDLI
 40
3.75
  9
$DIMRND
 40
0
  9
$DIMDLE
 40
0
  9
$DIMEXE
 40
1.25
  9
$DIMTP
 40
0
  9
$DIMTM
 40
0
  9
$DIMTXT
 40
2.5
  9
$DIMCEN
 40
2.5
  9
$DIMTSZ
 40
0
  9
$DIMTOL
 70
    0
  9
$DIMLIM
 70
    0
  9
$DIMTIH
 70
    0
  9
$DIMTOH
 70
    0
  9
$DIMSE1
 70
    0
  9
$DIMSE2
 70
    0
  9
$DIMTAD
 70
    1
  9
$DIMZIN
 70
    8
  9
$DIMBLK
  1

  9
$DIMASO
 70
    1
  9
$DIMSHO
 70
    1
  9
$DIMPOST
  1

  9
$DIMAPOST
  1

  9
$DIMALT
 70
    0
  9
$DIMALTD
 70
    3
  9
$DIMALTF
 40
0.0393700787
  9
$DIMLFAC
 40
1
  9
$DIMTOFL
 70
    1
  9
$DIMTVP
 40
0
  9
$DIMTIX
 70
    0
  9
$DIMSOXD
 70
    0
  9
$DIMSAH
 70
    0
  9
$DIMBLK1
  1

  9
$DIMBLK2
  1

  9
$DIMSTYLE
  2
ISO-25
  9
$DIMCLRD
 70
    0
  9
$DIMCLRE
 70
    0
  9
$DIMCLRT
 70
    0
  9
$DIMTFAC
 40
1
  9
$DIMGAP
 40
0.625
  9
$DIMJUST
 70
    0
  9
$DIMSD1
 70
    0
  9
$DIMSD2
 70
    0
  9
$DIMTOLJ
 70
    0
  9
$DIMTZIN
 70
    8
  9
$DIMALTZ
 70
    0
  9
$DIMALTTZ
 70
    0
  9
$DIMUPT
 70
    0
  9
$DIMDEC
 70
    2
  9
$DIMTDEC
 70
    2
  9
$DIMALTU
 70
    2
  9
$DIMALTTD
 70
    3
  9
$DIMTXSTY
  7
STANDARD
  9
$DIMAUNIT
 70
    0
  9
$DIMADEC
 70
    0
  9
$DIMALTRND
 40
0
  9
$DIMAZIN
 70
    0
  9
$DIMDSEP
 70
   44
  9
$DIMATFIT
 70
    3
  9
$DIMFRAC
 70
    0
  9
$DIMLDRBLK
  1
STANDARD
  9
$DIMLUNIT
 70
    2
  9
$DIMLWD
 70
   -2
  9
$DIMLWE
 70
   -2
  9
$DIMTMOVE
 70
    0
  9
$DIMFXL
 40
1
  9
$DIMFXLON
 70
    0
  9
$DIMJOGANG
 40
0.7854
  9
$DIMTFILL
 70
    0
  9
$DIMTFILLCLR
 70
    0
  9
$DIMARCSYM
 70
    0
  9
$DIMLTYPE
  6

  9
$DIMLTEX1
  6

  9
$DIMLTEX2
  6

  9
$LUNITS
 70
    2
  9
$LUPREC
 70
    4
  9
$SKETCHINC
 40
1
  9
$FILLETRAD
 40
10
  9
$AUNITS
 70
    0
  9
$AUPREC
 70
    0
  9
$MENU
  1
.
  9
$ELEVATION
 40
0
  9
$PELEVATION
 40
0
  9
$THICKNESS
 40
0
  9
$LIMCHECK
 70
    0
  9
$CHAMFERA
 40
10
  9
$CHAMFERB
 40
10
  9
$CHAMFERC
 40
20
  9
$CHAMFERD
 40
0
  9
$SKPOLY
 70
    0
  9
$USRTIMER
 70
    1
  9
$ANGBASE
 50
0
  9
$ANGDIR
 70
    0
  9
$PDMODE
 70
    0
  9
$PDSIZE
 40
0
  9
$PLINEWID
 40
0
  9
$SPLFRAME
 70
    0
  9
$SPLINETYPE
 70
    6
  9
$SPLINESEGS
 70
    8
  9
$HANDSEED
  5
20000
  9
$SURFTAB1
 70
    6
  9
$SURFTAB2
 70
    6
  9
$SURFTYPE
 70
    6
  9
$SURFU
 70
    6
  9
$SURFV
 70
    6
  9
$UCSBASE
  2

  9
$UCSNAME
  2

  9
$UCSORG
 10
0
 20
0
 30
0
  9
$UCSXDIR
 10
1
 20
0
 30
0
  9
$UCSYDIR
 10
0
 20
1
 30
0
  9
$UCSORTHOREF
  2

  9
$UCSORTHOVIEW
 70
    0
  9
$UCSORGTOP
 10
0
 20
0
 30
0
  9
$UCSORGBOTTOM
 10
0
 20
0
 30
0
  9
$UCSORGLEFT
 10
0
 20
0
 30
0
  9
$UCSORGRIGHT
 10
0
 20
0
 30
0
  9
$UCSORGFRONT
 10
0
 20
0
 30
0
  9
$UCSORGBACK
 10
0
 20
0
 30
0
  9
$PUCSBASE
  2

  9
$PUCSNAME
  2

  9
$PUCSORG
 10
0
 20
0
 30
0
  9
$PUCSXDIR
 10
1
 20
0
 30
0
  9
$PUCSYDIR
 10
0
 20
1
 30
0
  9
$PUCSORTHOREF
  2

  9
$PUCSORTHOVIEW
 70
    0
  9
$PUCSORGTOP
 10
0
 20
0
 30
0
  9
$PUCSORGBOTTOM
 10
0
 20
0
 30
0
  9
$PUCSORGLEFT
 10
0
 20
0
 30
0
  9
$PUCSORGRIGHT
 10
0
 20
0
 30
0
  9
$PUCSORGFRONT
 10
0
 20
0
 30
0
  9
$PUCSORGBACK
 10
0
 20
0
 30
0
  9
$USERI1
 70
    0
  9
$USERI2
 70
    0
  9
$USERI3
 70
    0
  9
$USERI4
 70
    0
  9
$USERI5
 70
    0
  9
$USERR1
 40
0
  9
$USERR2
 40
0
  9
$USERR3
 40
0
  9
$USERR4
 40
0
  9
$USERR5
 40
0
  9
$WORLDVIEW
 70
    1
  9
$SHADEDGE
 70
    3
  9
$SHADEDIF
 70
   70
  9
$TILEMODE
 70
    1
  9
$MAXACTVP
 70
   64
  9
$PINSBASE
 10
0
 20
0
 30
0
  9
$PLIMCHECK
 70
    0
  9
$PEXTMIN
 10
0
 20
0
 30
0
  9
$PEXTMAX
 10
594
 20
420
 30
0
  9
$GRIDMODE
 70
    0
  9
$SNAPSTYLE
 70
    0
  9
$PLIMMIN
 10
0
 20
0
  9
$PLIMMAX
 10
594
 20
420
  9
$UNITMODE
 70
    0
  9
$VISRETAIN
 70
    1
  9
$PLINEGEN
 70
    0
  9
$PSLTSCALE
 70
    1
  9
$TREEDEPTH
 70
 3020
  9
$CMLSTYLE
  2
STANDARD
  9
$CMLJUST
 70
    0
  9
$CMLSCALE
 40
20
  9
$PROXYGRAPHICS
 70
    1
  9
$MEASUREMENT
 70
    1
  9
$CELWEIGHT
370
   -1
  9
$ENDCAPS
280
    0
  9
$JOINSTYLE
280
    0
  9
$LWDISPLAY
290
    0
  9
$INSUNITS
 70
    4
  9
$HYPERLINKBASE
  1

  9
$STYLESHEET
  1

  9
$XEDIT
290
    1
  9
$CEPSNTYPE
380
    0
  9
$PSTYLEMODE
290
    1
  9
$EXTNAMES
290
    1
  9
$PSVPSCALE
 40
1
  9
$OLESTARTUP
290
    0
  9
$SORTENTS
280
  127
  9
$INDEXCTL
280
    0
  9
$HIDETEXT
280
    1
  9
$XCLIPFRAME
290
    0
  9
$HALOGAP
280
    0
  9
$OBSCOLOR
 70
  257
  9
$OBSLTYPE
280
    0
  9
$INTERSECTIONDISPLAY
280
    0
  9
$INTERSECTIONCOLOR
 70
  257
  9
$DIMASSOC
280
    1
  9
$PROJECTNAME
  1

  9
$CAMERADISPLAY
290
    0
  9
$LENSLENGTH
 40
50
  9
$CAMERAHEIGHT
 40
0
  9
$STEPSPERSEC
 40
2
  9
$STEPSIZE
 40
50
  9
$3DDWFPREC
 40
2
  9
$PSOLWIDTH
 40
5
  9
$PSOLHEIGHT
 40
80
  9
$LOFTANG1
 40
1.570796326794897
  9
$LOFTANG2
 40
1.570796326794897
  9
$LOFTMAG1
 40
0
  9
$LOFTMAG2
 40
0
  9
$LOFTPARAM
 70
    7
  9
$LOFTNORMALS
280
    1
  9
$LATITUDE
 40
1
  9
$LONGITUDE
 40
1
  9
$NORTHDIRECTION
 40
0
  9
$TIMEZONE
 70
-8000
  9
$LIGHTGLYPHDISPLAY
280
    1
  9
$TILEMODELIGHTSYNCH
280
    1
  9
$SOLIDHIST
280
    1
  9
$SHOWHIST
280
    1
  9
$DWFFRAME
280
    2
  9
$DGNFRAME
280
    0
  9
$REALWORLDSCALE
290
    1
  9
$INTERFERECOLOR
 62
    1
  9
$CSHADOW
280
    0
  9
$SHADOWPLANELOCATION
 40
0
  0
ENDSEC
  0
SECTION
  2
CLASSES
  0
ENDSEC
  0
SECTION
  2
TABLES
  0
TABLE
  2
VPORT
  5
8
330
0
100
AcDbSymbolTable
 70
    1
  0
VPORT
  5
31
330
2
100
AcDbSymbolTableRecord
100
AcDbViewportTableRecord
  2
*ACTIVE
 70
    0
 10
0
 20
0
 11
1
 21
1
 12
436.840282279261
 22
265.5099249493678
 13
0
 23
0
 14
10
 24
10
 15
10
 25
10
 16
0
 26
0
 36
1
 17
0
 27
0
 37
0
 40
590.0992834607678
 41
1.886925795053004
 42
50
 43
0
 44
0
 50
0
 51
0
 71
    0
 72
  100
 73
    1
 74
    3
 75
    0
 76
    0
 77
    0
 78
    0
281
    0
 65
    1
110
0
120
0
130
0
111
1
121
0
131
0
112
0
122
1
132
0
 79
    0
146
0
348
10020
 60
    7
 61
    5
292
1
282
    1
141
0
142
0
 63
  250
421
3358443
  0
ENDTAB
  0
TABLE
  2
LTYPE
  5
5
330
0
100
AcDbSymbolTable
 70
    4
  0
LTYPE
  5
14
330
5
100
AcDbSymbolTableRecord
100
AcDbLinetypeTableRecord
  2
ByBlock
 70
    0
  3

 72
   65
 73
    0
 40
0
  0
LTYPE
  5
15
330
5
100
AcDbSymbolTableRecord
100
AcDbLinetypeTableRecord
  2
ByLayer
 70
    0
  3

 72
   65
 73
    0
 40
0
  0
LTYPE
  5
16
330
5
100
AcDbSymbolTableRecord
100
AcDbLinetypeTableRecord
  2
Continuous
 70
    0
  3
Solid line
 72
   65
 73
    0
 40
0
  0
LTYPE
  5
32
330
5
100
AcDbSymbolTableRecord
100
AcDbLinetypeTableRecord
  2
DOT
 70
    0
  3
Dot . . . . . . . . . . . . . . . . . . . . . .
 72
   65
 73
    2
 40
6.35
 49
0
 74
    0
 49
-6.35
 74
    0
  0
LTYPE
  5
33
330
5
100
AcDbSymbolTableRecord
100
AcDbLinetypeTableRecord
  2
DOTTINY
 70
    0
  3
Dot (.15x) .....................................
 72
   65
 73
    2
 40
0.9525
 49
0
 74
    0
 49
-0.9525
 74
    0
  0
LTYPE
  5
34
330
5
100
AcDbSymbolTableRecord
100
AcDbLinetypeTableRecord
  2
DOT2
 70
    0
  3
Dot (.5x) .....................................
 72
   65
 73
    2
 40
3.175
 49
0
 74
    0
 49
-3.175
 74
    0
  0
LTYPE
  5
35
330
5
100
AcDbSymbolTableRecord
100
AcDbLinetypeTableRecord
  2
DOTX2
 70
    0
  3
Dot (2x) .  .  .  .  .  .  .  .  .  .  .  .  .
 72
   65
 73
    2
 40
12.7
 49
0
 74
    0
 49
-12.7
 74
    0
  0
LTYPE
  5
36
330
5
100
AcDbSymbolTableRecord
100
AcDbLinetypeTableRecord
  2
DASHED
 70
    0
  3
Dashed _ _ _ _ _ _ _ _ _ _ _ _ _ _ _ _ _
 72
   65
 73
    2
 40
19.05
 49
12.7
 74
    0
 49
-6.35
 74
    0
  0
LTYPE
  5
37
330
5
100
AcDbSymbolTableRecord
100
AcDbLinetypeTableRecord
  2
DASHEDTINY
 70
    0
  3
Dashed (.15x) _ _ _ _ _ _ _ _ _ _ _ _ _ _ _ _ _
 72
   65
 73
    2
 40
2.8575
 49
1.905
 74
    0
 49
-0.9525
 74
    0
  0
LTYPE
  5
38
330
5
100
AcDbSymbolTableRecord
100
AcDbLinetypeTableRecord
  2
DASHED2
 70
    0
  3
Dashed (.5x) _ _ _ _ _ _ _ _ _ _ _ _ _ _ _ _ _
 72
   65
 73
    2
 40
9.524999999999999
 49
6.35
 74
    0
 49
-3.175
 74
    0
  0
LTYPE
  5
39
330
5
100
AcDbSymbolTableRecord
100
AcDbLinetypeTableRecord
  2
DASHEDX2
 70
    0
  3
Dashed (2x) ____  ____  ____  ____  ____  ___
 72
   65
 73
    2
 40
38.09999999999999
 49
25.4
 74
    0
 49
-12.7
 74
    0
  0
LTYPE
  5
3A
330
5
100
AcDbSymbolTableRecord
100
AcDbLinetypeTableRecord
  2
DASHDOT
 70
    0
  3
Dash dot __ . __ . __ . __ . __ . __ . __ . __
 72
   65
 73
    4
 40
25.4
 49
12.7
 74
    0
 49
-6.35
 74
    0
 49
0
 74
    0
 49
-6.35
 74
    0
  0
LTYPE
  5
3B
330
5
100
AcDbSymbolTableRecord
100
AcDbLinetypeTableRecord
  2
DASHDOTTINY
 70
    0
  3
Dash dot (.15x) _._._._._._._._._._._._._._._.
 72
   65
 73
    4
 40
3.81
 49
1.905
 74
    0
 49
-0.9525
 74
    0
 49
0
 74
    0
 49
-0.9525
 74
    0
  0
LTYPE
  5
3C
330
5
100
AcDbSymbolTableRecord
100
AcDbLinetypeTableRecord
  2
DASHDOT2
 70
    0
  3
Dash dot (.5x) _._._._._._._._._._._._._._._.
 72
   65
 73
    4
 40
12.7
 49
6.35
 74
    0
 49
-3.175
 74
    0
 49
0
 74
    0
 49
-3.175
 74
    0
  0
LTYPE
  5
3D
330
5
100
AcDbSymbolTableRecord
100
AcDbLinetypeTableRecord
  2
DASHDOTX2
 70
    0
  3
Dash dot (2x) ____  .  ____  .  ____  .  ___
 72
   65
 73
    4
 40
50.8
 49
25.4
 74
    0
 49
-12.7
 74
    0
 49
0
 74
    0
 49
-12.7
 74
    0
  0
LTYPE
  5
3E
330
5
100
AcDbSymbolTableRecord
100
AcDbLinetypeTableRecord
  2
DIVIDE
 70
    0
  3
Divide ____ . . ____ . . ____ . . ____ . . ____
 72
   65
 73
    6
 40
31.75
 49
12.7
 74
    0
 49
-6.35
 74
    0
 49
0
 74
    0
 49
-6.35
 74
    0
 49
0
 74
    0
 49
-6.35
 74
    0
  0
LTYPE
  5
3F
330
5
100
AcDbSymbolTableRecord
100
AcDbLinetypeTableRecord
  2
DIVIDETINY
 70
    0
  3
Divide (.15x) __..__..__..__..__..__..__..__.._
 72
   65
 73
    6
 40
4.7625
 49
1.905
 74
    0
 49
-0.9525
 74
    0
 49
0
 74
    0
 49
-0.9525
 74
    0
 49
0
 74
    0
 49
-0.9525
 74
    0
  0
LTYPE
  5
40
330
5
100
AcDbSymbolTableRecord
100
AcDbLinetypeTableRecord
  2
DIVIDE2
 70
    0
  3
Divide (.5x) __..__..__..__..__..__..__..__.._
 72
   65
 73
    6
 40
15.875
 49
6.35
 74
    0
 49
-3.175
 74
    0
 49
0
 74
    0
 49
-3.175
 74
    0
 49
0
 74
    0
 49
-3.175
 74
    0
  0
LTYPE
  5
41
330
5
100
AcDbSymbolTableRecord
100
AcDbLinetypeTableRecord
  2
DIVIDEX2
 70
    0
  3
Divide (2x) ________  .  .  ________  .  .  _
 72
   65
 73
    6
 40
63.5
 49
25.4
 74
    0
 49
-12.7
 74
    0
 49
0
 74
    0
 49
-12.7
 74
    0
 49
0
 74
    0
 49
-12.7
 74
    0
  0
LTYPE
  5
42
330
5
100
AcDbSymbolTableRecord
100
AcDbLinetypeTableRecord
  2
BORDER
 70
    0
  3
Border __ __ . __ __ . __ __ . __ __ . __ __ .
 72
   65
 73
    6
 40
44.45
 49
12.7
 74
    0
 49
-6.35
 74
    0
 49
12.7
 74
    0
 49
-6.35
 74
    0
 49
0
 74
    0
 49
-6.35
 74
    0
  0
LTYPE
  5
43
330
5
100
AcDbSymbolTableRecord
100
AcDbLinetypeTableRecord
  2
BORDERTINY
 70
    0
  3
Border (.15x) __.__.__.__.__.__.__.__.__.__.__.
 72
   65
 73
    6
 40
6.6675
 49
1.905
 74
    0
 49
-0.9525
 74
    0
 49
1.905
 74
    0
 49
-0.9525
 74
    0
 49
0
 74
    0
 49
-0.9525
 74
    0
  0
LTYPE
  5
44
330
5
100
AcDbSymbolTableRecord
100
AcDbLinetypeTableRecord
  2
BORDER2
 70
    0
  3
Border (.5x) __.__.__.__.__.__.__.__.__.__.__.
 72
   65
 73
    6
 40
22.225
 49
6.35
 74
    0
 49
-3.175
 74
    0
 49
6.35
 74
    0
 49
-3.175
 74
    0
 49
0
 74
    0
 49
-3.175
 74
    0
  0
LTYPE
  5
45
330
5
100
AcDbSymbolTableRecord
100
AcDbLinetypeTableRecord
  2
BORDERX2
 70
    0
  3
Border (2x) ____  ____  .  ____  ____  .  ___
 72
   65
 73
    6
 40
88.89999999999999
 49
25.4
 74
    0
 49
-12.7
 74
    0
 49
25.4
 74
    0
 49
-12.7
 74
    0
 49
0
 74
    0
 49
-12.7
 74
    0
  0
LTYPE
  5
46
330
5
100
AcDbSymbolTableRecord
100
AcDbLinetypeTableRecord
  2
CENTER
 70
    0
  3
Center ____ _ ____ _ ____ _ ____ _ ____ _ ____
 72
   65
 73
    4
 40
50.8
 49
31.75
 74
    0
 49
-6.35
 74
    0
 49
6.35
 74
    0
 49
-6.35
 74
    0
  0
LTYPE
  5
47
330
5
100
AcDbSymbolTableRecord
100
AcDbLinetypeTableRecord
  2
CENTERTINY
 70
    0
  3
Center (.15x) ___ _ ___ _ ___ _ ___ _ ___ _ ___
 72
   65
 73
    4
 40
7.62
 49
4.7625
 74
    0
 49
-0.9525
 74
    0
 49
0.9525
 74
    0
 49
-0.9525
 74
    0
  0
LTYPE
  5
48
330
5
100
AcDbSymbolTableRecord
100
AcDbLinetypeTableRecord
  2
CENTER2
 70
    0
  3
Center (.5x) ___ _ ___ _ ___ _ ___ _ ___ _ ___
 72
   65
 73
    4
 40
28.575
 49
19.05
 74
    0
 49
-3.175
 74
    0
 49
3.175
 74
    0
 49
-3.175
 74
    0
  0
LTYPE
  5
49
330
5
100
AcDbSymbolTableRecord
100
AcDbLinetypeTableRecord
  2
CENTERX2
 70
    0
  3
Center (2x) ________  __  ________  __  _____
 72
   65
 73
    4
 40
101.6
 49
63.5
 74
    0
 49
-12.7
 74
    0
 49
12.7
 74
    0
 49
-12.7
 74
    0
  0
ENDTAB
  0
TABLE
  2
LAYER
  5
2
330
0
100
AcDbSymbolTable
 70
    1
  0
LAYER
  5
10
330
2
100
AcDbSymbolTableRecord
100
AcDbLayerTableRecord
  2
0
 70
    0
 62
    7
  6
CONTINUOUS
370
   -3
390
F
  0
LAYER
  5
4A
330
2
100
AcDbSymbolTableRecord
100
AcDbLayerTableRecord
  2
0BDLZ
 70
    0
 62
    7
  6
CONTINUOUS
370
   -3
390
F
  0
LAYER
  5
4B
330
2
100
AcDbSymbolTableRecord
100
AcDbLayerTableRecord
  2
CIRCLE
 70
    0
 62
    7
  6
CONTINUOUS
370
   -3
390
F
  0
LAYER
  5
4C
330
2
100
AcDbSymbolTableRecord
100
AcDbLayerTableRecord
  2
DEFAULT
 70
    0
 62
    7
  6
CONTINUOUS
370
   -3
390
F
  0
LAYER
  5
4D
330
2
100
AcDbSymbolTableRecord
100
AcDbLayerTableRecord
  2
DETELINA
 70
    0
 62
    7
  6
CONTINUOUS
370
   -3
390
F
  0
LAYER
  5
4E
330
2
100
AcDbSymbolTableRecord
100
AcDbLayerTableRecord
  2
ELIPSA_P
 70
    0
 62
    7
  6
CONTINUOUS
370
   -3
390
F
  0
LAYER
  5
4F
330
2
100
AcDbSymbolTableRecord
100
AcDbLayerTableRecord
  2
KRISKA_CIRCLE
 70
    0
 62
    7
  6
CONTINUOUS
370
   -3
390
F
  0
LAYER
  5
50
330
2
100
AcDbSymbolTableRecord
100
AcDbLayerTableRecord
  2
KRST
 70
    0
 62
    7
  6
CONTINUOUS
370
   -3
390
F
  0
LAYER
  5
51
330
2
100
AcDbSymbolTableRecord
100
AcDbLayerTableRecord
  2
L
 70
    0
 62
    7
  6
CONTINUOUS
370
   -3
390
F
  0
LAYER
  5
52
330
2
100
AcDbSymbolTableRecord
100
AcDbLayerTableRecord
  2
OSNOVA
 70
    0
 62
    7
  6
CONTINUOUS
370
   -3
390
F
  0
LAYER
  5
53
330
2
100
AcDbSymbolTableRecord
100
AcDbLayerTableRecord
  2
PACKMAN
 70
    0
 62
    7
  6
CONTINUOUS
370
   -3
390
F
  0
LAYER
  5
54
330
2
100
AcDbSymbolTableRecord
100
AcDbLayerTableRecord
  2
PETOSTRAN
 70
    0
 62
    7
  6
CONTINUOUS
370
   -3
390
F
  0
LAYER
  5
55
330
2
100
AcDbSymbolTableRecord
100
AcDbLayerTableRecord
  2
POKLOPAC
 70
    0
 62
    7
  6
CONTINUOUS
370
   -3
390
F
  0
LAYER
  5
56
330
2
100
AcDbSymbolTableRecord
100
AcDbLayerTableRecord
  2
POLUKRUG
 70
    0
 62
    7
  6
CONTINUOUS
370
   -3
390
F
  0
LAYER
  5
57
330
2
100
AcDbSymbolTableRecord
100
AcDbLayerTableRecord
  2
PRAVOKRUG
 70
    0
 62
    7
  6
CONTINUOUS
370
   -3
390
F
  0
LAYER
  5
58
330
2
100
AcDbSymbolTableRecord
100
AcDbLayerTableRecord
  2
ROMB
 70
    0
 62
    7
  6
CONTINUOUS
370
   -3
390
F
  0
LAYER
  5
59
330
2
100
AcDbSymbolTableRecord
100
AcDbLayerTableRecord
  2
SESTOSTRAN
 70
    0
 62
    7
  6
CONTINUOUS
370
   -3
390
F
  0
LAYER
  5
5A
330
2
100
AcDbSymbolTableRecord
100
AcDbLayerTableRecord
  2
SQUARE
 70
    0
 62
    7
  6
CONTINUOUS
370
   -3
390
F
  0
LAYER
  5
5B
330
2
100
AcDbSymbolTableRecord
100
AcDbLayerTableRecord
  2
SRCE
 70
    0
 62
    7
  6
CONTINUOUS
370
   -3
390
F
  0
LAYER
  5
5C
330
2
100
AcDbSymbolTableRecord
100
AcDbLayerTableRecord
  2
STRANA2
 70
    0
 62
    7
  6
CONTINUOUS
370
   -3
390
F
  0
LAYER
  5
5D
330
2
100
AcDbSymbolTableRecord
100
AcDbLayerTableRecord
  2
STRANA_1
 70
    0
 62
    7
  6
CONTINUOUS
370
   -3
390
F
  0
LAYER
  5
5E
330
2
100
AcDbSymbolTableRecord
100
AcDbLayerTableRecord
  2
STRANA_11
 70
    0
 62
    7
  6
CONTINUOUS
370
   -3
390
F
  0
LAYER
  5
5F
330
2
100
AcDbSymbolTableRecord
100
AcDbLayerTableRecord
  2
STRANA_22
 70
    0
 62
    7
  6
CONTINUOUS
370
   -3
390
F
  0
LAYER
  5
60
330
2
100
AcDbSymbolTableRecord
100
AcDbLayerTableRecord
  2
T
 70
    0
 62
    7
  6
CONTINUOUS
370
   -3
390
F
  0
LAYER
  5
61
330
2
100
AcDbSymbolTableRecord
100
AcDbLayerTableRecord
  2
TRAPEZ
 70
    0
 62
    7
  6
CONTINUOUS
370
   -3
390
F
  0
LAYER
  5
62
330
2
100
AcDbSymbolTableRecord
100
AcDbLayerTableRecord
  2
TRIANGLE
 70
    0
 62
    7
  6
CONTINUOUS
370
   -3
390
F
  0
LAYER
  5
63
330
2
100
AcDbSymbolTableRecord
100
AcDbLayerTableRecord
  2
TRIANGLE_NORMAL
 70
    0
 62
    7
  6
CONTINUOUS
370
   -3
390
F
  0
LAYER
  5
64
330
2
100
AcDbSymbolTableRecord
100
AcDbLayerTableRecord
  2
ZVEZDA
 70
    0
 62
    7
  6
CONTINUOUS
370
   -3
390
F
  0
ENDTAB
  0
TABLE
  2
STYLE
  5
3
330
0
100
AcDbSymbolTable
 70
    3
  0
STYLE
  5
65
330
2
100
AcDbSymbolTableRecord
100
AcDbTextStyleTableRecord
  2
romanc
 70
    0
 40
0
 41
1
 50
0
 71
    0
 42
1
  3
romanc
  4

  0
STYLE
  5
66
330
2
100
AcDbSymbolTableRecord
100
AcDbTextStyleTableRecord
  2
Standard
 70
    0
 40
0
 41
1
 50
0
 71
    0
 42
1
  3
txt
  4

  0
ENDTAB
  0
TABLE
  2
VIEW
  5
6
330
0
100
AcDbSymbolTable
 70
    0
  0
ENDTAB
  0
TABLE
  2
UCS
  5
7
330
0
100
AcDbSymbolTable
 70
    0
  0
ENDTAB
  0
TABLE
  2
APPID
  5
9
330
0
100
AcDbSymbolTable
 70
    1
  0
APPID
  5
12
330
9
100
AcDbSymbolTableRecord
100
AcDbRegAppTableRecord
  2
ACAD
 70
    0
  0
APPID
  5
67
330
9
100
AcDbSymbolTableRecord
100
AcDbRegAppTableRecord
  2
LibreCad
 70
    0
  0
ENDTAB
  0
TABLE
  2
DIMSTYLE
  5
A
330
0
100
AcDbSymbolTable
 70
    1
100
AcDbDimStyleTable
 71
    1
  0
DIMSTYLE
105
68
330
A
100
AcDbSymbolTableRecord
100
AcDbDimStyleTableRecord
  2
Standard
 70
    0
 40
1
 41
2.5
 42
0.625
 43
0.38
 44
1.25
 45
0
 46
0
 47
0
 48
0
 49
1
140
2.5
141
0.09
142
0
143
25.4
144
1
145
0
146
1
147
0.625
148
0
 71
    0
 72
    0
 73
    0
 74
    1
 75
    0
 76
    0
 77
    0
 78
    8
 79
    0
170
    0
171
    2
172
    0
173
    0
174
    0
175
    0
176
    0
177
    0
178
    0
179
    0
271
    2
272
    4
273
    2
274
    2
275
    0
276
    0
277
    2
278
    0
279
    0
280
    0
281
    0
282
    0
283
    1
284
    0
285
    0
286
    0
288
    0
289
    3
340
STANDARD
341

371
   -2
372
   -2
  0
ENDTAB
  0
TABLE
  2
BLOCK_RECORD
  5
1
330
0
100
AcDbSymbolTable
 70
    2
  0
BLOCK_RECORD
  5
1F
330
1
100
AcDbSymbolTableRecord
100
AcDbBlockTableRecord
  2
*Model_Space
 70
    0
280
    1
281
    0
  0
BLOCK_RECORD
  5
1E
330
1
100
AcDbSymbolTableRecord
100
AcDbBlockTableRecord
  2
*Paper_Space
 70
    0
280
    1
281
    0
  0
BLOCK_RECORD
  5
69
330
1
100
AcDbSymbolTableRecord
100
AcDbBlockTableRecord
  2
SE
 70
    0
280
    1
281
    0
  0
BLOCK_RECORD
  5
6C
330
1
100
AcDbSymbolTableRecord
100
AcDbBlockTableRecord
  2
SE1
 70
    0
280
    1
281
    0
  0
BLOCK_RECORD
  5
6F
330
1
100
AcDbSymbolTableRecord
100
AcDbBlockTableRecord
  2
SE2
 70
    0
280
    1
281
    0
  0
BLOCK_RECORD
  5
72
330
1
100
AcDbSymbolTableRecord
100
AcDbBlockTableRecord
  2
SE3
 70
    0
280
    1
281
    0
  0
BLOCK_RECORD
  5
75
330
1
100
AcDbSymbolTableRecord
100
AcDbBlockTableRecord
  2
SE4
 70
    0
280
    1
281
    0
  0
BLOCK_RECORD
  5
78
330
1
100
AcDbSymbolTableRecord
100
AcDbBlockTableRecord
  2
SE5
 70
    0
280
    1
281
    0
  0
ENDTAB
  0
ENDSEC
  0
SECTION
  2
BLOCKS
  0
BLOCK
  5
20
330
1F
100
AcDbEntity
  8
0
100
AcDbBlockBegin
  2
*Model_Space
 70
    0
 10
0
 20
0
 30
0
  3
*Model_Space
  1

  0
ENDBLK
  5
21
330
1F
100
AcDbEntity
  8
0
100
AcDbBlockEnd
  0
BLOCK
  5
1C
330
1B
100
AcDbEntity
  8
0
100
AcDbBlockBegin
  2
*Paper_Space
 70
    0
 10
0
 20
0
 30
0
  3
*Paper_Space
  1

  0
ENDBLK
  5
1D
330
1F
100
AcDbEntity
  8
0
100
AcDbBlockEnd
  0
BLOCK
  5
6A
330
69
100
AcDbEntity
  8
0
100
AcDbBlockBegin
  2
SE
 70
    0
 10
0
 20
0
  3
SE
  1

  0
LINE
  5
7B
100
AcDbEntity
  8
STRANA2
  6
CONTINUOUS
 62
    7
370
   -1
100
AcDbLine
 10
-45.290562869
 20
447.0204307647
 11
11.709437131
 21
447.0204307647
  0
LINE
  5
7C
100
AcDbEntity
  8
STRANA2
  6
CONTINUOUS
 62
    7
370
   -1
100
AcDbLine
 10
-45.290562869
 20
225.0204307647
 11
-45.290562869
 21
257.0204307647
  0
LINE
  5
7D
100
AcDbEntity
  8
STRANA2
  6
CONTINUOUS
 62
    7
370
   -1
100
AcDbLine
 10
168.709437131
 20
225.0204307647
 11
141.709437131
 21
225.0204307647
  0
LINE
  5
7E
100
AcDbEntity
  8
STRANA2
  6
CONTINUOUS
 62
    7
370
   -1
100
AcDbLine
 10
168.709437131
 20
447.0204307647
 11
168.709437131
 21
417.0204307647
  0
LINE
  5
7F
100
AcDbEntity
  8
STRANA2
  6
CONTINUOUS
 62
    7
370
   -1
100
AcDbLine
 10
111.709437131
 20
447.0204307647
 11
168.709437131
 21
447.0204307647
  0
LINE
  5
80
100
AcDbEntity
  8
STRANA2
  6
CONTINUOUS
 62
    7
370
   -1
100
AcDbLine
 10
111.709437131
 20
439.0204307647
 11
111.709437131
 21
447.0204307647
  0
LINE
  5
81
100
AcDbEntity
  8
STRANA2
  6
CONTINUOUS
 62
    7
370
   -1
100
AcDbLine
 10
11.709437131
 20
447.0204307647
 11
11.709437131
 21
439.0204307647
  0
LINE
  5
82
100
AcDbEntity
  8
STRANA2
  6
CONTINUOUS
 62
    7
370
   -1
100
AcDbLine
 10
11.709437131
 20
439.0204307647
 11
111.709437131
 21
439.0204307647
  0
LINE
  5
83
100
AcDbEntity
  8
STRANA2
  6
CONTINUOUS
 62
    7
370
   -1
100
AcDbLine
 10
154.6880544209
 20
346.6044238658
 11
115.1880544209
 21
415.0204307647
  0
LINE
  5
84
100
AcDbEntity
  8
STRANA2
  6
CONTINUOUS
 62
    7
370
   -1
100
AcDbLine
 10
115.1880544209
 20
415.0204307647
 11
75.6880544209
 21
346.6044238658
  0
LINE
  5
85
100
AcDbEntity
  8
STRANA2
  6
CONTINUOUS
 62
    7
370
   -1
100
AcDbLine
 10
75.6880544209
 20
346.6044238658
 11
154.6880544209
 21
346.6044238658
  0
LINE
  5
86
100
AcDbEntity
  8
STRANA2
  6
CONTINUOUS
 62
    7
370
   -1
100
AcDbLine
 10
13.9242188722
 20
344.2337094097
 11
-23.290562869
 21
371.2718310152
  0
LINE
  5
87
100
AcDbEntity
  8
STRANA2
  6
CONTINUOUS
 62
    7
370
   -1
100
AcDbLine
 10
-23.290562869
 20
371.2718310152
 11
-9.075781127799999
 21
415.0204307647
  0
LINE
  5
88
100
AcDbEntity
  8
STRANA2
  6
CONTINUOUS
 62
    7
370
   -1
100
AcDbLine
 10
-9.075781127799999
 20
415.0204307647
 11
36.9242188722
 21
415.0204307647
  0
LINE
  5
89
100
AcDbEntity
  8
STRANA2
  6
CONTINUOUS
 62
    7
370
   -1
100
AcDbLine
 10
36.9242188722
 20
415.0204307647
 11
51.1390006135
 21
371.2718310152
  0
LINE
  5
8A
100
AcDbEntity
  8
STRANA2
  6
CONTINUOUS
 62
    7
370
   -1
100
AcDbLine
 10
51.1390006135
 20
371.2718310152
 11
13.9242188722
 21
344.2337094097
  0
LINE
  5
8B
100
AcDbEntity
  8
STRANA2
  6
CONTINUOUS
 62
    7
370
   -1
100
AcDbLine
 10
120.2645734023
 20
257.0204307647
 11
56.7645734023
 21
257.0204307647
  0
LINE
  5
8C
100
AcDbEntity
  8
STRANA2
  6
CONTINUOUS
 62
    7
370
   -1
100
AcDbLine
 10
56.7645734023
 20
257.0204307647
 11
86.209437131
 21
308.0204307647
  0
LINE
  5
8D
100
AcDbEntity
  8
STRANA2
  6
CONTINUOUS
 62
    7
370
   -1
100
AcDbLine
 10
86.209437131
 20
308.0204307647
 11
149.709437131
 21
308.0204307647
  0
LINE
  5
8E
100
AcDbEntity
  8
STRANA2
  6
CONTINUOUS
 62
    7
370
   -1
100
AcDbLine
 10
149.709437131
 20
308.0204307647
 11
120.2645734023
 21
257.0204307647
  0
LINE
  5
8F
100
AcDbEntity
  8
STRANA2
  6
CONTINUOUS
 62
    7
370
   -1
100
AcDbLine
 10
-23.290562869
 20
310.5204307647
 11
-23.290562869
 21
247.0204307647
  0
LINE
  5
90
100
AcDbEntity
  8
STRANA2
  6
CONTINUOUS
 62
    7
370
   -1
100
AcDbLine
 10
-23.290562869
 20
247.0204307647
 11
40.209437131
 21
247.0204307647
  0
LINE
  5
91
100
AcDbEntity
  8
STRANA2
  6
CONTINUOUS
 62
    7
370
   -1
100
AcDbLine
 10
40.209437131
 20
247.0204307647
 11
40.209437131
 21
310.5204307647
  0
LINE
  5
92
100
AcDbEntity
  8
STRANA2
  6
CONTINUOUS
 62
    7
370
   -1
100
AcDbLine
 10
40.209437131
 20
310.5204307647
 11
-23.290562869
 21
310.5204307647
  0
LINE
  5
93
100
AcDbEntity
  8
STRANA2
  6
CONTINUOUS
 62
    7
370
   -1
100
AcDbLine
 10
-45.290562869
 20
289.0204307647
 11
-45.290562869
 21
321.0204307647
  0
LINE
  5
94
100
AcDbEntity
  8
STRANA2
  6
CONTINUOUS
 62
    7
370
   -1
100
AcDbLine
 10
-45.290562869
 20
353.0204307647
 11
-45.290562869
 21
385.0204307647
  0
LINE
  5
95
100
AcDbEntity
  8
STRANA2
  6
CONTINUOUS
 62
    7
370
   -1
100
AcDbLine
 10
-45.290562869
 20
417.0204307647
 11
-45.290562869
 21
447.0204307647
  0
LINE
  5
96
100
AcDbEntity
  8
STRANA2
  6
CONTINUOUS
 62
    7
370
   -1
100
AcDbLine
 10
109.709437131
 20
225.0204307647
 11
77.709437131
 21
225.0204307647
  0
LINE
  5
97
100
AcDbEntity
  8
STRANA2
  6
CONTINUOUS
 62
    7
370
   -1
100
AcDbLine
 10
45.709437131
 20
225.0204307647
 11
13.709437131
 21
225.0204307647
  0
LINE
  5
98
100
AcDbEntity
  8
STRANA2
  6
CONTINUOUS
 62
    7
370
   -1
100
AcDbLine
 10
-18.290562869
 20
225.0204307647
 11
-45.290562869
 21
225.0204307647
  0
LINE
  5
99
100
AcDbEntity
  8
STRANA2
  6
CONTINUOUS
 62
    7
370
   -1
100
AcDbLine
 10
168.709437131
 20
385.0204307647
 11
168.709437131
 21
353.0204307647
  0
LINE
  5
9A
100
AcDbEntity
  8
STRANA2
  6
CONTINUOUS
 62
    7
370
   -1
100
AcDbLine
 10
168.709437131
 20
321.0204307647
 11
168.709437131
 21
289.0204307647
  0
LINE
  5
9B
100
AcDbEntity
  8
STRANA2
  6
CONTINUOUS
 62
    7
370
   -1
100
AcDbLine
 10
168.709437131
 20
257.0204307647
 11
168.709437131
 21
225.0204307647
  0
LINE
  5
9C
100
AcDbEntity
  8
STRANA2
  6
CONTINUOUS
 62
    7
370
   -1
100
AcDbLine
 10
-53.290562869
 20
417.0204307647
 11
-45.290562869
 21
417.0204307647
  0
LINE
  5
9D
100
AcDbEntity
  8
STRANA2
  6
CONTINUOUS
 62
    7
370
   -1
100
AcDbLine
 10
-53.290562869
 20
385.0204307647
 11
-53.290562869
 21
417.0204307647
  0
LINE
  5
9E
100
AcDbEntity
  8
STRANA2
  6
CONTINUOUS
 62
    7
370
   -1
100
AcDbLine
 10
-45.290562869
 20
385.0204307647
 11
-53.290562869
 21
385.0204307647
  0
LINE
  5
9F
100
AcDbEntity
  8
STRANA2
  6
CONTINUOUS
 62
    7
370
   -1
100
AcDbLine
 10
-53.290562869
 20
353.0204307647
 11
-45.290562869
 21
353.0204307647
  0
LINE
  5
A0
100
AcDbEntity
  8
STRANA2
  6
CONTINUOUS
 62
    7
370
   -1
100
AcDbLine
 10
-53.290562869
 20
321.0204307647
 11
-53.290562869
 21
353.0204307647
  0
LINE
  5
A1
100
AcDbEntity
  8
STRANA2
  6
CONTINUOUS
 62
    7
370
   -1
100
AcDbLine
 10
-45.290562869
 20
321.0204307647
 11
-53.290562869
 21
321.0204307647
  0
LINE
  5
A2
100
AcDbEntity
  8
STRANA2
  6
CONTINUOUS
 62
    7
370
   -1
100
AcDbLine
 10
-53.290562869
 20
289.0204307647
 11
-45.290562869
 21
289.0204307647
  0
LINE
  5
A3
100
AcDbEntity
  8
STRANA2
  6
CONTINUOUS
 62
    7
370
   -1
100
AcDbLine
 10
-53.290562869
 20
257.0204307647
 11
-53.290562869
 21
289.0204307647
  0
LINE
  5
A4
100
AcDbEntity
  8
STRANA2
  6
CONTINUOUS
 62
    7
370
   -1
100
AcDbLine
 10
-45.290562869
 20
257.0204307647
 11
-53.290562869
 21
257.0204307647
  0
LINE
  5
A5
100
AcDbEntity
  8
STRANA2
  6
CONTINUOUS
 62
    7
370
   -1
100
AcDbLine
 10
-18.290562869
 20
217.0204307647
 11
-18.290562869
 21
225.0204307647
  0
LINE
  5
A6
100
AcDbEntity
  8
STRANA2
  6
CONTINUOUS
 62
    7
370
   -1
100
AcDbLine
 10
13.709437131
 20
217.0204307647
 11
-18.290562869
 21
217.0204307647
  0
LINE
  5
A7
100
AcDbEntity
  8
STRANA2
  6
CONTINUOUS
 62
    7
370
   -1
100
AcDbLine
 10
13.709437131
 20
225.0204307647
 11
13.709437131
 21
217.0204307647
  0
LINE
  5
A8
100
AcDbEntity
  8
STRANA2
  6
CONTINUOUS
 62
    7
370
   -1
100
AcDbLine
 10
45.709437131
 20
217.0204307647
 11
45.709437131
 21
225.0204307647
  0
LINE
  5
A9
100
AcDbEntity
  8
STRANA2
  6
CONTINUOUS
 62
    7
370
   -1
100
AcDbLine
 10
77.709437131
 20
217.0204307647
 11
45.709437131
 21
217.0204307647
  0
LINE
  5
AA
100
AcDbEntity
  8
STRANA2
  6
CONTINUOUS
 62
    7
370
   -1
100
AcDbLine
 10
77.709437131
 20
225.0204307647
 11
77.709437131
 21
217.0204307647
  0
LINE
  5
AB
100
AcDbEntity
  8
STRANA2
  6
CONTINUOUS
 62
    7
370
   -1
100
AcDbLine
 10
109.709437131
 20
217.0204307647
 11
109.709437131
 21
225.0204307647
  0
LINE
  5
AC
100
AcDbEntity
  8
STRANA2
  6
CONTINUOUS
 62
    7
370
   -1
100
AcDbLine
 10
141.709437131
 20
217.0204307647
 11
109.709437131
 21
217.0204307647
  0
LINE
  5
AD
100
AcDbEntity
  8
STRANA2
  6
CONTINUOUS
 62
    7
370
   -1
100
AcDbLine
 10
141.709437131
 20
225.0204307647
 11
141.709437131
 21
217.0204307647
  0
LINE
  5
AE
100
AcDbEntity
  8
STRANA2
  6
CONTINUOUS
 62
    7
370
   -1
100
AcDbLine
 10
176.709437131
 20
257.0204307647
 11
168.709437131
 21
257.0204307647
  0
LINE
  5
AF
100
AcDbEntity
  8
STRANA2
  6
CONTINUOUS
 62
    7
370
   -1
100
AcDbLine
 10
176.709437131
 20
289.0204307647
 11
176.709437131
 21
257.0204307647
  0
LINE
  5
B0
100
AcDbEntity
  8
STRANA2
  6
CONTINUOUS
 62
    7
370
   -1
100
AcDbLine
 10
168.709437131
 20
289.0204307647
 11
176.709437131
 21
289.0204307647
  0
LINE
  5
B1
100
AcDbEntity
  8
STRANA2
  6
CONTINUOUS
 62
    7
370
   -1
100
AcDbLine
 10
176.709437131
 20
321.0204307647
 11
168.709437131
 21
321.0204307647
  0
LINE
  5
B2
100
AcDbEntity
  8
STRANA2
  6
CONTINUOUS
 62
    7
370
   -1
100
AcDbLine
 10
176.709437131
 20
353.0204307647
 11
176.709437131
 21
321.0204307647
  0
LINE
  5
B3
100
AcDbEntity
  8
STRANA2
  6
CONTINUOUS
 62
    7
370
   -1
100
AcDbLine
 10
168.709437131
 20
353.0204307647
 11
176.709437131
 21
353.0204307647
  0
LINE
  5
B4
100
AcDbEntity
  8
STRANA2
  6
CONTINUOUS
 62
    7
370
   -1
100
AcDbLine
 10
176.709437131
 20
385.0204307647
 11
168.709437131
 21
385.0204307647
  0
LINE
  5
B5
100
AcDbEntity
  8
STRANA2
  6
CONTINUOUS
 62
    7
370
   -1
100
AcDbLine
 10
176.709437131
 20
417.0204307647
 11
176.709437131
 21
385.0204307647
  0
LINE
  5
B6
100
AcDbEntity
  8
STRANA2
  6
CONTINUOUS
 62
    7
370
   -1
100
AcDbLine
 10
168.709437131
 20
417.0204307647
 11
176.709437131
 21
417.0204307647
  0
LINE
  5
B7
100
AcDbEntity
  8
PETOSTRAN
  6
CONTINUOUS
 62
    7
370
   -1
100
AcDbLine
 10
-7.9859673358
 20
413.5204307647
 11
-21.5272071122
 21
371.844780032
  0
LINE
  5
B8
100
AcDbEntity
  8
PETOSTRAN
  6
CONTINUOUS
 62
    7
370
   -1
100
AcDbLine
 10
35.8344050802
 20
413.5204307647
 11
-7.9859673358
 21
413.5204307647
  0
LINE
  5
B9
100
AcDbEntity
  8
PETOSTRAN
  6
CONTINUOUS
 62
    7
370
   -1
100
AcDbLine
 10
49.3756448566
 20
371.844780032
 11
35.8344050802
 21
413.5204307647
  0
LINE
  5
BA
100
AcDbEntity
  8
PETOSTRAN
  6
CONTINUOUS
 62
    7
370
   -1
100
AcDbLine
 10
13.9242188722
 20
346.087811376
 11
49.3756448566
 21
371.844780032
  0
LINE
  5
BB
100
AcDbEntity
  8
PETOSTRAN
  6
CONTINUOUS
 62
    7
370
   -1
100
AcDbLine
 10
-21.5272071122
 20
371.844780032
 11
13.9242188722
 21
346.087811376
  0
LINE
  5
BC
100
AcDbEntity
  8
ROMB
  6
CONTINUOUS
 62
    7
370
   -1
100
AcDbLine
 10
59.3626496136
 20
258.5204307647
 11
87.07546253469999
 21
306.5204307647
  0
LINE
  5
BD
100
AcDbEntity
  8
ROMB
  6
CONTINUOUS
 62
    7
370
   -1
100
AcDbLine
 10
87.07546253469999
 20
306.5204307647
 11
147.1113609196
 21
306.5204307647
  0
LINE
  5
BE
100
AcDbEntity
  8
ROMB
  6
CONTINUOUS
 62
    7
370
   -1
100
AcDbLine
 10
147.1113609196
 20
306.5204307647
 11
119.3985479985
 21
258.5204307647
  0
LINE
  5
BF
100
AcDbEntity
  8
ROMB
  6
CONTINUOUS
 62
    7
370
   -1
100
AcDbLine
 10
119.3985479985
 20
258.5204307647
 11
59.3626496136
 21
258.5204307647
  0
LINE
  5
C0
100
AcDbEntity
  8
SQUARE
  6
CONTINUOUS
 62
    7
370
   -1
100
AcDbLine
 10
-21.790562869
 20
248.5204307647
 11
38.709437131
 21
248.5204307647
  0
LINE
  5
C1
100
AcDbEntity
  8
SQUARE
  6
CONTINUOUS
 62
    7
370
   -1
100
AcDbLine
 10
-21.790562869
 20
309.0204307647
 11
-21.790562869
 21
248.5204307647
  0
LINE
  5
C2
100
AcDbEntity
  8
SQUARE
  6
CONTINUOUS
 62
    7
370
   -1
100
AcDbLine
 10
38.709437131
 20
309.0204307647
 11
-21.790562869
 21
309.0204307647
  0
LINE
  5
C3
100
AcDbEntity
  8
SQUARE
  6
CONTINUOUS
 62
    7
370
   -1
100
AcDbLine
 10
38.709437131
 20
248.5204307647
 11
38.709437131
 21
309.0204307647
  0
LINE
  5
C4
100
AcDbEntity
  8
TRIANGLE
  6
CONTINUOUS
 62
    7
370
   -1
100
AcDbLine
 10
115.1880544209
 20
412.0204307647
 11
78.2861306322
 21
348.1044238658
  0
LINE
  5
C5
100
AcDbEntity
  8
TRIANGLE
  6
CONTINUOUS
 62
    7
370
   -1
100
AcDbLine
 10
152.0899782095
 20
348.1044238658
 11
115.1880544209
 21
412.0204307647
  0
LINE
  5
C6
100
AcDbEntity
  8
TRIANGLE
  6
CONTINUOUS
 62
    7
370
   -1
100
AcDbLine
 10
78.2861306322
 20
348.1044238658
 11
152.0899782095
 21
348.1044238658
  0
ENDBLK
  5
6B
330
69
100
AcDbEntity
  8
0
100
AcDbBlockEnd
  0
BLOCK
  5
6D
330
6C
100
AcDbEntity
  8
0
100
AcDbBlockBegin
  2
SE1
 70
    0
 10
0
 20
0
  3
SE1
  1

  0
LINE
  5
C7
100
AcDbEntity
  8
STRANA_11
  6
CONTINUOUS
 62
    7
370
   -1
100
AcDbLine
 10
420.8899711915
 20
447.0204307647
 11
355.8899711915
 21
447.0204307647
  0
LINE
  5
C8
100
AcDbEntity
  8
STRANA_11
  6
CONTINUOUS
 62
    7
370
   -1
100
AcDbLine
 10
420.8899711915
 20
225.0204307647
 11
420.8899711915
 21
257.0204307647
  0
LINE
  5
C9
100
AcDbEntity
  8
STRANA_11
  6
CONTINUOUS
 62
    7
370
   -1
100
AcDbLine
 10
190.8899711915
 20
225.0204307647
 11
225.8899711915
 21
225.0204307647
  0
LINE
  5
CA
100
AcDbEntity
  8
STRANA_11
  6
CONTINUOUS
 62
    7
370
   -1
100
AcDbLine
 10
190.8899711915
 20
447.0204307647
 11
190.8899711915
 21
417.0204307647
  0
LINE
  5
CB
100
AcDbEntity
  8
STRANA_11
  6
CONTINUOUS
 62
    7
370
   -1
100
AcDbLine
 10
255.8899711915
 20
447.0204307647
 11
190.8899711915
 21
447.0204307647
  0
LINE
  5
CC
100
AcDbEntity
  8
STRANA_11
  6
CONTINUOUS
 62
    7
370
   -1
100
AcDbLine
 10
255.8899711915
 20
447.0204307647
 11
255.8899711915
 21
439.0204307647
  0
LINE
  5
CD
100
AcDbEntity
  8
STRANA_11
  6
CONTINUOUS
 62
    7
370
   -1
100
AcDbLine
 10
255.8899711915
 20
439.0204307647
 11
355.8899711915
 21
439.0204307647
  0
LINE
  5
CE
100
AcDbEntity
  8
STRANA_11
  6
CONTINUOUS
 62
    7
370
   -1
100
AcDbLine
 10
355.8899711915
 20
439.0204307647
 11
355.8899711915
 21
447.0204307647
  0
LINE
  5
CF
100
AcDbEntity
  8
STRANA_11
  6
CONTINUOUS
 62
    7
370
   -1
100
AcDbLine
 10
330.8899711915
 20
363.0204307647
 11
330.8899711915
 21
339.0204307647
  0
LINE
  5
D0
100
AcDbEntity
  8
STRANA_11
  6
CONTINUOUS
 62
    7
370
   -1
100
AcDbLine
 10
330.8899711915
 20
339.0204307647
 11
358.8899711915
 21
339.0204307647
  0
LINE
  5
D1
100
AcDbEntity
  8
STRANA_11
  6
CONTINUOUS
 62
    7
370
   -1
100
AcDbLine
 10
358.8899711915
 20
339.0204307647
 11
358.8899711915
 21
363.0204307647
  0
LINE
  5
D2
100
AcDbEntity
  8
STRANA_11
  6
CONTINUOUS
 62
    7
370
   -1
100
AcDbLine
 10
358.8899711915
 20
363.0204307647
 11
382.8899711915
 21
363.0204307647
  0
LINE
  5
D3
100
AcDbEntity
  8
STRANA_11
  6
CONTINUOUS
 62
    7
370
   -1
100
AcDbLine
 10
382.8899711915
 20
363.0204307647
 11
382.8899711915
 21
391.0204307647
  0
LINE
  5
D4
100
AcDbEntity
  8
STRANA_11
  6
CONTINUOUS
 62
    7
370
   -1
100
AcDbLine
 10
382.8899711915
 20
391.0204307647
 11
358.8899711915
 21
391.0204307647
  0
LINE
  5
D5
100
AcDbEntity
  8
STRANA_11
  6
CONTINUOUS
 62
    7
370
   -1
100
AcDbLine
 10
358.8899711915
 20
391.0204307647
 11
358.8899711915
 21
415.0204307647
  0
LINE
  5
D6
100
AcDbEntity
  8
STRANA_11
  6
CONTINUOUS
 62
    7
370
   -1
100
AcDbLine
 10
358.8899711915
 20
415.0204307647
 11
330.8899711915
 21
415.0204307647
  0
LINE
  5
D7
100
AcDbEntity
  8
STRANA_11
  6
CONTINUOUS
 62
    7
370
   -1
100
AcDbLine
 10
330.8899711915
 20
415.0204307647
 11
330.8899711915
 21
391.0204307647
  0
LINE
  5
D8
100
AcDbEntity
  8
STRANA_11
  6
CONTINUOUS
 62
    7
370
   -1
100
AcDbLine
 10
330.8899711915
 20
391.0204307647
 11
306.8899711915
 21
391.0204307647
  0
LINE
  5
D9
100
AcDbEntity
  8
STRANA_11
  6
CONTINUOUS
 62
    7
370
   -1
100
AcDbLine
 10
306.8899711915
 20
391.0204307647
 11
306.8899711915
 21
363.0204307647
  0
LINE
  5
DA
100
AcDbEntity
  8
STRANA_11
  6
CONTINUOUS
 62
    7
370
   -1
100
AcDbLine
 10
306.8899711915
 20
363.0204307647
 11
330.8899711915
 21
363.0204307647
  0
LINE
  5
DB
100
AcDbEntity
  8
STRANA_11
  6
CONTINUOUS
 62
    7
370
   -1
100
AcDbLine
 10
222.8899711915
 20
323.0204307647
 11
222.8899711915
 21
247.0204307647
  0
LINE
  5
DC
100
AcDbEntity
  8
STRANA_11
  6
CONTINUOUS
 62
    7
370
   -1
100
AcDbLine
 10
222.8899711915
 20
247.0204307647
 11
298.8899711915
 21
247.0204307647
  0
LINE
  5
DD
100
AcDbEntity
  8
STRANA_11
  6
CONTINUOUS
 62
    7
370
   -1
100
AcDbLine
 10
298.8899711915
 20
247.0204307647
 11
298.8899711915
 21
285.0204307647
  0
LINE
  5
DE
100
AcDbEntity
  8
STRANA_11
  6
CONTINUOUS
 62
    7
370
   -1
100
AcDbLine
 10
298.8899711915
 20
285.0204307647
 11
260.8899711915
 21
285.0204307647
  0
LINE
  5
DF
100
AcDbEntity
  8
STRANA_11
  6
CONTINUOUS
 62
    7
370
   -1
100
AcDbLine
 10
260.8899711915
 20
285.0204307647
 11
260.8899711915
 21
323.0204307647
  0
LINE
  5
E0
100
AcDbEntity
  8
STRANA_11
  6
CONTINUOUS
 62
    7
370
   -1
100
AcDbLine
 10
260.8899711915
 20
323.0204307647
 11
222.8899711915
 21
323.0204307647
  0
LINE
  5
E1
100
AcDbEntity
  8
STRANA_11
  6
CONTINUOUS
 62
    7
370
   -1
100
AcDbLine
 10
356.8899711915
 20
269.0204307647
 11
356.8899711915
 21
247.0204307647
  0
LINE
  5
E2
100
AcDbEntity
  8
STRANA_11
  6
CONTINUOUS
 62
    7
370
   -1
100
AcDbLine
 10
356.8899711915
 20
247.0204307647
 11
388.8899711915
 21
247.0204307647
  0
LINE
  5
E3
100
AcDbEntity
  8
STRANA_11
  6
CONTINUOUS
 62
    7
370
   -1
100
AcDbLine
 10
388.8899711915
 20
247.0204307647
 11
388.8899711915
 21
323.0204307647
  0
LINE
  5
E4
100
AcDbEntity
  8
STRANA_11
  6
CONTINUOUS
 62
    7
370
   -1
100
AcDbLine
 10
388.8899711915
 20
323.0204307647
 11
356.8899711915
 21
323.0204307647
  0
LINE
  5
E5
100
AcDbEntity
  8
STRANA_11
  6
CONTINUOUS
 62
    7
370
   -1
100
AcDbLine
 10
356.8899711915
 20
323.0204307647
 11
356.8899711915
 21
301.0204307647
  0
LINE
  5
E6
100
AcDbEntity
  8
STRANA_11
  6
CONTINUOUS
 62
    7
370
   -1
100
AcDbLine
 10
356.8899711915
 20
301.0204307647
 11
324.8899711915
 21
301.0204307647
  0
LINE
  5
E7
100
AcDbEntity
  8
STRANA_11
  6
CONTINUOUS
 62
    7
370
   -1
100
AcDbLine
 10
324.8899711915
 20
301.0204307647
 11
324.8899711915
 21
269.0204307647
  0
LINE
  5
E8
100
AcDbEntity
  8
STRANA_11
  6
CONTINUOUS
 62
    7
370
   -1
100
AcDbLine
 10
324.8899711915
 20
269.0204307647
 11
356.8899711915
 21
269.0204307647
  0
ELLIPSE
  5
E9
100
AcDbEntity
  8
STRANA_11
  6
CONTINUOUS
 62
    7
370
   -1
100
AcDbEllipse
 10
254.3899711915
 20
377.0204307647
 30
0
 11
-3.391716571106086e-015
 21
-38
 31
0
 40
0.6710526315999999
 41
0
 42
6.283185307179586
  0
LINE
  5
EA
100
AcDbEntity
  8
STRANA_11
  6
CONTINUOUS
 62
    7
370
   -1
100
AcDbLine
 10
190.8899711915
 20
385.0204307647
 11
190.8899711915
 21
353.0204307647
  0
LINE
  5
EB
100
AcDbEntity
  8
STRANA_11
  6
CONTINUOUS
 62
    7
370
   -1
100
AcDbLine
 10
198.8899711915
 20
417.0204307647
 11
198.8899711915
 21
385.0204307647
  0
LINE
  5
EC
100
AcDbEntity
  8
STRANA_11
  6
CONTINUOUS
 62
    7
370
   -1
100
AcDbLine
 10
190.8899711915
 20
417.0204307647
 11
198.8899711915
 21
417.0204307647
  0
LINE
  5
ED
100
AcDbEntity
  8
STRANA_11
  6
CONTINUOUS
 62
    7
370
   -1
100
AcDbLine
 10
198.8899711915
 20
385.0204307647
 11
190.8899711915
 21
385.0204307647
  0
LINE
  5
EE
100
AcDbEntity
  8
STRANA_11
  6
CONTINUOUS
 62
    7
370
   -1
100
AcDbLine
 10
190.8899711915
 20
321.0204307647
 11
190.8899711915
 21
289.0204307647
  0
LINE
  5
EF
100
AcDbEntity
  8
STRANA_11
  6
CONTINUOUS
 62
    7
370
   -1
100
AcDbLine
 10
198.8899711915
 20
353.0204307647
 11
198.8899711915
 21
321.0204307647
  0
LINE
  5
F0
100
AcDbEntity
  8
STRANA_11
  6
CONTINUOUS
 62
    7
370
   -1
100
AcDbLine
 10
190.8899711915
 20
353.0204307647
 11
198.8899711915
 21
353.0204307647
  0
LINE
  5
F1
100
AcDbEntity
  8
STRANA_11
  6
CONTINUOUS
 62
    7
370
   -1
100
AcDbLine
 10
198.8899711915
 20
321.0204307647
 11
190.8899711915
 21
321.0204307647
  0
LINE
  5
F2
100
AcDbEntity
  8
STRANA_11
  6
CONTINUOUS
 62
    7
370
   -1
100
AcDbLine
 10
190.8899711915
 20
257.0204307647
 11
190.8899711915
 21
225.0204307647
  0
LINE
  5
F3
100
AcDbEntity
  8
STRANA_11
  6
CONTINUOUS
 62
    7
370
   -1
100
AcDbLine
 10
198.8899711915
 20
289.0204307647
 11
198.8899711915
 21
257.0204307647
  0
LINE
  5
F4
100
AcDbEntity
  8
STRANA_11
  6
CONTINUOUS
 62
    7
370
   -1
100
AcDbLine
 10
190.8899711915
 20
289.0204307647
 11
198.8899711915
 21
289.0204307647
  0
LINE
  5
F5
100
AcDbEntity
  8
STRANA_11
  6
CONTINUOUS
 62
    7
370
   -1
100
AcDbLine
 10
198.8899711915
 20
257.0204307647
 11
190.8899711915
 21
257.0204307647
  0
LINE
  5
F6
100
AcDbEntity
  8
STRANA_11
  6
CONTINUOUS
 62
    7
370
   -1
100
AcDbLine
 10
420.8899711915
 20
417.0204307647
 11
420.8899711915
 21
447.0204307647
  0
LINE
  5
F7
100
AcDbEntity
  8
STRANA_11
  6
CONTINUOUS
 62
    7
370
   -1
100
AcDbLine
 10
412.8899711915
 20
417.0204307647
 11
412.8899711915
 21
385.0204307647
  0
LINE
  5
F8
100
AcDbEntity
  8
STRANA_11
  6
CONTINUOUS
 62
    7
370
   -1
100
AcDbLine
 10
420.8899711915
 20
417.0204307647
 11
412.8899711915
 21
417.0204307647
  0
LINE
  5
F9
100
AcDbEntity
  8
STRANA_11
  6
CONTINUOUS
 62
    7
370
   -1
100
AcDbLine
 10
412.8899711915
 20
385.0204307647
 11
420.8899711915
 21
385.0204307647
  0
LINE
  5
FA
100
AcDbEntity
  8
STRANA_11
  6
CONTINUOUS
 62
    7
370
   -1
100
AcDbLine
 10
420.8899711915
 20
353.0204307647
 11
420.8899711915
 21
385.0204307647
  0
LINE
  5
FB
100
AcDbEntity
  8
STRANA_11
  6
CONTINUOUS
 62
    7
370
   -1
100
AcDbLine
 10
412.8899711915
 20
353.0204307647
 11
412.8899711915
 21
321.0204307647
  0
LINE
  5
FC
100
AcDbEntity
  8
STRANA_11
  6
CONTINUOUS
 62
    7
370
   -1
100
AcDbLine
 10
420.8899711915
 20
353.0204307647
 11
412.8899711915
 21
353.0204307647
  0
LINE
  5
FD
100
AcDbEntity
  8
STRANA_11
  6
CONTINUOUS
 62
    7
370
   -1
100
AcDbLine
 10
412.8899711915
 20
321.0204307647
 11
420.8899711915
 21
321.0204307647
  0
LINE
  5
FE
100
AcDbEntity
  8
STRANA_11
  6
CONTINUOUS
 62
    7
370
   -1
100
AcDbLine
 10
420.8899711915
 20
289.0204307647
 11
420.8899711915
 21
321.0204307647
  0
LINE
  5
FF
100
AcDbEntity
  8
STRANA_11
  6
CONTINUOUS
 62
    7
370
   -1
100
AcDbLine
 10
412.8899711915
 20
289.0204307647
 11
412.8899711915
 21
257.0204307647
  0
LINE
  5
100
100
AcDbEntity
  8
STRANA_11
  6
CONTINUOUS
 62
    7
370
   -1
100
AcDbLine
 10
420.8899711915
 20
289.0204307647
 11
412.8899711915
 21
289.0204307647
  0
LINE
  5
101
100
AcDbEntity
  8
STRANA_11
  6
CONTINUOUS
 62
    7
370
   -1
100
AcDbLine
 10
412.8899711915
 20
257.0204307647
 11
420.8899711915
 21
257.0204307647
  0
LINE
  5
102
100
AcDbEntity
  8
STRANA_11
  6
CONTINUOUS
 62
    7
370
   -1
100
AcDbLine
 10
257.8899711915
 20
225.0204307647
 11
289.8899711915
 21
225.0204307647
  0
LINE
  5
103
100
AcDbEntity
  8
STRANA_11
  6
CONTINUOUS
 62
    7
370
   -1
100
AcDbLine
 10
321.8899711915
 20
225.0204307647
 11
353.8899711915
 21
225.0204307647
  0
LINE
  5
104
100
AcDbEntity
  8
STRANA_11
  6
CONTINUOUS
 62
    7
370
   -1
100
AcDbLine
 10
385.8899711915
 20
225.0204307647
 11
420.8899711915
 21
225.0204307647
  0
LINE
  5
105
100
AcDbEntity
  8
STRANA_11
  6
CONTINUOUS
 62
    7
370
   -1
100
AcDbLine
 10
385.8899711915
 20
217.0204307647
 11
385.8899711915
 21
225.0204307647
  0
LINE
  5
106
100
AcDbEntity
  8
STRANA_11
  6
CONTINUOUS
 62
    7
370
   -1
100
AcDbLine
 10
353.8899711915
 20
225.0204307647
 11
353.8899711915
 21
217.0204307647
  0
LINE
  5
107
100
AcDbEntity
  8
STRANA_11
  6
CONTINUOUS
 62
    7
370
   -1
100
AcDbLine
 10
353.8899711915
 20
217.0204307647
 11
385.8899711915
 21
217.0204307647
  0
LINE
  5
108
100
AcDbEntity
  8
STRANA_11
  6
CONTINUOUS
 62
    7
370
   -1
100
AcDbLine
 10
321.8899711915
 20
217.0204307647
 11
321.8899711915
 21
225.0204307647
  0
LINE
  5
109
100
AcDbEntity
  8
STRANA_11
  6
CONTINUOUS
 62
    7
370
   -1
100
AcDbLine
 10
289.8899711915
 20
225.0204307647
 11
289.8899711915
 21
217.0204307647
  0
LINE
  5
10A
100
AcDbEntity
  8
STRANA_11
  6
CONTINUOUS
 62
    7
370
   -1
100
AcDbLine
 10
289.8899711915
 20
217.0204307647
 11
321.8899711915
 21
217.0204307647
  0
LINE
  5
10B
100
AcDbEntity
  8
STRANA_11
  6
CONTINUOUS
 62
    7
370
   -1
100
AcDbLine
 10
257.8899711915
 20
217.0204307647
 11
257.8899711915
 21
225.0204307647
  0
LINE
  5
10C
100
AcDbEntity
  8
STRANA_11
  6
CONTINUOUS
 62
    7
370
   -1
100
AcDbLine
 10
225.8899711915
 20
225.0204307647
 11
225.8899711915
 21
217.0204307647
  0
LINE
  5
10D
100
AcDbEntity
  8
STRANA_11
  6
CONTINUOUS
 62
    7
370
   -1
100
AcDbLine
 10
225.8899711915
 20
217.0204307647
 11
257.8899711915
 21
217.0204307647
  0
ELLIPSE
  5
10E
100
AcDbEntity
  8
ELIPSA_P
  6
CONTINUOUS
 62
    7
370
   -1
100
AcDbEllipse
 10
254.3899711915
 20
377.0204307647
 30
0
 11
1.724230202267386e-014
 21
36.49999999999999
 31
0
 40
0.6575342466
 41
0
 42
6.283185307179586
  0
LINE
  5
10F
100
AcDbEntity
  8
KRST
  6
CONTINUOUS
 62
    7
370
   -1
100
AcDbLine
 10
308.3899711915
 20
389.5204307647
 11
308.3899711915
 21
364.5204307647
  0
LINE
  5
110
100
AcDbEntity
  8
KRST
  6
CONTINUOUS
 62
    7
370
   -1
100
AcDbLine
 10
308.3899711915
 20
364.5204307647
 11
332.3899711915
 21
364.5204307647
  0
LINE
  5
111
100
AcDbEntity
  8
KRST
  6
CONTINUOUS
 62
    7
370
   -1
100
AcDbLine
 10
332.3899711915
 20
364.5204307647
 11
332.3899711915
 21
340.5204307647
  0
LINE
  5
112
100
AcDbEntity
  8
KRST
  6
CONTINUOUS
 62
    7
370
   -1
100
AcDbLine
 10
332.3899711915
 20
340.5204307647
 11
357.3899711915
 21
340.5204307647
  0
LINE
  5
113
100
AcDbEntity
  8
KRST
  6
CONTINUOUS
 62
    7
370
   -1
100
AcDbLine
 10
357.3899711915
 20
340.5204307647
 11
357.3899711915
 21
364.5204307647
  0
LINE
  5
114
100
AcDbEntity
  8
KRST
  6
CONTINUOUS
 62
    7
370
   -1
100
AcDbLine
 10
357.3899711915
 20
364.5204307647
 11
381.3899711915
 21
364.5204307647
  0
LINE
  5
115
100
AcDbEntity
  8
KRST
  6
CONTINUOUS
 62
    7
370
   -1
100
AcDbLine
 10
381.3899711915
 20
364.5204307647
 11
381.3899711915
 21
389.5204307647
  0
LINE
  5
116
100
AcDbEntity
  8
KRST
  6
CONTINUOUS
 62
    7
370
   -1
100
AcDbLine
 10
381.3899711915
 20
389.5204307647
 11
357.3899711915
 21
389.5204307647
  0
LINE
  5
117
100
AcDbEntity
  8
KRST
  6
CONTINUOUS
 62
    7
370
   -1
100
AcDbLine
 10
357.3899711915
 20
389.5204307647
 11
357.3899711915
 21
413.5204307647
  0
LINE
  5
118
100
AcDbEntity
  8
KRST
  6
CONTINUOUS
 62
    7
370
   -1
100
AcDbLine
 10
357.3899711915
 20
413.5204307647
 11
332.3899711915
 21
413.5204307647
  0
LINE
  5
119
100
AcDbEntity
  8
KRST
  6
CONTINUOUS
 62
    7
370
   -1
100
AcDbLine
 10
332.3899711915
 20
413.5204307647
 11
332.3899711915
 21
389.5204307647
  0
LINE
  5
11A
100
AcDbEntity
  8
KRST
  6
CONTINUOUS
 62
    7
370
   -1
100
AcDbLine
 10
332.3899711915
 20
389.5204307647
 11
308.3899711915
 21
389.5204307647
  0
LINE
  5
11B
100
AcDbEntity
  8
L
  6
CONTINUOUS
 62
    7
370
   -1
100
AcDbLine
 10
224.3899711915
 20
248.5204307647
 11
297.3899711915
 21
248.5204307647
  0
LINE
  5
11C
100
AcDbEntity
  8
L
  6
CONTINUOUS
 62
    7
370
   -1
100
AcDbLine
 10
297.3899711915
 20
248.5204307647
 11
297.3899711915
 21
283.5204307647
  0
LINE
  5
11D
100
AcDbEntity
  8
L
  6
CONTINUOUS
 62
    7
370
   -1
100
AcDbLine
 10
297.3899711915
 20
283.5204307647
 11
259.3899711915
 21
283.5204307647
  0
LINE
  5
11E
100
AcDbEntity
  8
L
  6
CONTINUOUS
 62
    7
370
   -1
100
AcDbLine
 10
259.3899711915
 20
283.5204307647
 11
259.3899711915
 21
321.5204307647
  0
LINE
  5
11F
100
AcDbEntity
  8
L
  6
CONTINUOUS
 62
    7
370
   -1
100
AcDbLine
 10
259.3899711915
 20
321.5204307647
 11
224.3899711915
 21
321.5204307647
  0
LINE
  5
120
100
AcDbEntity
  8
L
  6
CONTINUOUS
 62
    7
370
   -1
100
AcDbLine
 10
224.3899711915
 20
321.5204307647
 11
224.3899711915
 21
248.5204307647
  0
LINE
  5
121
100
AcDbEntity
  8
T
  6
CONTINUOUS
 62
    7
370
   -1
100
AcDbLine
 10
358.3899711915
 20
248.5204307647
 11
387.3899711915
 21
248.5204307647
  0
LINE
  5
122
100
AcDbEntity
  8
T
  6
CONTINUOUS
 62
    7
370
   -1
100
AcDbLine
 10
387.3899711915
 20
248.5204307647
 11
387.3899711915
 21
321.5204307647
  0
LINE
  5
123
100
AcDbEntity
  8
T
  6
CONTINUOUS
 62
    7
370
   -1
100
AcDbLine
 10
387.3899711915
 20
321.5204307647
 11
358.3899711915
 21
321.5204307647
  0
LINE
  5
124
100
AcDbEntity
  8
T
  6
CONTINUOUS
 62
    7
370
   -1
100
AcDbLine
 10
358.3899711915
 20
321.5204307647
 11
358.3899711915
 21
299.5204307647
  0
LINE
  5
125
100
AcDbEntity
  8
T
  6
CONTINUOUS
 62
    7
370
   -1
100
AcDbLine
 10
358.3899711915
 20
299.5204307647
 11
326.3899711915
 21
299.5204307647
  0
LINE
  5
126
100
AcDbEntity
  8
T
  6
CONTINUOUS
 62
    7
370
   -1
100
AcDbLine
 10
326.3899711915
 20
299.5204307647
 11
326.3899711915
 21
270.5204307647
  0
LINE
  5
127
100
AcDbEntity
  8
T
  6
CONTINUOUS
 62
    7
370
   -1
100
AcDbLine
 10
326.3899711915
 20
270.5204307647
 11
358.3899711915
 21
270.5204307647
  0
LINE
  5
128
100
AcDbEntity
  8
T
  6
CONTINUOUS
 62
    7
370
   -1
100
AcDbLine
 10
358.3899711915
 20
270.5204307647
 11
358.3899711915
 21
248.5204307647
  0
ENDBLK
  5
6E
330
6C
100
AcDbEntity
  8
0
100
AcDbBlockEnd
  0
BLOCK
  5
70
330
6F
100
AcDbEntity
  8
0
100
AcDbBlockBegin
  2
SE2
 70
    0
 10
0
 20
0
  3
SE2
  1

  0
LINE
  5
129
100
AcDbEntity
  8
STRANA_22
  6
CONTINUOUS
 62
    7
370
   -1
100
AcDbLine
 10
446.2673564256
 20
447.0204307647
 11
503.2673564256
 21
447.0204307647
  0
LINE
  5
12A
100
AcDbEntity
  8
STRANA_22
  6
CONTINUOUS
 62
    7
370
   -1
100
AcDbLine
 10
446.2673564256
 20
225.0204307647
 11
446.2673564256
 21
257.0204307647
  0
LINE
  5
12B
100
AcDbEntity
  8
STRANA_22
  6
CONTINUOUS
 62
    7
370
   -1
100
AcDbLine
 10
660.2673564256
 20
225.0204307647
 11
633.2673564256
 21
225.0204307647
  0
LINE
  5
12C
100
AcDbEntity
  8
STRANA_22
  6
CONTINUOUS
 62
    7
370
   -1
100
AcDbLine
 10
660.2673564256
 20
447.0204307647
 11
660.2673564256
 21
417.0204307647
  0
LINE
  5
12D
100
AcDbEntity
  8
STRANA_22
  6
CONTINUOUS
 62
    7
370
   -1
100
AcDbLine
 10
603.2673564256
 20
447.0204307647
 11
660.2673564256
 21
447.0204307647
  0
LINE
  5
12E
100
AcDbEntity
  8
STRANA_22
  6
CONTINUOUS
 62
    7
370
   -1
100
AcDbLine
 10
603.2673564256
 20
439.0204307647
 11
603.2673564256
 21
447.0204307647
  0
LINE
  5
12F
100
AcDbEntity
  8
STRANA_22
  6
CONTINUOUS
 62
    7
370
   -1
100
AcDbLine
 10
503.2673564256
 20
447.0204307647
 11
503.2673564256
 21
439.0204307647
  0
LINE
  5
130
100
AcDbEntity
  8
STRANA_22
  6
CONTINUOUS
 62
    7
370
   -1
100
AcDbLine
 10
503.2673564256
 20
439.0204307647
 11
603.2673564256
 21
439.0204307647
  0
LINE
  5
131
100
AcDbEntity
  8
STRANA_22
  6
CONTINUOUS
 62
    7
370
   -1
100
AcDbLine
 10
484.2673564256
 20
323.0204307647
 11
484.2673564256
 21
247.0204307647
  0
LINE
  5
132
100
AcDbEntity
  8
STRANA_22
  6
CONTINUOUS
 62
    7
370
   -1
100
AcDbLine
 10
484.2673564256
 20
247.0204307647
 11
528.2673564256
 21
247.0204307647
  0
LINE
  5
133
100
AcDbEntity
  8
STRANA_22
  6
CONTINUOUS
 62
    7
370
   -1
100
AcDbLine
 10
528.2673564256
 20
247.0204307647
 11
528.2673564256
 21
323.0204307647
  0
LINE
  5
134
100
AcDbEntity
  8
STRANA_22
  6
CONTINUOUS
 62
    7
370
   -1
100
AcDbLine
 10
528.2673564256
 20
323.0204307647
 11
484.2673564256
 21
323.0204307647
  0
ARC
  5
135
100
AcDbEntity
  8
STRANA_22
  6
CONTINUOUS
 62
    7
370
   -1
100
AcDbCircle
 10
603.2673564256
 20
383.0204307647
 40
32
100
AcDbArc
 50
0
 51
270
  0
LINE
  5
136
100
AcDbEntity
  8
STRANA_22
  6
CONTINUOUS
 62
    7
370
   -1
100
AcDbLine
 10
603.2673564256
 20
351.0204307647
 11
603.2673564256
 21
383.0204307647
  0
LINE
  5
137
100
AcDbEntity
  8
STRANA_22
  6
CONTINUOUS
 62
    7
370
   -1
100
AcDbLine
 10
603.2673564256
 20
383.0204307647
 11
635.2673564256
 21
383.0204307647
  0
ARC
  5
138
100
AcDbEntity
  8
STRANA_22
  6
CONTINUOUS
 62
    7
370
   -1
100
AcDbCircle
 10
600.2673564256
 20
269.0204307647
 40
22.00000000000001
100
AcDbArc
 50
180
 51
0
  0
LINE
  5
139
100
AcDbEntity
  8
STRANA_22
  6
CONTINUOUS
 62
    7
370
   -1
100
AcDbLine
 10
622.2673564256
 20
269.0204307647
 11
622.2673564256
 21
301.0204307647
  0
ARC
  5
13A
100
AcDbEntity
  8
STRANA_22
  6
CONTINUOUS
 62
    7
370
   -1
100
AcDbCircle
 10
600.2673564256
 20
301.0204307647
 40
22.00000000000001
100
AcDbArc
 50
0
 51
180
  0
LINE
  5
13B
100
AcDbEntity
  8
STRANA_22
  6
CONTINUOUS
 62
    7
370
   -1
100
AcDbLine
 10
578.2673564256
 20
301.0204307647
 11
578.2673564256
 21
269.0204307647
  0
LINE
  5
13C
100
AcDbEntity
  8
STRANA_22
  6
CONTINUOUS
 62
    7
370
   -1
100
AcDbLine
 10
485.7673564256
 20
354.3986524998
 11
468.2673564256
 21
384.7095416323
  0
LINE
  5
13D
100
AcDbEntity
  8
STRANA_22
  6
CONTINUOUS
 62
    7
370
   -1
100
AcDbLine
 10
468.2673564256
 20
384.7095416323
 11
485.7673564256
 21
415.0204307647
  0
LINE
  5
13E
100
AcDbEntity
  8
STRANA_22
  6
CONTINUOUS
 62
    7
370
   -1
100
AcDbLine
 10
485.7673564256
 20
415.0204307647
 11
520.7673564256
 21
415.0204307647
  0
LINE
  5
13F
100
AcDbEntity
  8
STRANA_22
  6
CONTINUOUS
 62
    7
370
   -1
100
AcDbLine
 10
520.7673564256
 20
415.0204307647
 11
538.2673564256
 21
384.7095416323
  0
LINE
  5
140
100
AcDbEntity
  8
STRANA_22
  6
CONTINUOUS
 62
    7
370
   -1
100
AcDbLine
 10
538.2673564256
 20
384.7095416323
 11
520.7673564256
 21
354.3986524998
  0
LINE
  5
141
100
AcDbEntity
  8
STRANA_22
  6
CONTINUOUS
 62
    7
370
   -1
100
AcDbLine
 10
520.7673564256
 20
354.3986524998
 11
485.7673564256
 21
354.3986524998
  0
LINE
  5
142
100
AcDbEntity
  8
STRANA_22
  6
CONTINUOUS
 62
    7
370
   -1
100
AcDbLine
 10
446.2673564256
 20
289.0204307647
 11
446.2673564256
 21
321.0204307647
  0
LINE
  5
143
100
AcDbEntity
  8
STRANA_22
  6
CONTINUOUS
 62
    7
370
   -1
100
AcDbLine
 10
446.2673564256
 20
353.0204307647
 11
446.2673564256
 21
385.0204307647
  0
LINE
  5
144
100
AcDbEntity
  8
STRANA_22
  6
CONTINUOUS
 62
    7
370
   -1
100
AcDbLine
 10
446.2673564256
 20
417.0204307647
 11
446.2673564256
 21
447.0204307647
  0
LINE
  5
145
100
AcDbEntity
  8
STRANA_22
  6
CONTINUOUS
 62
    7
370
   -1
100
AcDbLine
 10
601.2673564256
 20
225.0204307647
 11
569.2673564256
 21
225.0204307647
  0
LINE
  5
146
100
AcDbEntity
  8
STRANA_22
  6
CONTINUOUS
 62
    7
370
   -1
100
AcDbLine
 10
537.2673564256
 20
225.0204307647
 11
505.2673564256
 21
225.0204307647
  0
LINE
  5
147
100
AcDbEntity
  8
STRANA_22
  6
CONTINUOUS
 62
    7
370
   -1
100
AcDbLine
 10
473.2673564256
 20
225.0204307647
 11
446.2673564256
 21
225.0204307647
  0
LINE
  5
148
100
AcDbEntity
  8
STRANA_22
  6
CONTINUOUS
 62
    7
370
   -1
100
AcDbLine
 10
660.2673564256
 20
385.0204307647
 11
660.2673564256
 21
353.0204307647
  0
LINE
  5
149
100
AcDbEntity
  8
STRANA_22
  6
CONTINUOUS
 62
    7
370
   -1
100
AcDbLine
 10
660.2673564256
 20
321.0204307647
 11
660.2673564256
 21
289.0204307647
  0
LINE
  5
14A
100
AcDbEntity
  8
STRANA_22
  6
CONTINUOUS
 62
    7
370
   -1
100
AcDbLine
 10
660.2673564256
 20
257.0204307647
 11
660.2673564256
 21
225.0204307647
  0
LINE
  5
14B
100
AcDbEntity
  8
STRANA_22
  6
CONTINUOUS
 62
    7
370
   -1
100
AcDbLine
 10
438.2673564256
 20
417.0204307647
 11
446.2673564256
 21
417.0204307647
  0
LINE
  5
14C
100
AcDbEntity
  8
STRANA_22
  6
CONTINUOUS
 62
    7
370
   -1
100
AcDbLine
 10
438.2673564256
 20
385.0204307647
 11
438.2673564256
 21
417.0204307647
  0
LINE
  5
14D
100
AcDbEntity
  8
STRANA_22
  6
CONTINUOUS
 62
    7
370
   -1
100
AcDbLine
 10
446.2673564256
 20
385.0204307647
 11
438.2673564256
 21
385.0204307647
  0
LINE
  5
14E
100
AcDbEntity
  8
STRANA_22
  6
CONTINUOUS
 62
    7
370
   -1
100
AcDbLine
 10
438.2673564256
 20
353.0204307647
 11
446.2673564256
 21
353.0204307647
  0
LINE
  5
14F
100
AcDbEntity
  8
STRANA_22
  6
CONTINUOUS
 62
    7
370
   -1
100
AcDbLine
 10
438.2673564256
 20
321.0204307647
 11
438.2673564256
 21
353.0204307647
  0
LINE
  5
150
100
AcDbEntity
  8
STRANA_22
  6
CONTINUOUS
 62
    7
370
   -1
100
AcDbLine
 10
446.2673564256
 20
321.0204307647
 11
438.2673564256
 21
321.0204307647
  0
LINE
  5
151
100
AcDbEntity
  8
STRANA_22
  6
CONTINUOUS
 62
    7
370
   -1
100
AcDbLine
 10
438.2673564256
 20
289.0204307647
 11
446.2673564256
 21
289.0204307647
  0
LINE
  5
152
100
AcDbEntity
  8
STRANA_22
  6
CONTINUOUS
 62
    7
370
   -1
100
AcDbLine
 10
438.2673564256
 20
257.0204307647
 11
438.2673564256
 21
289.0204307647
  0
LINE
  5
153
100
AcDbEntity
  8
STRANA_22
  6
CONTINUOUS
 62
    7
370
   -1
100
AcDbLine
 10
446.2673564256
 20
257.0204307647
 11
438.2673564256
 21
257.0204307647
  0
LINE
  5
154
100
AcDbEntity
  8
STRANA_22
  6
CONTINUOUS
 62
    7
370
   -1
100
AcDbLine
 10
473.2673564256
 20
217.0204307647
 11
473.2673564256
 21
225.0204307647
  0
LINE
  5
155
100
AcDbEntity
  8
STRANA_22
  6
CONTINUOUS
 62
    7
370
   -1
100
AcDbLine
 10
505.2673564256
 20
217.0204307647
 11
473.2673564256
 21
217.0204307647
  0
LINE
  5
156
100
AcDbEntity
  8
STRANA_22
  6
CONTINUOUS
 62
    7
370
   -1
100
AcDbLine
 10
505.2673564256
 20
225.0204307647
 11
505.2673564256
 21
217.0204307647
  0
LINE
  5
157
100
AcDbEntity
  8
STRANA_22
  6
CONTINUOUS
 62
    7
370
   -1
100
AcDbLine
 10
537.2673564256
 20
217.0204307647
 11
537.2673564256
 21
225.0204307647
  0
LINE
  5
158
100
AcDbEntity
  8
STRANA_22
  6
CONTINUOUS
 62
    7
370
   -1
100
AcDbLine
 10
569.2673564256
 20
217.0204307647
 11
537.2673564256
 21
217.0204307647
  0
LINE
  5
159
100
AcDbEntity
  8
STRANA_22
  6
CONTINUOUS
 62
    7
370
   -1
100
AcDbLine
 10
569.2673564256
 20
225.0204307647
 11
569.2673564256
 21
217.0204307647
  0
LINE
  5
15A
100
AcDbEntity
  8
STRANA_22
  6
CONTINUOUS
 62
    7
370
   -1
100
AcDbLine
 10
601.2673564256
 20
217.0204307647
 11
601.2673564256
 21
225.0204307647
  0
LINE
  5
15B
100
AcDbEntity
  8
STRANA_22
  6
CONTINUOUS
 62
    7
370
   -1
100
AcDbLine
 10
633.2673564256
 20
217.0204307647
 11
601.2673564256
 21
217.0204307647
  0
LINE
  5
15C
100
AcDbEntity
  8
STRANA_22
  6
CONTINUOUS
 62
    7
370
   -1
100
AcDbLine
 10
633.2673564256
 20
225.0204307647
 11
633.2673564256
 21
217.0204307647
  0
LINE
  5
15D
100
AcDbEntity
  8
STRANA_22
  6
CONTINUOUS
 62
    7
370
   -1
100
AcDbLine
 10
668.2673564256
 20
257.0204307647
 11
660.2673564256
 21
257.0204307647
  0
LINE
  5
15E
100
AcDbEntity
  8
STRANA_22
  6
CONTINUOUS
 62
    7
370
   -1
100
AcDbLine
 10
668.2673564256
 20
289.0204307647
 11
668.2673564256
 21
257.0204307647
  0
LINE
  5
15F
100
AcDbEntity
  8
STRANA_22
  6
CONTINUOUS
 62
    7
370
   -1
100
AcDbLine
 10
660.2673564256
 20
289.0204307647
 11
668.2673564256
 21
289.0204307647
  0
LINE
  5
160
100
AcDbEntity
  8
STRANA_22
  6
CONTINUOUS
 62
    7
370
   -1
100
AcDbLine
 10
668.2673564256
 20
321.0204307647
 11
660.2673564256
 21
321.0204307647
  0
LINE
  5
161
100
AcDbEntity
  8
STRANA_22
  6
CONTINUOUS
 62
    7
370
   -1
100
AcDbLine
 10
668.2673564256
 20
353.0204307647
 11
668.2673564256
 21
321.0204307647
  0
LINE
  5
162
100
AcDbEntity
  8
STRANA_22
  6
CONTINUOUS
 62
    7
370
   -1
100
AcDbLine
 10
660.2673564256
 20
353.0204307647
 11
668.2673564256
 21
353.0204307647
  0
LINE
  5
163
100
AcDbEntity
  8
STRANA_22
  6
CONTINUOUS
 62
    7
370
   -1
100
AcDbLine
 10
668.2673564256
 20
385.0204307647
 11
660.2673564256
 21
385.0204307647
  0
LINE
  5
164
100
AcDbEntity
  8
STRANA_22
  6
CONTINUOUS
 62
    7
370
   -1
100
AcDbLine
 10
668.2673564256
 20
417.0204307647
 11
668.2673564256
 21
385.0204307647
  0
LINE
  5
165
100
AcDbEntity
  8
STRANA_22
  6
CONTINUOUS
 62
    7
370
   -1
100
AcDbLine
 10
660.2673564256
 20
417.0204307647
 11
668.2673564256
 21
417.0204307647
  0
LINE
  5
166
100
AcDbEntity
  8
0BDLZ
  6
CONTINUOUS
 62
    7
370
   -1
100
AcDbLine
 10
526.7673564256
 20
248.5204307647
 11
485.7673564256
 21
248.5204307647
  0
LINE
  5
167
100
AcDbEntity
  8
0BDLZ
  6
CONTINUOUS
 62
    7
370
   -1
100
AcDbLine
 10
526.7673564256
 20
321.5204307647
 11
526.7673564256
 21
248.5204307647
  0
LINE
  5
168
100
AcDbEntity
  8
0BDLZ
  6
CONTINUOUS
 62
    7
370
   -1
100
AcDbLine
 10
485.7673564256
 20
321.5204307647
 11
526.7673564256
 21
321.5204307647
  0
LINE
  5
169
100
AcDbEntity
  8
0BDLZ
  6
CONTINUOUS
 62
    7
370
   -1
100
AcDbLine
 10
485.7673564256
 20
248.5204307647
 11
485.7673564256
 21
321.5204307647
  0
LINE
  5
16A
100
AcDbEntity
  8
PACKMAN
  6
CONTINUOUS
 62
    7
370
   -1
100
AcDbLine
 10
601.7673564256
 20
352.5204307647
 11
601.7673564256
 21
384.5204307647
  0
ARC
  5
16B
100
AcDbEntity
  8
PACKMAN
  6
CONTINUOUS
 62
    7
370
   -1
100
AcDbCircle
 10
603.2673564256
 20
383.0204307647
 40
30.53686296920491
100
AcDbArc
 50
2.8155566842
 51
267.1844433158
  0
LINE
  5
16C
100
AcDbEntity
  8
PACKMAN
  6
CONTINUOUS
 62
    7
370
   -1
100
AcDbLine
 10
601.7673564256
 20
384.5204307647
 11
633.7673564256
 21
384.5204307647
  0
LINE
  5
16D
100
AcDbEntity
  8
PRAVOKRUG
  6
CONTINUOUS
 62
    7
370
   -1
100
AcDbLine
 10
579.7673564256
 20
301.0204307647
 11
579.7673564256
 21
269.0204307647
  0
ARC
  5
16E
100
AcDbEntity
  8
PRAVOKRUG
  6
CONTINUOUS
 62
    7
370
   -1
100
AcDbCircle
 10
600.2673564256
 20
301.0204307647
 40
20.50000000000003
100
AcDbArc
 50
0
 51
180
  0
LINE
  5
16F
100
AcDbEntity
  8
PRAVOKRUG
  6
CONTINUOUS
 62
    7
370
   -1
100
AcDbLine
 10
620.7673564256
 20
269.0204307647
 11
620.7673564256
 21
301.0204307647
  0
ARC
  5
170
100
AcDbEntity
  8
PRAVOKRUG
  6
CONTINUOUS
 62
    7
370
   -1
100
AcDbCircle
 10
600.2673564256
 20
269.0204307647
 40
20.50000000000001
100
AcDbArc
 50
180
 51
0
  0
LINE
  5
171
100
AcDbEntity
  8
SESTOSTRAN
  6
CONTINUOUS
 62
    7
370
   -1
100
AcDbLine
 10
486.6333818294
 20
355.8986524998
 11
469.9994072332
 21
384.7095416323
  0
LINE
  5
172
100
AcDbEntity
  8
SESTOSTRAN
  6
CONTINUOUS
 62
    7
370
   -1
100
AcDbLine
 10
519.9013310218
 20
355.8986524998
 11
486.6333818294
 21
355.8986524998
  0
LINE
  5
173
100
AcDbEntity
  8
SESTOSTRAN
  6
CONTINUOUS
 62
    7
370
   -1
100
AcDbLine
 10
536.5353056180001
 20
384.7095416323
 11
519.9013310218
 21
355.8986524998
  0
LINE
  5
174
100
AcDbEntity
  8
SESTOSTRAN
  6
CONTINUOUS
 62
    7
370
   -1
100
AcDbLine
 10
519.9013310218
 20
413.5204307647
 11
536.5353056180001
 21
384.7095416323
  0
LINE
  5
175
100
AcDbEntity
  8
SESTOSTRAN
  6
CONTINUOUS
 62
    7
370
   -1
100
AcDbLine
 10
486.6333818294
 20
413.5204307647
 11
519.9013310218
 21
413.5204307647
  0
LINE
  5
176
100
AcDbEntity
  8
SESTOSTRAN
  6
CONTINUOUS
 62
    7
370
   -1
100
AcDbLine
 10
469.9994072332
 20
384.7095416323
 11
486.6333818294
 21
413.5204307647
  0
ENDBLK
  5
71
330
6F
100
AcDbEntity
  8
0
100
AcDbBlockEnd
  0
BLOCK
  5
73
330
72
100
AcDbEntity
  8
0
100
AcDbBlockBegin
  2
SE3
 70
    0
 10
0
 20
0
  3
SE3
  1

  0
LINE
  5
177
100
AcDbEntity
  8
STRANA_1
  6
CONTINUOUS
 62
    7
370
   -1
100
AcDbLine
 10
671.2817304498
 20
201.9246866886
 11
606.2817304498
 21
201.9246866886
  0
LINE
  5
178
100
AcDbEntity
  8
STRANA_1
  6
CONTINUOUS
 62
    7
370
   -1
100
AcDbLine
 10
671.2817304498
 20
-20.0753133114
 11
671.2817304498
 21
11.9246866886
  0
LINE
  5
179
100
AcDbEntity
  8
STRANA_1
  6
CONTINUOUS
 62
    7
370
   -1
100
AcDbLine
 10
441.2817304498
 20
-20.0753133114
 11
476.2817304498
 21
-20.0753133114
  0
LINE
  5
17A
100
AcDbEntity
  8
STRANA_1
  6
CONTINUOUS
 62
    7
370
   -1
100
AcDbLine
 10
441.2817304498
 20
201.9246866886
 11
441.2817304498
 21
171.9246866886
  0
LINE
  5
17B
100
AcDbEntity
  8
STRANA_1
  6
CONTINUOUS
 62
    7
370
   -1
100
AcDbLine
 10
506.2817304498
 20
201.9246866886
 11
441.2817304498
 21
201.9246866886
  0
LINE
  5
17C
100
AcDbEntity
  8
STRANA_1
  6
CONTINUOUS
 62
    7
370
   -1
100
AcDbLine
 10
506.2817304498
 20
201.9246866886
 11
506.2817304498
 21
193.9246866886
  0
LINE
  5
17D
100
AcDbEntity
  8
STRANA_1
  6
CONTINUOUS
 62
    7
370
   -1
100
AcDbLine
 10
506.2817304498
 20
193.9246866886
 11
606.2817304498
 21
193.9246866886
  0
LINE
  5
17E
100
AcDbEntity
  8
STRANA_1
  6
CONTINUOUS
 62
    7
370
   -1
100
AcDbLine
 10
606.2817304498
 20
193.9246866886
 11
606.2817304498
 21
201.9246866886
  0
LINE
  5
17F
100
AcDbEntity
  8
STRANA_1
  6
CONTINUOUS
 62
    7
370
   -1
100
AcDbLine
 10
585.2817304498
 20
65.4246866886
 11
585.2817304498
 21
1.9246866886
  0
LINE
  5
180
100
AcDbEntity
  8
STRANA_1
  6
CONTINUOUS
 62
    7
370
   -1
100
AcDbLine
 10
585.2817304498
 20
1.9246866886
 11
648.7817304498
 21
1.9246866886
  0
ARC
  5
181
100
AcDbEntity
  8
STRANA_1
  6
CONTINUOUS
 62
    7
370
   -1
100
AcDbCircle
 10
585.2817304498
 20
1.9246866886
 40
63.5
100
AcDbArc
 50
0
 51
90
  0
LINE
  5
182
100
AcDbEntity
  8
STRANA_1
  6
CONTINUOUS
 62
    7
370
   -1
100
AcDbLine
 10
639.2817304498
 20
152.9246866886
 11
550.2817304498
 21
106.9246866886
  0
LINE
  5
183
100
AcDbEntity
  8
STRANA_1
  6
CONTINUOUS
 62
    7
370
   -1
100
AcDbLine
 10
550.2817304498
 20
106.9246866886
 11
639.2817304498
 21
106.9246866886
  0
LINE
  5
184
100
AcDbEntity
  8
STRANA_1
  6
CONTINUOUS
 62
    7
370
   -1
100
AcDbLine
 10
639.2817304498
 20
106.9246866886
 11
639.2817304498
 21
152.9246866886
  0
LINE
  5
185
100
AcDbEntity
  8
STRANA_1
  6
CONTINUOUS
 62
    7
370
   -1
100
AcDbLine
 10
489.8612669646
 20
58.9246866886
 11
463.2817304498
 21
1.9246866886
  0
LINE
  5
186
100
AcDbEntity
  8
STRANA_1
  6
CONTINUOUS
 62
    7
370
   -1
100
AcDbLine
 10
463.2817304498
 20
1.9246866886
 11
552.2817304498
 21
1.9246866886
  0
LINE
  5
187
100
AcDbEntity
  8
STRANA_1
  6
CONTINUOUS
 62
    7
370
   -1
100
AcDbLine
 10
552.2817304498
 20
1.9246866886
 11
525.702193935
 21
58.9246866886
  0
LINE
  5
188
100
AcDbEntity
  8
STRANA_1
  6
CONTINUOUS
 62
    7
370
   -1
100
AcDbLine
 10
525.702193935
 20
58.9246866886
 11
489.8612669646
 21
58.9246866886
  0
ARC
  5
189
100
AcDbEntity
  8
STRANA_1
  6
CONTINUOUS
 62
    7
370
   -1
100
AcDbCircle
 10
517.2817304498
 20
130.9246866886
 40
37.99999999999999
100
AcDbArc
 50
90
 51
270
  0
LINE
  5
18A
100
AcDbEntity
  8
STRANA_1
  6
CONTINUOUS
 62
    7
370
   -1
100
AcDbLine
 10
517.2817304498
 20
168.9246866886
 11
517.2817304498
 21
92.9246866886
  0
LINE
  5
18B
100
AcDbEntity
  8
STRANA_1
  6
CONTINUOUS
 62
    7
370
   -1
100
AcDbLine
 10
441.2817304498
 20
139.9246866886
 11
441.2817304498
 21
107.9246866886
  0
LINE
  5
18C
100
AcDbEntity
  8
STRANA_1
  6
CONTINUOUS
 62
    7
370
   -1
100
AcDbLine
 10
449.2817304498
 20
139.9246866886
 11
449.2817304498
 21
171.9246866886
  0
LINE
  5
18D
100
AcDbEntity
  8
STRANA_1
  6
CONTINUOUS
 62
    7
370
   -1
100
AcDbLine
 10
441.2817304498
 20
139.9246866886
 11
449.2817304498
 21
139.9246866886
  0
LINE
  5
18E
100
AcDbEntity
  8
STRANA_1
  6
CONTINUOUS
 62
    7
370
   -1
100
AcDbLine
 10
449.2817304498
 20
171.9246866886
 11
441.2817304498
 21
171.9246866886
  0
LINE
  5
18F
100
AcDbEntity
  8
STRANA_1
  6
CONTINUOUS
 62
    7
370
   -1
100
AcDbLine
 10
441.2817304498
 20
75.9246866886
 11
441.2817304498
 21
43.9246866886
  0
LINE
  5
190
100
AcDbEntity
  8
STRANA_1
  6
CONTINUOUS
 62
    7
370
   -1
100
AcDbLine
 10
449.2817304498
 20
75.9246866886
 11
441.2817304498
 21
75.9246866886
  0
LINE
  5
191
100
AcDbEntity
  8
STRANA_1
  6
CONTINUOUS
 62
    7
370
   -1
100
AcDbLine
 10
449.2817304498
 20
107.9246866886
 11
449.2817304498
 21
75.9246866886
  0
LINE
  5
192
100
AcDbEntity
  8
STRANA_1
  6
CONTINUOUS
 62
    7
370
   -1
100
AcDbLine
 10
441.2817304498
 20
107.9246866886
 11
449.2817304498
 21
107.9246866886
  0
LINE
  5
193
100
AcDbEntity
  8
STRANA_1
  6
CONTINUOUS
 62
    7
370
   -1
100
AcDbLine
 10
441.2817304498
 20
11.9246866886
 11
441.2817304498
 21
-20.0753133114
  0
LINE
  5
194
100
AcDbEntity
  8
STRANA_1
  6
CONTINUOUS
 62
    7
370
   -1
100
AcDbLine
 10
449.2817304498
 20
11.9246866886
 11
441.2817304498
 21
11.9246866886
  0
LINE
  5
195
100
AcDbEntity
  8
STRANA_1
  6
CONTINUOUS
 62
    7
370
   -1
100
AcDbLine
 10
449.2817304498
 20
43.9246866886
 11
449.2817304498
 21
11.9246866886
  0
LINE
  5
196
100
AcDbEntity
  8
STRANA_1
  6
CONTINUOUS
 62
    7
370
   -1
100
AcDbLine
 10
441.2817304498
 20
43.9246866886
 11
449.2817304498
 21
43.9246866886
  0
LINE
  5
197
100
AcDbEntity
  8
STRANA_1
  6
CONTINUOUS
 62
    7
370
   -1
100
AcDbLine
 10
671.2817304498
 20
43.9246866886
 11
671.2817304498
 21
75.9246866886
  0
LINE
  5
198
100
AcDbEntity
  8
STRANA_1
  6
CONTINUOUS
 62
    7
370
   -1
100
AcDbLine
 10
663.2817304498
 20
11.9246866886
 11
663.2817304498
 21
43.9246866886
  0
LINE
  5
199
100
AcDbEntity
  8
STRANA_1
  6
CONTINUOUS
 62
    7
370
   -1
100
AcDbLine
 10
671.2817304498
 20
11.9246866886
 11
663.2817304498
 21
11.9246866886
  0
LINE
  5
19A
100
AcDbEntity
  8
STRANA_1
  6
CONTINUOUS
 62
    7
370
   -1
100
AcDbLine
 10
663.2817304498
 20
43.9246866886
 11
671.2817304498
 21
43.9246866886
  0
LINE
  5
19B
100
AcDbEntity
  8
STRANA_1
  6
CONTINUOUS
 62
    7
370
   -1
100
AcDbLine
 10
671.2817304498
 20
107.9246866886
 11
671.2817304498
 21
139.9246866886
  0
LINE
  5
19C
100
AcDbEntity
  8
STRANA_1
  6
CONTINUOUS
 62
    7
370
   -1
100
AcDbLine
 10
663.2817304498
 20
75.9246866886
 11
663.2817304498
 21
107.9246866886
  0
LINE
  5
19D
100
AcDbEntity
  8
STRANA_1
  6
CONTINUOUS
 62
    7
370
   -1
100
AcDbLine
 10
671.2817304498
 20
75.9246866886
 11
663.2817304498
 21
75.9246866886
  0
LINE
  5
19E
100
AcDbEntity
  8
STRANA_1
  6
CONTINUOUS
 62
    7
370
   -1
100
AcDbLine
 10
663.2817304498
 20
107.9246866886
 11
671.2817304498
 21
107.9246866886
  0
LINE
  5
19F
100
AcDbEntity
  8
STRANA_1
  6
CONTINUOUS
 62
    7
370
   -1
100
AcDbLine
 10
671.2817304498
 20
171.9246866886
 11
671.2817304498
 21
201.9246866886
  0
LINE
  5
1A0
100
AcDbEntity
  8
STRANA_1
  6
CONTINUOUS
 62
    7
370
   -1
100
AcDbLine
 10
663.2817304498
 20
139.9246866886
 11
663.2817304498
 21
171.9246866886
  0
LINE
  5
1A1
100
AcDbEntity
  8
STRANA_1
  6
CONTINUOUS
 62
    7
370
   -1
100
AcDbLine
 10
671.2817304498
 20
139.9246866886
 11
663.2817304498
 21
139.9246866886
  0
LINE
  5
1A2
100
AcDbEntity
  8
STRANA_1
  6
CONTINUOUS
 62
    7
370
   -1
100
AcDbLine
 10
663.2817304498
 20
171.9246866886
 11
671.2817304498
 21
171.9246866886
  0
LINE
  5
1A3
100
AcDbEntity
  8
STRANA_1
  6
CONTINUOUS
 62
    7
370
   -1
100
AcDbLine
 10
508.2817304498
 20
-20.0753133114
 11
540.2817304498
 21
-20.0753133114
  0
LINE
  5
1A4
100
AcDbEntity
  8
STRANA_1
  6
CONTINUOUS
 62
    7
370
   -1
100
AcDbLine
 10
572.2817304498
 20
-20.0753133114
 11
604.2817304498
 21
-20.0753133114
  0
LINE
  5
1A5
100
AcDbEntity
  8
STRANA_1
  6
CONTINUOUS
 62
    7
370
   -1
100
AcDbLine
 10
636.2817304498
 20
-20.0753133114
 11
671.2817304498
 21
-20.0753133114
  0
LINE
  5
1A6
100
AcDbEntity
  8
STRANA_1
  6
CONTINUOUS
 62
    7
370
   -1
100
AcDbLine
 10
636.2817304498
 20
-28.0753133114
 11
636.2817304498
 21
-20.0753133114
  0
LINE
  5
1A7
100
AcDbEntity
  8
STRANA_1
  6
CONTINUOUS
 62
    7
370
   -1
100
AcDbLine
 10
604.2817304498
 20
-20.0753133114
 11
604.2817304498
 21
-28.0753133114
  0
LINE
  5
1A8
100
AcDbEntity
  8
STRANA_1
  6
CONTINUOUS
 62
    7
370
   -1
100
AcDbLine
 10
604.2817304498
 20
-28.0753133114
 11
636.2817304498
 21
-28.0753133114
  0
LINE
  5
1A9
100
AcDbEntity
  8
STRANA_1
  6
CONTINUOUS
 62
    7
370
   -1
100
AcDbLine
 10
572.2817304498
 20
-28.0753133114
 11
572.2817304498
 21
-20.0753133114
  0
LINE
  5
1AA
100
AcDbEntity
  8
STRANA_1
  6
CONTINUOUS
 62
    7
370
   -1
100
AcDbLine
 10
540.2817304498
 20
-20.0753133114
 11
540.2817304498
 21
-28.0753133114
  0
LINE
  5
1AB
100
AcDbEntity
  8
STRANA_1
  6
CONTINUOUS
 62
    7
370
   -1
100
AcDbLine
 10
540.2817304498
 20
-28.0753133114
 11
572.2817304498
 21
-28.0753133114
  0
LINE
  5
1AC
100
AcDbEntity
  8
STRANA_1
  6
CONTINUOUS
 62
    7
370
   -1
100
AcDbLine
 10
508.2817304498
 20
-28.0753133114
 11
508.2817304498
 21
-20.0753133114
  0
LINE
  5
1AD
100
AcDbEntity
  8
STRANA_1
  6
CONTINUOUS
 62
    7
370
   -1
100
AcDbLine
 10
476.2817304498
 20
-20.0753133114
 11
476.2817304498
 21
-28.0753133114
  0
LINE
  5
1AE
100
AcDbEntity
  8
STRANA_1
  6
CONTINUOUS
 62
    7
370
   -1
100
AcDbLine
 10
476.2817304498
 20
-28.0753133114
 11
508.2817304498
 21
-28.0753133114
  0
LINE
  5
1AF
100
AcDbEntity
  8
KRISKA_CIRCLE
  6
CONTINUOUS
 62
    7
370
   -1
100
AcDbLine
 10
586.7817304498
 20
63.4246866886
 11
586.7817304498
 21
3.4246866886
  0
LINE
  5
1B0
100
AcDbEntity
  8
KRISKA_CIRCLE
  6
CONTINUOUS
 62
    7
370
   -1
100
AcDbLine
 10
586.7817304498
 20
3.4246866886
 11
646.7817304498
 21
3.4246866886
  0
ARC
  5
1B1
100
AcDbEntity
  8
KRISKA_CIRCLE
  6
CONTINUOUS
 62
    7
370
   -1
100
AcDbCircle
 10
586.7817304498
 20
3.4246866886
 40
59.99999999999999
100
AcDbArc
 50
0
 51
90
  0
LINE
  5
1B2
100
AcDbEntity
  8
POLUKRUG
  6
CONTINUOUS
 62
    7
370
   -1
100
AcDbLine
 10
515.7817304498
 20
167.3938517462
 11
515.7817304498
 21
94.455521631
  0
ARC
  5
1B3
100
AcDbEntity
  8
POLUKRUG
  6
CONTINUOUS
 62
    7
370
   -1
100
AcDbCircle
 10
517.2817304498
 20
130.9246866886
 40
36.5
100
AcDbArc
 50
92.35528435579999
 51
267.6447156442
  0
LINE
  5
1B4
100
AcDbEntity
  8
TRAPEZ
  6
CONTINUOUS
 62
    7
370
   -1
100
AcDbLine
 10
549.9272020841
 20
3.4246866886
 11
465.6362588155
 21
3.4246866886
  0
LINE
  5
1B5
100
AcDbEntity
  8
TRAPEZ
  6
CONTINUOUS
 62
    7
370
   -1
100
AcDbLine
 10
524.7465885437
 20
57.4246866886
 11
549.9272020841
 21
3.4246866886
  0
LINE
  5
1B6
100
AcDbEntity
  8
TRAPEZ
  6
CONTINUOUS
 62
    7
370
   -1
100
AcDbLine
 10
490.8168723558
 20
57.4246866886
 11
524.7465885437
 21
57.4246866886
  0
LINE
  5
1B7
100
AcDbEntity
  8
TRAPEZ
  6
CONTINUOUS
 62
    7
370
   -1
100
AcDbLine
 10
465.6362588155
 20
3.4246866886
 11
490.8168723558
 21
57.4246866886
  0
LINE
  5
1B8
100
AcDbEntity
  8
TRIANGLE_NORMAL
  6
CONTINUOUS
 62
    7
370
   -1
100
AcDbLine
 10
556.4508009669
 20
108.4246866886
 11
637.7817304498
 21
150.4608974326
  0
LINE
  5
1B9
100
AcDbEntity
  8
TRIANGLE_NORMAL
  6
CONTINUOUS
 62
    7
370
   -1
100
AcDbLine
 10
637.7817304498
 20
150.4608974326
 11
637.7817304498
 21
108.4246866886
  0
LINE
  5
1BA
100
AcDbEntity
  8
TRIANGLE_NORMAL
  6
CONTINUOUS
 62
    7
370
   -1
100
AcDbLine
 10
637.7817304498
 20
108.4246866886
 11
556.4508009669
 21
108.4246866886
  0
ENDBLK
  5
74
330
72
100
AcDbEntity
  8
0
100
AcDbBlockEnd
  0
BLOCK
  5
76
330
75
100
AcDbEntity
  8
0
100
AcDbBlockBegin
  2
SE4
 70
    0
 10
0
 20
0
  3
SE4
  1

  0
LINE
  5
1BB
100
AcDbEntity
  8
POKLOPAC
  6
CONTINUOUS
 62
    7
370
   -1
100
AcDbLine
 10
167.209437131
 20
37.8117724582
 11
167.209437131
 21
-18.6882275418
  0
LINE
  5
1BC
100
AcDbEntity
  8
POKLOPAC
  6
CONTINUOUS
 62
    7
370
   -1
100
AcDbLine
 10
167.209437131
 20
-18.6882275418
 11
110.709437131
 21
-18.6882275418
  0
LINE
  5
1BD
100
AcDbEntity
  8
POKLOPAC
  6
CONTINUOUS
 62
    7
370
   -1
100
AcDbLine
 10
110.709437131
 20
-18.6882275418
 11
110.709437131
 21
-28.1882275418
  0
LINE
  5
1BE
100
AcDbEntity
  8
POKLOPAC
  6
CONTINUOUS
 62
    7
370
   -1
100
AcDbLine
 10
110.709437131
 20
-28.1882275418
 11
12.709437131
 21
-28.1882275418
  0
LINE
  5
1BF
100
AcDbEntity
  8
POKLOPAC
  6
CONTINUOUS
 62
    7
370
   -1
100
AcDbLine
 10
12.709437131
 20
-28.1882275418
 11
12.709437131
 21
-18.6882275418
  0
LINE
  5
1C0
100
AcDbEntity
  8
POKLOPAC
  6
CONTINUOUS
 62
    7
370
   -1
100
AcDbLine
 10
12.709437131
 20
-18.6882275418
 11
-43.790562869
 21
-18.6882275418
  0
LINE
  5
1C1
100
AcDbEntity
  8
POKLOPAC
  6
CONTINUOUS
 62
    7
370
   -1
100
AcDbLine
 10
-43.790562869
 20
-18.6882275418
 11
-43.790562869
 21
37.8117724582
  0
LINE
  5
1C2
100
AcDbEntity
  8
POKLOPAC
  6
CONTINUOUS
 62
    7
370
   -1
100
AcDbLine
 10
-43.790562869
 20
37.8117724582
 11
-53.290562869
 21
37.8117724582
  0
LINE
  5
1C3
100
AcDbEntity
  8
POKLOPAC
  6
CONTINUOUS
 62
    7
370
   -1
100
AcDbLine
 10
-53.290562869
 20
37.8117724582
 11
-53.290562869
 21
135.8117724582
  0
LINE
  5
1C4
100
AcDbEntity
  8
POKLOPAC
  6
CONTINUOUS
 62
    7
370
   -1
100
AcDbLine
 10
-53.290562869
 20
135.8117724582
 11
-43.790562869
 21
135.8117724582
  0
LINE
  5
1C5
100
AcDbEntity
  8
POKLOPAC
  6
CONTINUOUS
 62
    7
370
   -1
100
AcDbLine
 10
-43.790562869
 20
135.8117724582
 11
-43.790562869
 21
192.3117724582
  0
LINE
  5
1C6
100
AcDbEntity
  8
POKLOPAC
  6
CONTINUOUS
 62
    7
370
   -1
100
AcDbLine
 10
-43.790562869
 20
192.3117724582
 11
12.709437131
 21
192.3117724582
  0
LINE
  5
1C7
100
AcDbEntity
  8
POKLOPAC
  6
CONTINUOUS
 62
    7
370
   -1
100
AcDbLine
 10
12.709437131
 20
192.3117724582
 11
12.709437131
 21
201.8117724582
  0
LINE
  5
1C8
100
AcDbEntity
  8
POKLOPAC
  6
CONTINUOUS
 62
    7
370
   -1
100
AcDbLine
 10
12.709437131
 20
201.8117724582
 11
110.709437131
 21
201.8117724582
  0
LINE
  5
1C9
100
AcDbEntity
  8
POKLOPAC
  6
CONTINUOUS
 62
    7
370
   -1
100
AcDbLine
 10
110.709437131
 20
201.8117724582
 11
110.709437131
 21
192.3117724582
  0
LINE
  5
1CA
100
AcDbEntity
  8
POKLOPAC
  6
CONTINUOUS
 62
    7
370
   -1
100
AcDbLine
 10
110.709437131
 20
192.3117724582
 11
167.209437131
 21
192.3117724582
  0
LINE
  5
1CB
100
AcDbEntity
  8
POKLOPAC
  6
CONTINUOUS
 62
    7
370
   -1
100
AcDbLine
 10
167.209437131
 20
192.3117724582
 11
167.209437131
 21
135.8117724582
  0
LINE
  5
1CC
100
AcDbEntity
  8
POKLOPAC
  6
CONTINUOUS
 62
    7
370
   -1
100
AcDbLine
 10
167.209437131
 20
135.8117724582
 11
176.709437131
 21
135.8117724582
  0
LINE
  5
1CD
100
AcDbEntity
  8
POKLOPAC
  6
CONTINUOUS
 62
    7
370
   -1
100
AcDbLine
 10
176.709437131
 20
135.8117724582
 11
176.709437131
 21
37.8117724582
  0
LINE
  5
1CE
100
AcDbEntity
  8
POKLOPAC
  6
CONTINUOUS
 62
    7
370
   -1
100
AcDbLine
 10
176.709437131
 20
37.8117724582
 11
167.209437131
 21
37.8117724582
  0
LINE
  5
1CF
100
AcDbEntity
  8
POKLOPAC
  6
CONTINUOUS
 62
    7
370
   -1
100
AcDbLine
 10
3.709437131
 20
46.3117724582
 11
-8.0462679149
 21
70.1314325707
  0
LINE
  5
1D0
100
AcDbEntity
  8
POKLOPAC
  6
CONTINUOUS
 62
    7
370
   -1
100
AcDbLine
 10
15.4651421768
 20
70.1314325707
 11
3.709437131
 21
46.3117724582
  0
LINE
  5
1D1
100
AcDbEntity
  8
POKLOPAC
  6
CONTINUOUS
 62
    7
370
   -1
100
AcDbLine
 10
41.7516977828
 20
73.9510926832
 11
15.4651421768
 21
70.1314325707
  0
LINE
  5
1D2
100
AcDbEntity
  8
POKLOPAC
  6
CONTINUOUS
 62
    7
370
   -1
100
AcDbLine
 10
22.7305674569
 20
92.49211234569999
 11
41.7516977828
 21
73.9510926832
  0
LINE
  5
1D3
100
AcDbEntity
  8
POKLOPAC
  6
CONTINUOUS
 62
    7
370
   -1
100
AcDbLine
 10
27.2208472227
 20
118.6724522332
 11
22.7305674569
 21
92.49211234569999
  0
LINE
  5
1D4
100
AcDbEntity
  8
POKLOPAC
  6
CONTINUOUS
 62
    7
370
   -1
100
AcDbLine
 10
3.709437131
 20
106.3117724582
 11
27.2208472227
 21
118.6724522332
  0
LINE
  5
1D5
100
AcDbEntity
  8
POKLOPAC
  6
CONTINUOUS
 62
    7
370
   -1
100
AcDbLine
 10
-19.8019729607
 20
118.6724522332
 11
3.709437131
 21
106.3117724582
  0
LINE
  5
1D6
100
AcDbEntity
  8
POKLOPAC
  6
CONTINUOUS
 62
    7
370
   -1
100
AcDbLine
 10
-15.3116931949
 20
92.49211234569999
 11
-19.8019729607
 21
118.6724522332
  0
LINE
  5
1D7
100
AcDbEntity
  8
POKLOPAC
  6
CONTINUOUS
 62
    7
370
   -1
100
AcDbLine
 10
-34.3328235209
 20
73.9510926832
 11
-15.3116931949
 21
92.49211234569999
  0
LINE
  5
1D8
100
AcDbEntity
  8
POKLOPAC
  6
CONTINUOUS
 62
    7
370
   -1
100
AcDbLine
 10
-8.0462679149
 20
70.1314325707
 11
-34.3328235209
 21
73.9510926832
  0
ARC
  5
1D9
100
AcDbEntity
  8
POKLOPAC
  6
CONTINUOUS
 62
    7
370
   -1
100
AcDbCircle
 10
75.50435701470001
 20
12.8117724582
 40
19
100
AcDbArc
 50
221.204410311
 51
36
  0
LINE
  5
1DA
100
AcDbEntity
  8
POKLOPAC
  6
CONTINUOUS
 62
    7
370
   -1
100
AcDbLine
 10
61.209437131
 20
64.8117724582
 11
90.87567990789999
 21
23.9796922517
  0
LINE
  5
1DB
100
AcDbEntity
  8
POKLOPAC
  6
CONTINUOUS
 62
    7
370
   -1
100
AcDbLine
 10
31.543194354
 20
23.9796922517
 11
61.209437131
 21
64.8117724582
  0
ARC
  5
1DC
100
AcDbEntity
  8
POKLOPAC
  6
CONTINUOUS
 62
    7
370
   -1
100
AcDbCircle
 10
46.9145172472
 20
12.8117724582
 40
19
100
AcDbArc
 50
144
 51
318.795589689
  0
CIRCLE
  5
1DD
100
AcDbEntity
  8
POKLOPAC
  6
CONTINUOUS
 62
    7
370
   -1
100
AcDbCircle
 10
61.209437131
 20
148.0617724582
 40
31.75
  0
LINE
  5
1DE
100
AcDbEntity
  8
POKLOPAC
  6
CONTINUOUS
 62
    7
370
   -1
100
AcDbLine
 10
100.709437131
 20
73.8117724582
 11
89.209437131
 21
73.8117724582
  0
LINE
  5
1DF
100
AcDbEntity
  8
POKLOPAC
  6
CONTINUOUS
 62
    7
370
   -1
100
AcDbLine
 10
100.709437131
 20
62.3117724582
 11
100.709437131
 21
73.8117724582
  0
ARC
  5
1E0
100
AcDbEntity
  8
POKLOPAC
  6
CONTINUOUS
 62
    7
370
   -1
100
AcDbCircle
 10
113.209437131
 20
62.3117724582
 40
12.5
100
AcDbArc
 50
180
 51
0
  0
LINE
  5
1E1
100
AcDbEntity
  8
POKLOPAC
  6
CONTINUOUS
 62
    7
370
   -1
100
AcDbLine
 10
125.709437131
 20
73.8117724582
 11
125.709437131
 21
62.3117724582
  0
LINE
  5
1E2
100
AcDbEntity
  8
POKLOPAC
  6
CONTINUOUS
 62
    7
370
   -1
100
AcDbLine
 10
137.209437131
 20
73.8117724582
 11
125.709437131
 21
73.8117724582
  0
ARC
  5
1E3
100
AcDbEntity
  8
POKLOPAC
  6
CONTINUOUS
 62
    7
370
   -1
100
AcDbCircle
 10
137.209437131
 20
86.3117724582
 40
12.5
100
AcDbArc
 50
270
 51
90
  0
LINE
  5
1E4
100
AcDbEntity
  8
POKLOPAC
  6
CONTINUOUS
 62
    7
370
   -1
100
AcDbLine
 10
125.709437131
 20
98.8117724582
 11
137.209437131
 21
98.8117724582
  0
LINE
  5
1E5
100
AcDbEntity
  8
POKLOPAC
  6
CONTINUOUS
 62
    7
370
   -1
100
AcDbLine
 10
125.709437131
 20
110.3117724582
 11
125.709437131
 21
98.8117724582
  0
ARC
  5
1E6
100
AcDbEntity
  8
POKLOPAC
  6
CONTINUOUS
 62
    7
370
   -1
100
AcDbCircle
 10
113.209437131
 20
110.3117724582
 40
12.5
100
AcDbArc
 50
0
 51
180
  0
LINE
  5
1E7
100
AcDbEntity
  8
POKLOPAC
  6
CONTINUOUS
 62
    7
370
   -1
100
AcDbLine
 10
100.709437131
 20
98.8117724582
 11
100.709437131
 21
110.3117724582
  0
LINE
  5
1E8
100
AcDbEntity
  8
POKLOPAC
  6
CONTINUOUS
 62
    7
370
   -1
100
AcDbLine
 10
89.209437131
 20
98.8117724582
 11
100.709437131
 21
98.8117724582
  0
ARC
  5
1E9
100
AcDbEntity
  8
POKLOPAC
  6
CONTINUOUS
 62
    7
370
   -1
100
AcDbCircle
 10
89.209437131
 20
86.3117724582
 40
12.5
100
AcDbArc
 50
90
 51
270
  0
CIRCLE
  5
1EA
100
AcDbEntity
  8
CIRCLE
  6
CONTINUOUS
 62
    7
370
   -1
100
AcDbCircle
 10
61.209437131
 20
148.0617724582
 40
31
  0
ARC
  5
1EB
100
AcDbEntity
  8
DETELINA
  6
CONTINUOUS
 62
    7
370
   -1
100
AcDbCircle
 10
89.209437131
 20
86.3117724582
 40
11.00000000000008
100
AcDbArc
 50
90
 51
270
  0
LINE
  5
1EC
100
AcDbEntity
  8
DETELINA
  6
CONTINUOUS
 62
    7
370
   -1
100
AcDbLine
 10
89.209437131
 20
75.3117724582
 11
102.209437131
 21
75.3117724582
  0
LINE
  5
1ED
100
AcDbEntity
  8
DETELINA
  6
CONTINUOUS
 62
    7
370
   -1
100
AcDbLine
 10
102.209437131
 20
75.3117724582
 11
102.209437131
 21
62.3117724582
  0
ARC
  5
1EE
100
AcDbEntity
  8
DETELINA
  6
CONTINUOUS
 62
    7
370
   -1
100
AcDbCircle
 10
113.209437131
 20
62.3117724582
 40
11.00000000000001
100
AcDbArc
 50
180
 51
360
  0
LINE
  5
1EF
100
AcDbEntity
  8
DETELINA
  6
CONTINUOUS
 62
    7
370
   -1
100
AcDbLine
 10
124.209437131
 20
62.3117724582
 11
124.209437131
 21
75.3117724582
  0
LINE
  5
1F0
100
AcDbEntity
  8
DETELINA
  6
CONTINUOUS
 62
    7
370
   -1
100
AcDbLine
 10
124.209437131
 20
75.3117724582
 11
137.209437131
 21
75.3117724582
  0
ARC
  5
1F1
100
AcDbEntity
  8
DETELINA
  6
CONTINUOUS
 62
    7
370
   -1
100
AcDbCircle
 10
137.209437131
 20
86.3117724582
 40
11.00000000000001
100
AcDbArc
 50
270
 51
90
  0
LINE
  5
1F2
100
AcDbEntity
  8
DETELINA
  6
CONTINUOUS
 62
    7
370
   -1
100
AcDbLine
 10
137.209437131
 20
97.3117724582
 11
124.209437131
 21
97.3117724582
  0
LINE
  5
1F3
100
AcDbEntity
  8
DETELINA
  6
CONTINUOUS
 62
    7
370
   -1
100
AcDbLine
 10
124.209437131
 20
97.3117724582
 11
124.209437131
 21
110.3117724582
  0
ARC
  5
1F4
100
AcDbEntity
  8
DETELINA
  6
CONTINUOUS
 62
    7
370
   -1
100
AcDbCircle
 10
113.209437131
 20
110.3117724582
 40
11.00000000000002
100
AcDbArc
 50
0
 51
180
  0
LINE
  5
1F5
100
AcDbEntity
  8
DETELINA
  6
CONTINUOUS
 62
    7
370
   -1
100
AcDbLine
 10
102.209437131
 20
110.3117724582
 11
102.209437131
 21
97.3117724582
  0
LINE
  5
1F6
100
AcDbEntity
  8
DETELINA
  6
CONTINUOUS
 62
    7
370
   -1
100
AcDbLine
 10
102.209437131
 20
97.3117724582
 11
89.209437131
 21
97.3117724582
  0
ARC
  5
1F7
100
AcDbEntity
  8
SRCE
  6
CONTINUOUS
 62
    7
370
   -1
100
AcDbCircle
 10
75.50435701470001
 20
12.8117724582
 40
17.50000000000003
100
AcDbArc
 50
213.7153016601
 51
36
  0
LINE
  5
1F8
100
AcDbEntity
  8
SRCE
  6
CONTINUOUS
 62
    7
370
   -1
100
AcDbLine
 10
89.6621544163
 20
23.0980143733
 11
61.1622740953
 21
62.3247343827
  0
LINE
  5
1F9
100
AcDbEntity
  8
SRCE
  6
CONTINUOUS
 62
    7
370
   -1
100
AcDbLine
 10
61.1622740953
 20
62.3247343827
 11
32.3789846406
 21
23.305495677
  0
ARC
  5
1FA
100
AcDbEntity
  8
SRCE
  6
CONTINUOUS
 62
    7
370
   -1
100
AcDbCircle
 10
46.461897416
 20
12.9169650899
 40
17.50000000000002
100
AcDbArc
 50
143.584947862
 51
325.8696462019
  0
LINE
  5
1FB
100
AcDbEntity
  8
ZVEZDA
  6
CONTINUOUS
 62
    7
370
   -1
100
AcDbLine
 10
-13.6758572238
 20
91.9620286925
 11
-31.0943550237
 21
75.0013772489
  0
LINE
  5
1FC
100
AcDbEntity
  8
ZVEZDA
  6
CONTINUOUS
 62
    7
370
   -1
100
AcDbLine
 10
-17.7728242615
 20
115.9262233187
 11
-13.6758572238
 21
91.9620286925
  0
LINE
  5
1FD
100
AcDbEntity
  8
ZVEZDA
  6
CONTINUOUS
 62
    7
370
   -1
100
AcDbLine
 10
3.7403256511
 20
104.6013770138
 11
-17.7728242615
 21
115.9262233187
  0
LINE
  5
1FE
100
AcDbEntity
  8
ZVEZDA
  6
CONTINUOUS
 62
    7
370
   -1
100
AcDbLine
 10
25.2655966681
 20
115.9031676081
 11
3.7403256511
 21
104.6013770138
  0
LINE
  5
1FF
100
AcDbEntity
  8
ZVEZDA
  6
CONTINUOUS
 62
    7
370
   -1
100
AcDbLine
 10
21.1428392407
 20
91.9426934736
 11
25.2655966681
 21
115.9031676081
  0
LINE
  5
200
100
AcDbEntity
  8
ZVEZDA
  6
CONTINUOUS
 62
    7
370
   -1
100
AcDbLine
 10
38.5486264107
 20
74.9826197042
 11
21.1428392407
 21
91.9426934736
  0
LINE
  5
201
100
AcDbEntity
  8
ZVEZDA
  6
CONTINUOUS
 62
    7
370
   -1
100
AcDbLine
 10
14.4908112694
 20
71.486814538
 11
38.5486264107
 21
74.9826197042
  0
LINE
  5
202
100
AcDbEntity
  8
ZVEZDA
  6
CONTINUOUS
 62
    7
370
   -1
100
AcDbLine
 10
3.7112245117
 20
49.6847316932
 11
14.4908112694
 21
71.486814538
  0
LINE
  5
203
100
AcDbEntity
  8
ZVEZDA
  6
CONTINUOUS
 62
    7
370
   -1
100
AcDbLine
 10
-7.0370191266
 20
71.4924810512
 11
3.7112245117
 21
49.6847316932
  0
LINE
  5
204
100
AcDbEntity
  8
ZVEZDA
  6
CONTINUOUS
 62
    7
370
   -1
100
AcDbLine
 10
-31.0943550237
 20
75.0013772489
 11
-7.0370191266
 21
71.4924810512
  0
ENDBLK
  5
77
330
75
100
AcDbEntity
  8
0
100
AcDbBlockEnd
  0
BLOCK
  5
79
330
78
100
AcDbEntity
  8
0
100
AcDbBlockBegin
  2
SE5
 70
    0
 10
0
 20
0
  3
SE5
  1

  0
LINE
  5
205
100
AcDbEntity
  8
OSNOVA
  6
CONTINUOUS
 62
    7
370
   -1
100
AcDbLine
 10
194.7105541709
 20
202.9658314774
 11
229.7105541709
 21
202.9658314774
  0
LINE
  5
206
100
AcDbEntity
  8
OSNOVA
  6
CONTINUOUS
 62
    7
370
   -1
100
AcDbLine
 10
424.7105541709
 20
202.9658314774
 11
424.7105541709
 21
167.9658314774
  0
LINE
  5
207
100
AcDbEntity
  8
OSNOVA
  6
CONTINUOUS
 62
    7
370
   -1
100
AcDbLine
 10
424.7105541709
 20
-27.0341685226
 11
389.7105541709
 21
-27.0341685226
  0
LINE
  5
208
100
AcDbEntity
  8
OSNOVA
  6
CONTINUOUS
 62
    7
370
   -1
100
AcDbLine
 10
194.7105541709
 20
-27.0341685226
 11
194.7105541709
 21
7.9658314774
  0
LINE
  5
209
100
AcDbEntity
  8
OSNOVA
  6
CONTINUOUS
 62
    7
370
   -1
100
AcDbLine
 10
194.7105541709
 20
39.9658314774
 11
194.7105541709
 21
71.9658314774
  0
LINE
  5
20A
100
AcDbEntity
  8
OSNOVA
  6
CONTINUOUS
 62
    7
370
   -1
100
AcDbLine
 10
194.7105541709
 20
103.9658314774
 11
194.7105541709
 21
135.9658314774
  0
LINE
  5
20B
100
AcDbEntity
  8
OSNOVA
  6
CONTINUOUS
 62
    7
370
   -1
100
AcDbLine
 10
194.7105541709
 20
167.9658314774
 11
194.7105541709
 21
202.9658314774
  0
LINE
  5
20C
100
AcDbEntity
  8
OSNOVA
  6
CONTINUOUS
 62
    7
370
   -1
100
AcDbLine
 10
194.7105541709
 20
167.9658314774
 11
202.7105541709
 21
167.9658314774
  0
LINE
  5
20D
100
AcDbEntity
  8
OSNOVA
  6
CONTINUOUS
 62
    7
370
   -1
100
AcDbLine
 10
202.7105541709
 20
167.9658314774
 11
202.7105541709
 21
135.9658314774
  0
LINE
  5
20E
100
AcDbEntity
  8
OSNOVA
  6
CONTINUOUS
 62
    7
370
   -1
100
AcDbLine
 10
202.7105541709
 20
135.9658314774
 11
194.7105541709
 21
135.9658314774
  0
LINE
  5
20F
100
AcDbEntity
  8
OSNOVA
  6
CONTINUOUS
 62
    7
370
   -1
100
AcDbLine
 10
194.7105541709
 20
103.9658314774
 11
202.7105541709
 21
103.9658314774
  0
LINE
  5
210
100
AcDbEntity
  8
OSNOVA
  6
CONTINUOUS
 62
    7
370
   -1
100
AcDbLine
 10
202.7105541709
 20
103.9658314774
 11
202.7105541709
 21
71.9658314774
  0
LINE
  5
211
100
AcDbEntity
  8
OSNOVA
  6
CONTINUOUS
 62
    7
370
   -1
100
AcDbLine
 10
202.7105541709
 20
71.9658314774
 11
194.7105541709
 21
71.9658314774
  0
LINE
  5
212
100
AcDbEntity
  8
OSNOVA
  6
CONTINUOUS
 62
    7
370
   -1
100
AcDbLine
 10
194.7105541709
 20
39.9658314774
 11
202.7105541709
 21
39.9658314774
  0
LINE
  5
213
100
AcDbEntity
  8
OSNOVA
  6
CONTINUOUS
 62
    7
370
   -1
100
AcDbLine
 10
202.7105541709
 20
39.9658314774
 11
202.7105541709
 21
7.9658314774
  0
LINE
  5
214
100
AcDbEntity
  8
OSNOVA
  6
CONTINUOUS
 62
    7
370
   -1
100
AcDbLine
 10
202.7105541709
 20
7.9658314774
 11
194.7105541709
 21
7.9658314774
  0
LINE
  5
215
100
AcDbEntity
  8
OSNOVA
  6
CONTINUOUS
 62
    7
370
   -1
100
AcDbLine
 10
261.7105541709
 20
202.9658314774
 11
293.7105541709
 21
202.9658314774
  0
LINE
  5
216
100
AcDbEntity
  8
OSNOVA
  6
CONTINUOUS
 62
    7
370
   -1
100
AcDbLine
 10
325.7105541709
 20
202.9658314774
 11
357.7105541709
 21
202.9658314774
  0
LINE
  5
217
100
AcDbEntity
  8
OSNOVA
  6
CONTINUOUS
 62
    7
370
   -1
100
AcDbLine
 10
389.7105541709
 20
202.9658314774
 11
424.7105541709
 21
202.9658314774
  0
LINE
  5
218
100
AcDbEntity
  8
OSNOVA
  6
CONTINUOUS
 62
    7
370
   -1
100
AcDbLine
 10
389.7105541709
 20
194.9658314774
 11
389.7105541709
 21
202.9658314774
  0
LINE
  5
219
100
AcDbEntity
  8
OSNOVA
  6
CONTINUOUS
 62
    7
370
   -1
100
AcDbLine
 10
357.7105541709
 20
194.9658314774
 11
389.7105541709
 21
194.9658314774
  0
LINE
  5
21A
100
AcDbEntity
  8
OSNOVA
  6
CONTINUOUS
 62
    7
370
   -1
100
AcDbLine
 10
357.7105541709
 20
202.9658314774
 11
357.7105541709
 21
194.9658314774
  0
LINE
  5
21B
100
AcDbEntity
  8
OSNOVA
  6
CONTINUOUS
 62
    7
370
   -1
100
AcDbLine
 10
325.7105541709
 20
194.9658314774
 11
325.7105541709
 21
202.9658314774
  0
LINE
  5
21C
100
AcDbEntity
  8
OSNOVA
  6
CONTINUOUS
 62
    7
370
   -1
100
AcDbLine
 10
293.7105541709
 20
194.9658314774
 11
325.7105541709
 21
194.9658314774
  0
LINE
  5
21D
100
AcDbEntity
  8
OSNOVA
  6
CONTINUOUS
 62
    7
370
   -1
100
AcDbLine
 10
293.7105541709
 20
202.9658314774
 11
293.7105541709
 21
194.9658314774
  0
LINE
  5
21E
100
AcDbEntity
  8
OSNOVA
  6
CONTINUOUS
 62
    7
370
   -1
100
AcDbLine
 10
261.7105541709
 20
194.9658314774
 11
261.7105541709
 21
202.9658314774
  0
LINE
  5
21F
100
AcDbEntity
  8
OSNOVA
  6
CONTINUOUS
 62
    7
370
   -1
100
AcDbLine
 10
229.7105541709
 20
194.9658314774
 11
261.7105541709
 21
194.9658314774
  0
LINE
  5
220
100
AcDbEntity
  8
OSNOVA
  6
CONTINUOUS
 62
    7
370
   -1
100
AcDbLine
 10
229.7105541709
 20
202.9658314774
 11
229.7105541709
 21
194.9658314774
  0
LINE
  5
221
100
AcDbEntity
  8
OSNOVA
  6
CONTINUOUS
 62
    7
370
   -1
100
AcDbLine
 10
357.7105541709
 20
-27.0341685226
 11
325.7105541709
 21
-27.0341685226
  0
LINE
  5
222
100
AcDbEntity
  8
OSNOVA
  6
CONTINUOUS
 62
    7
370
   -1
100
AcDbLine
 10
293.7105541709
 20
-27.0341685226
 11
261.7105541709
 21
-27.0341685226
  0
LINE
  5
223
100
AcDbEntity
  8
OSNOVA
  6
CONTINUOUS
 62
    7
370
   -1
100
AcDbLine
 10
229.7105541709
 20
-27.0341685226
 11
194.7105541709
 21
-27.0341685226
  0
LINE
  5
224
100
AcDbEntity
  8
OSNOVA
  6
CONTINUOUS
 62
    7
370
   -1
100
AcDbLine
 10
261.7105541709
 20
-19.0341685226
 11
229.7105541709
 21
-19.0341685226
  0
LINE
  5
225
100
AcDbEntity
  8
OSNOVA
  6
CONTINUOUS
 62
    7
370
   -1
100
AcDbLine
 10
325.7105541709
 20
-19.0341685226
 11
293.7105541709
 21
-19.0341685226
  0
LINE
  5
226
100
AcDbEntity
  8
OSNOVA
  6
CONTINUOUS
 62
    7
370
   -1
100
AcDbLine
 10
389.7105541709
 20
-19.0341685226
 11
357.7105541709
 21
-19.0341685226
  0
LINE
  5
227
100
AcDbEntity
  8
OSNOVA
  6
CONTINUOUS
 62
    7
370
   -1
100
AcDbLine
 10
229.7105541709
 20
-19.0341685226
 11
229.7105541709
 21
-27.0341685226
  0
LINE
  5
228
100
AcDbEntity
  8
OSNOVA
  6
CONTINUOUS
 62
    7
370
   -1
100
AcDbLine
 10
261.7105541709
 20
-27.0341685226
 11
261.7105541709
 21
-19.0341685226
  0
LINE
  5
229
100
AcDbEntity
  8
OSNOVA
  6
CONTINUOUS
 62
    7
370
   -1
100
AcDbLine
 10
293.7105541709
 20
-19.0341685226
 11
293.7105541709
 21
-27.0341685226
  0
LINE
  5
22A
100
AcDbEntity
  8
OSNOVA
  6
CONTINUOUS
 62
    7
370
   -1
100
AcDbLine
 10
325.7105541709
 20
-27.0341685226
 11
325.7105541709
 21
-19.0341685226
  0
LINE
  5
22B
100
AcDbEntity
  8
OSNOVA
  6
CONTINUOUS
 62
    7
370
   -1
100
AcDbLine
 10
357.7105541709
 20
-19.0341685226
 11
357.7105541709
 21
-27.0341685226
  0
LINE
  5
22C
100
AcDbEntity
  8
OSNOVA
  6
CONTINUOUS
 62
    7
370
   -1
100
AcDbLine
 10
389.7105541709
 20
-27.0341685226
 11
389.7105541709
 21
-19.0341685226
  0
LINE
  5
22D
100
AcDbEntity
  8
OSNOVA
  6
CONTINUOUS
 62
    7
370
   -1
100
AcDbLine
 10
424.7105541709
 20
135.9658314774
 11
424.7105541709
 21
103.9658314774
  0
LINE
  5
22E
100
AcDbEntity
  8
OSNOVA
  6
CONTINUOUS
 62
    7
370
   -1
100
AcDbLine
 10
424.7105541709
 20
71.9658314774
 11
424.7105541709
 21
39.9658314774
  0
LINE
  5
22F
100
AcDbEntity
  8
OSNOVA
  6
CONTINUOUS
 62
    7
370
   -1
100
AcDbLine
 10
424.7105541709
 20
7.9658314774
 11
424.7105541709
 21
-27.0341685226
  0
LINE
  5
230
100
AcDbEntity
  8
OSNOVA
  6
CONTINUOUS
 62
    7
370
   -1
100
AcDbLine
 10
424.7105541709
 20
7.9658314774
 11
416.7105541709
 21
7.9658314774
  0
LINE
  5
231
100
AcDbEntity
  8
OSNOVA
  6
CONTINUOUS
 62
    7
370
   -1
100
AcDbLine
 10
416.7105541709
 20
7.9658314774
 11
416.7105541709
 21
39.9658314774
  0
LINE
  5
232
100
AcDbEntity
  8
OSNOVA
  6
CONTINUOUS
 62
    7
370
   -1
100
AcDbLine
 10
416.7105541709
 20
39.9658314774
 11
424.7105541709
 21
39.9658314774
  0
LINE
  5
233
100
AcDbEntity
  8
OSNOVA
  6
CONTINUOUS
 62
    7
370
   -1
100
AcDbLine
 10
424.7105541709
 20
71.9658314774
 11
416.7105541709
 21
71.9658314774
  0
LINE
  5
234
100
AcDbEntity
  8
OSNOVA
  6
CONTINUOUS
 62
    7
370
   -1
100
AcDbLine
 10
416.7105541709
 20
71.9658314774
 11
416.7105541709
 21
103.9658314774
  0
LINE
  5
235
100
AcDbEntity
  8
OSNOVA
  6
CONTINUOUS
 62
    7
370
   -1
100
AcDbLine
 10
416.7105541709
 20
103.9658314774
 11
424.7105541709
 21
103.9658314774
  0
LINE
  5
236
100
AcDbEntity
  8
OSNOVA
  6
CONTINUOUS
 62
    7
370
   -1
100
AcDbLine
 10
424.7105541709
 20
135.9658314774
 11
416.7105541709
 21
135.9658314774
  0
LINE
  5
237
100
AcDbEntity
  8
OSNOVA
  6
CONTINUOUS
 62
    7
370
   -1
100
AcDbLine
 10
416.7105541709
 20
135.9658314774
 11
416.7105541709
 21
167.9658314774
  0
LINE
  5
238
100
AcDbEntity
  8
OSNOVA
  6
CONTINUOUS
 62
    7
370
   -1
100
AcDbLine
 10
416.7105541709
 20
167.9658314774
 11
424.7105541709
 21
167.9658314774
  0
ENDBLK
  5
7A
330
78
100
AcDbEntity
  8
0
100
AcDbBlockEnd
  0
ENDSEC
  0
SECTION
  2
ENTITIES
  0
INSERT
  5
239
100
AcDbEntity
  8
DEFAULT
  6
ByLayer
 62
  256
370
   -1
100
AcDbBlockReference
  2
SE
 10
0
 20
0
 30
0
 41
1
 42
1
 43
0
 50
0
 70
    1
 71
    1
 44
0
 45
0
  0
INSERT
  5
23A
100
AcDbEntity
  8
DEFAULT
  6
ByLayer
 62
  256
370
   -1
100
AcDbBlockReference
  2
SE1
 10
0
 20
0
 30
0
 41
1
 42
1
 43
0
 50
0
 70
    1
 71
    1
 44
0
 45
0
  0
INSERT
  5
23B
100
AcDbEntity
  8
DEFAULT
  6
ByLayer
 62
  256
370
   -1
100
AcDbBlockReference
  2
SE2
 10
0
 20
0
 30
0
 41
1
 42
1
 43
0
 50
0
 70
    1
 71
    1
 44
0
 45
0
  0
INSERT
  5
23C
100
AcDbEntity
  8
DEFAULT
  6
ByLayer
 62
  256
370
   -1
100
AcDbBlockReference
  2
SE3
 10
0
 20
0
 30
0
 41
1
 42
1
 43
0
 50
0
 70
    1
 71
    1
 44
0
 45
0
  0
INSERT
  5
23D
100
AcDbEntity
  8
DEFAULT
  6
ByLayer
 62
  256
370
   -1
100
AcDbBlockReference
  2
SE4
 10
0
 20
0
 30
0
 41
1
 42
1
 43
0
 50
0
 70
    1
 71
    1
 44
0
 45
0
  0
INSERT
  5
23E
100
AcDbEntity
  8
DEFAULT
  6
ByLayer
 62
  256
370
   -1
100
AcDbBlockReference
  2
SE5
 10
0
 20
0
 30
0
 41
1
 42
1
 43
0
 50
0
 70
    1
 71
    1
 44
0
 45
0
  0
MTEXT
  5
23F
100
AcDbEntity
  8
0
  6
ByLayer
 62
  256
370
   -1
100
AcDbMText
 10
72.98047675309849
 20
515.7287023885626
 30
0
 40
20
 41
512.3810666666666
 71
    1
 72
    1
  1
WWW.CRAFTSMANSPACE.COM\PShape sorting cube toy plan
  7
romanc
210
0
220
0
230
1
 50
0
 73
    2
 44
1
  0
ENDSEC
  0
SECTION
  2
OBJECTS
  0
DICTIONARY
  5
C
330
0
100
AcDbDictionary
281
    1
  3
ACAD_GROUP
350
D
  0
DICTIONARY
  5
D
330
C
100
AcDbDictionary
281
    1
  0
ENDSEC
  0
EOF
