  0
SECTION
  2
HEADER
  9
$ACADVER
  1
AC1009
  9
$DWGCODEPAGE
  3
ansi_1252
  9
$INSBASE
 10
0.0
 20
0.0
 30
0.0
  9
$EXTMIN
 10
-126.4319605258667
 20
-50.82327291170032
 30
0.0
  9
$EXTMAX
 10
193.5680394741332
 20
63.31632229965336
 30
0.0
  9
$LIMMIN
 10
0.0
 20
0.0
  9
$LIMMAX
 10
12.0
 20
9.0
  9
$ORTHOMODE
 70
     0
  9
$REGENMODE
 70
     1
  9
$FILLMODE
 70
     1
  9
$QTEXTMODE
 70
     0
  9
$MIRRTEXT
 70
     1
  9
$DRAGMODE
 70
     2
  9
$LTSCALE
 40
1.0
  9
$OSMODE
 70
    37
  9
$ATTMODE
 70
     1
  9
$TEXTSIZE
 40
0.2
  9
$TRACEWID
 40
0.05
  9
$TEXTSTYLE
  7
STANDARD
  9
$CLAYER
  8
DEFAULT
  9
$CELTYPE
  6
BYLAYER
  9
$CECOLOR
 62
   256
  9
$DIMSCALE
 40
1.0
  9
$DIMASZ
 40
0.18
  9
$DIMEXO
 40
0.0625
  9
$DIMDLI
 40
0.38
  9
$DIMRND
 40
0.0
  9
$DIMDLE
 40
0.0
  9
$DIMEXE
 40
0.18
  9
$DIMTP
 40
0.0
  9
$DIMTM
 40
0.0
  9
$DIMTXT
 40
0.18
  9
$DIMCEN
 40
0.09
  9
$DIMTSZ
 40
0.0
  9
$DIMTOL
 70
     0
  9
$DIMLIM
 70
     0
  9
$DIMTIH
 70
     1
  9
$DIMTOH
 70
     1
  9
$DIMSE1
 70
     0
  9
$DIMSE2
 70
     0
  9
$DIMTAD
 70
     0
  9
$DIMZIN
 70
     0
  9
$DIMBLK
  1

  9
$DIMASO
 70
     1
  9
$DIMSHO
 70
     1
  9
$DIMPOST
  1

  9
$DIMAPOST
  1

  9
$DIMALT
 70
     0
  9
$DIMALTD
 70
     2
  9
$DIMALTF
 40
25.4
  9
$DIMLFAC
 40
1.0
  9
$DIMTOFL
 70
     0
  9
$DIMTVP
 40
0.0
  9
$DIMTIX
 70
     0
  9
$DIMSOXD
 70
     0
  9
$DIMSAH
 70
     0
  9
$DIMBLK1
  1

  9
$DIMBLK2
  1

  9
$DIMSTYLE
  2
STANDARD
  9
$DIMCLRD
 70
     0
  9
$DIMCLRE
 70
     0
  9
$DIMCLRT
 70
     0
  9
$DIMTFAC
 40
1.0
  9
$DIMGAP
 40
0.09
  9
$LUNITS
 70
     2
  9
$LUPREC
 70
     4
  9
$SKETCHINC
 40
0.1
  9
$FILLETRAD
 40
0.5
  9
$AUNITS
 70
     0
  9
$AUPREC
 70
     0
  9
$MENU
  1
.
  9
$ELEVATION
 40
0.0
  9
$PELEVATION
 40
0.0
  9
$THICKNESS
 40
0.0
  9
$LIMCHECK
 70
     0
  9
$CHAMFERA
 40
0.0
  9
$CHAMFERB
 40
0.0
  9
$SKPOLY
 70
     0
  9
$TDCREATE
 40
2458782.762995694
  9
$TDUPDATE
 40
2458782.76301706
  9
$TDINDWG
 40
0.0000000116
  9
$TDUSRTIMER
 40
0.0000000116
  9
$USRTIMER
 70
     1
  9
$ANGBASE
 50
0.0
  9
$ANGDIR
 70
     0
  9
$PDMODE
 70
     0
  9
$PDSIZE
 40
0.0
  9
$PLINEWID
 40
0.0
  9
$COORDS
 70
     1
  9
$SPLFRAME
 70
     0
  9
$SPLINETYPE
 70
     6
  9
$SPLINESEGS
 70
     8
  9
$ATTDIA
 70
     0
  9
$ATTREQ
 70
     1
  9
$HANDLING
 70
     1
  9
$HANDSEED
  5
473
  9
$SURFTAB1
 70
     6
  9
$SURFTAB2
 70
     6
  9
$SURFTYPE
 70
     6
  9
$SURFU
 70
     6
  9
$SURFV
 70
     6
  9
$UCSNAME
  2

  9
$UCSORG
 10
0.0
 20
0.0
 30
0.0
  9
$UCSXDIR
 10
1.0
 20
0.0
 30
0.0
  9
$UCSYDIR
 10
0.0
 20
1.0
 30
0.0
  9
$PUCSNAME
  2

  9
$PUCSORG
 10
0.0
 20
0.0
 30
0.0
  9
$PUCSXDIR
 10
1.0
 20
0.0
 30
0.0
  9
$PUCSYDIR
 10
0.0
 20
1.0
 30
0.0
  9
$USERI1
 70
     0
  9
$USERI2
 70
     0
  9
$USERI3
 70
     0
  9
$USERI4
 70
     0
  9
$USERI5
 70
     0
  9
$USERR1
 40
0.0
  9
$USERR2
 40
0.0
  9
$USERR3
 40
0.0
  9
$USERR4
 40
0.0
  9
$USERR5
 40
0.0
  9
$WORLDVIEW
 70
     1
  9
$SHADEDGE
 70
     3
  9
$SHADEDIF
 70
    70
  9
$TILEMODE
 70
     1
  9
$MAXACTVP
 70
    64
  9
$PLIMCHECK
 70
     0
  9
$PEXTMIN
 10
1.000000000000000E+20
 20
1.000000000000000E+20
 30
1.000000000000000E+20
  9
$PEXTMAX
 10
-1.000000000000000E+20
 20
-1.000000000000000E+20
 30
-1.000000000000000E+20
  9
$PLIMMIN
 10
0.0
 20
0.0
  9
$PLIMMAX
 10
12.0
 20
9.0
  9
$UNITMODE
 70
     0
  9
$VISRETAIN
 70
     1
  9
$PLINEGEN
 70
     0
  9
$PSLTSCALE
 70
     1
  0
ENDSEC
  0
SECTION
  2
TABLES
  0
TABLE
  2
VPORT
 70
     1
  0
VPORT
  2
*ACTIVE
 70
     0
 10
0.0
 20
0.0
 11
1.0
 21
1.0
 12
33.56803947413329
 22
6.246524693976518
 13
0.0
 23
0.0
 14
0.5
 24
0.5
 15
0.5
 25
0.5
 16
0.0
 26
0.0
 36
1.0
 17
0.0
 27
0.0
 37
0.0
 40
116.4223871155808
 41
2.803584500255603
 42
50.0
 43
0.0
 44
0.0
 50
0.0
 51
0.0
 71
     0
 72
   100
 73
     1
 74
     3
 75
     0
 76
     0
 77
     0
 78
     0
  0
ENDTAB
  0
TABLE
  2
LTYPE
 70
     1
  0
LTYPE
  2
CONTINUOUS
 70
     0
  3
Solid line
 72
    65
 73
     0
 40
0.0
  0
ENDTAB
  0
TABLE
  2
LAYER
 70
     3
  0
LAYER
  2
0
 70
     0
 62
     7
  6
CONTINUOUS
  0
LAYER
  2
PART1
 70
     0
 62
     7
  6
CONTINUOUS
  0
LAYER
  2
DEFAULT
 70
     0
 62
     7
  6
CONTINUOUS
  0
ENDTAB
  0
TABLE
  2
STYLE
 70
     1
  0
STYLE
  2
STANDARD
 70
     0
 40
0.0
 41
1.0
 50
0.0
 71
     0
 42
0.2
  3
txt
  4

  0
ENDTAB
  0
TABLE
  2
VIEW
 70
     0
  0
ENDTAB
  0
TABLE
  2
UCS
 70
     0
  0
ENDTAB
  0
TABLE
  2
APPID
 70
     1
  0
APPID
  2
ACAD
 70
     0
  0
ENDTAB
  0
TABLE
  2
DIMSTYLE
 70
     1
  0
DIMSTYLE
  2
STANDARD
 70
     0
  3

  4

  5

  6

  7

 40
1.0
 41
0.18
 42
0.0625
 43
0.38
 44
0.18
 45
0.0
 46
0.0
 47
0.0
 48
0.0
140
0.18
141
0.09
142
0.0
143
25.4
144
1.0
145
0.0
146
1.0
147
0.09
 71
     0
 72
     0
 73
     1
 74
     1
 75
     0
 76
     0
 77
     0
 78
     0
170
     0
171
     2
172
     0
173
     0
174
     0
175
     0
176
     0
177
     0
178
     0
  0
ENDTAB
  0
ENDSEC
  0
SECTION
  2
BLOCKS
  0
BLOCK
  8
0
  2
$MODEL_SPACE
 70
     0
 10
0.0
 20
0.0
 30
0.0
  3
$MODEL_SPACE
  1

  0
ENDBLK
  5
21
  8
0
  0
BLOCK
 67
     1
  8
0
  2
$PAPER_SPACE
 70
     0
 10
0.0
 20
0.0
 30
0.0
  3
$PAPER_SPACE
  1

  0
ENDBLK
  5
1D
 67
     1
  8
0
  0
BLOCK
  8
0
  2
SE
 70
     0
 10
0.0
 20
0.0
 30
0.0
  3
SE
  1

  0
CIRCLE
  5
45F
  8
PART1
  6
CONTINUOUS
 62
     7
 10
432.4875580133
 20
211.0714578836
 30
0.0
 40
4.499999999999997
  0
ARC
  5
460
  8
PART1
  6
CONTINUOUS
 62
     7
 10
410.5151740409
 20
239.5883711558
 30
0.0
 40
16.0
 50
265.1910422199001
 51
307.6143805067001
  0
ARC
  5
461
  8
PART1
  6
CONTINUOUS
 62
     7
 10
432.4875580133
 20
211.0714578836
 30
0.0
 40
20.0
 50
232.3856194933
 51
127.6143805067
  0
LINE
  5
462
  8
PART1
  6
CONTINUOUS
 62
     7
 10
166.5936526343
 20
244.0529156242
 30
0.0
 11
409.1738358529
 21
223.6446949214
 31
0.0
  0
ARC
  5
463
  8
PART1
  6
CONTINUOUS
 62
     7
 10
410.5151740409
 20
182.5545446115
 30
0.0
 40
16.0
 50
52.38561949329993
 51
94.80895778009977
  0
ARC
  5
464
  8
PART1
  6
CONTINUOUS
 62
     7
 10
165.4875580133
 20
211.0714578836
 30
0.0
 40
32.99999999999991
 50
88.07919921310001
 51
271.9208007869
  0
LINE
  5
465
  8
PART1
  6
CONTINUOUS
 62
     7
 10
409.1738358529
 20
198.4982208459
 30
0.0
 11
166.5936526343
 21
178.0900001431
 31
0.0
  0
CIRCLE
  5
466
  8
PART1
  6
CONTINUOUS
 62
     7
 10
341.4875580133
 20
211.0714578836
 30
0.0
 40
11.50000000000001
  0
CIRCLE
  5
467
  8
PART1
  6
CONTINUOUS
 62
     7
 10
290.4875580133
 20
211.0714578836
 30
0.0
 40
14.50000000000001
  0
CIRCLE
  5
468
  8
PART1
  6
CONTINUOUS
 62
     7
 10
231.4875580133
 20
211.0714578836
 30
0.0
 40
19.25000000000002
  0
CIRCLE
  5
469
  8
PART1
  6
CONTINUOUS
 62
     7
 10
165.4875580133
 20
211.0714578836
 30
0.0
 40
22.50000000000002
  0
ENDBLK
  5
46B
  8
0
  0
ENDSEC
  0
SECTION
  2
ENTITIES
  0
CIRCLE
  5
6F
  8
PART1
  6
CONTINUOUS
 62
     5
 10
173.5680394741332
 20
30.31632229965345
 30
0.0
 40
4.499999999999997
  0
ARC
  5
70
  8
PART1
  6
CONTINUOUS
 62
     5
 10
151.5956555017332
 20
58.83323557185344
 30
0.0
 40
16.0
 50
265.1910422199001
 51
307.6143805067
  0
ARC
  5
71
  8
PART1
  6
CONTINUOUS
 62
     5
 10
173.5680394741332
 20
30.31632229965345
 30
0.0
 40
20.0
 50
232.3856194933
 51
127.6143805066999
  0
LINE
  5
72
  8
PART1
  6
CONTINUOUS
 62
     5
 10
-92.32586590486673
 20
63.29778004025346
 30
0.0
 11
150.2543173137333
 21
42.88955933745345
 31
0.0
  0
ARC
  5
73
  8
PART1
  6
CONTINUOUS
 62
     5
 10
151.5956555017332
 20
1.799409027553452
 30
0.0
 40
16.0
 50
52.38561949329988
 51
94.80895778009997
  0
ARC
  5
74
  8
PART1
  6
CONTINUOUS
 62
     5
 10
-93.43196052586674
 20
30.31632229965345
 30
0.0
 40
32.99999999999991
 50
88.07919921310001
 51
271.9208007868999
  0
LINE
  5
75
  8
PART1
  6
CONTINUOUS
 62
     5
 10
150.2543173137333
 20
17.74308526195344
 30
0.0
 11
-92.32586590486673
 21
-2.665135440846541
 31
0.0
  0
CIRCLE
  5
76
  8
PART1
  6
CONTINUOUS
 62
     5
 10
82.56803947413323
 20
30.31632229965345
 30
0.0
 40
11.50000000000001
  0
CIRCLE
  5
77
  8
PART1
  6
CONTINUOUS
 62
     5
 10
31.56803947413323
 20
30.31632229965345
 30
0.0
 40
14.50000000000001
  0
CIRCLE
  5
78
  8
PART1
  6
CONTINUOUS
 62
     5
 10
-27.43196052586674
 20
30.31632229965345
 30
0.0
 40
19.25000000000002
  0
CIRCLE
  5
79
  8
PART1
  6
CONTINUOUS
 62
     5
 10
-93.43196052586674
 20
30.31632229965345
 30
0.0
 40
22.50000000000002
  0
POLYLINE
  5
7B
  8
DEFAULT
 62
     5
 66
     1
 10
0.0
 20
0.0
 30
0.0
 70
     1
  0
VERTEX
  5
7C
  8
DEFAULT
 62
     5
 10
-75.05933531177365
 20
-28.3909721738415
 30
0.0
  0
VERTEX
  5
7D
  8
DEFAULT
 62
     5
 10
-77.28348657577641
 20
-18.45270056890323
 30
0.0
  0
VERTEX
  5
7E
  8
DEFAULT
 62
     5
 10
-75.19340088977506
 20
-18.45270056890323
 30
0.0
  0
VERTEX
  5
7F
  8
DEFAULT
 62
     5
 10
-73.79583178383129
 20
-25.27947487760832
 30
0.0
  0
VERTEX
  5
80
  8
DEFAULT
 62
     5
 10
-71.91407978438136
 20
-18.45270056890323
 30
0.0
  0
VERTEX
  5
81
  8
DEFAULT
 62
     5
 10
-69.47098604594925
 20
-18.45270056890323
 30
0.0
  0
VERTEX
  5
82
  8
DEFAULT
 62
     5
 10
-67.7464490677819
 20
-25.39425097971943
 30
0.0
  0
VERTEX
  5
83
  8
DEFAULT
 62
     5
 10
-66.35080900361865
 20
-18.45270056890323
 30
0.0
  0
VERTEX
  5
84
  8
DEFAULT
 62
     5
 10
-64.25879521775173
 20
-18.45270056890323
 30
0.0
  0
VERTEX
  5
85
  8
DEFAULT
 62
     5
 10
-66.44533016703431
 20
-28.3909721738415
 30
0.0
  0
VERTEX
  5
86
  8
DEFAULT
 62
     5
 10
-68.86238278334432
 20
-28.3909721738415
 30
0.0
  0
VERTEX
  5
87
  8
DEFAULT
 62
     5
 10
-70.7711404258066
 20
-20.96138078595811
 30
0.0
  0
VERTEX
  5
88
  8
DEFAULT
 62
     5
 10
-72.81975171352676
 20
-28.3909721738415
 30
0.0
  0
SEQEND
  5
89
  8
DEFAULT
 62
     5
  0
POLYLINE
  5
8A
  8
DEFAULT
 62
     5
 66
     1
 10
0.0
 20
0.0
 30
0.0
 70
     1
  0
VERTEX
  5
8B
  8
DEFAULT
 62
     5
 10
-62.03464395374897
 20
-28.3909721738415
 30
0.0
  0
VERTEX
  5
8C
  8
DEFAULT
 62
     5
 10
-64.25879521775173
 20
-18.45270056890323
 30
0.0
  0
VERTEX
  5
8D
  8
DEFAULT
 62
     5
 10
-62.16870953175035
 20
-18.45270056890323
 30
0.0
  0
VERTEX
  5
8E
  8
DEFAULT
 62
     5
 10
-60.77114042580661
 20
-25.27947487760832
 30
0.0
  0
VERTEX
  5
8F
  8
DEFAULT
 62
     5
 10
-58.88938842635667
 20
-18.45270056890323
 30
0.0
  0
VERTEX
  5
90
  8
DEFAULT
 62
     5
 10
-56.44629468792456
 20
-18.45270056890323
 30
0.0
  0
VERTEX
  5
91
  8
DEFAULT
 62
     5
 10
-54.72175770975721
 20
-25.39425097971943
 30
0.0
  0
VERTEX
  5
92
  8
DEFAULT
 62
     5
 10
-53.32611764559397
 20
-18.45270056890323
 30
0.0
  0
VERTEX
  5
93
  8
DEFAULT
 62
     5
 10
-51.23410385972701
 20
-18.45270056890323
 30
0.0
  0
VERTEX
  5
94
  8
DEFAULT
 62
     5
 10
-53.42063880900963
 20
-28.3909721738415
 30
0.0
  0
VERTEX
  5
95
  8
DEFAULT
 62
     5
 10
-55.83769142531963
 20
-28.3909721738415
 30
0.0
  0
VERTEX
  5
96
  8
DEFAULT
 62
     5
 10
-57.7464490677819
 20
-20.96138078595811
 30
0.0
  0
VERTEX
  5
97
  8
DEFAULT
 62
     5
 10
-59.79506035550207
 20
-28.3909721738415
 30
0.0
  0
SEQEND
  5
98
  8
DEFAULT
 62
     5
  0
POLYLINE
  5
99
  8
DEFAULT
 62
     5
 66
     1
 10
0.0
 20
0.0
 30
0.0
 70
     1
  0
VERTEX
  5
9A
  8
DEFAULT
 62
     5
 10
-49.00995259572429
 20
-28.3909721738415
 30
0.0
  0
VERTEX
  5
9B
  8
DEFAULT
 62
     5
 10
-51.23410385972701
 20
-18.45270056890323
 30
0.0
  0
VERTEX
  5
9C
  8
DEFAULT
 62
     5
 10
-49.14401817372567
 20
-18.45270056890323
 30
0.0
  0
VERTEX
  5
9D
  8
DEFAULT
 62
     5
 10
-47.7464490677819
 20
-25.27947487760832
 30
0.0
  0
VERTEX
  5
9E
  8
DEFAULT
 62
     5
 10
-45.86469706833199
 20
-18.45270056890323
 30
0.0
  0
VERTEX
  5
9F
  8
DEFAULT
 62
     5
 10
-43.42160332989988
 20
-18.45270056890323
 30
0.0
  0
VERTEX
  5
A0
  8
DEFAULT
 62
     5
 10
-41.69706635173253
 20
-25.39425097971943
 30
0.0
  0
VERTEX
  5
A1
  8
DEFAULT
 62
     5
 10
-40.30142628756929
 20
-18.45270056890323
 30
0.0
  0
VERTEX
  5
A2
  8
DEFAULT
 62
     5
 10
-38.20941250170233
 20
-18.45270056890323
 30
0.0
  0
VERTEX
  5
A3
  8
DEFAULT
 62
     5
 10
-40.39594745098492
 20
-28.3909721738415
 30
0.0
  0
VERTEX
  5
A4
  8
DEFAULT
 62
     5
 10
-42.81300006729492
 20
-28.3909721738415
 30
0.0
  0
VERTEX
  5
A5
  8
DEFAULT
 62
     5
 10
-44.72175770975721
 20
-20.96138078595811
 30
0.0
  0
VERTEX
  5
A6
  8
DEFAULT
 62
     5
 10
-46.77036899747736
 20
-28.3909721738415
 30
0.0
  0
SEQEND
  5
A7
  8
DEFAULT
 62
     5
  0
POLYLINE
  5
A8
  8
DEFAULT
 62
     5
 66
     1
 10
0.0
 20
0.0
 30
0.0
 70
     1
  0
VERTEX
  5
A9
  8
DEFAULT
 62
     5
 10
-37.28348657577641
 20
-28.3909721738415
 30
0.0
  0
VERTEX
  5
AA
  8
DEFAULT
 62
     5
 10
-37.28348657577641
 20
-26.47739192692794
 30
0.0
  0
VERTEX
  5
AB
  8
DEFAULT
 62
     5
 10
-35.36990632886284
 20
-26.47739192692794
 30
0.0
  0
VERTEX
  5
AC
  8
DEFAULT
 62
     5
 10
-35.36990632886284
 20
-28.3909721738415
 30
0.0
  0
SEQEND
  5
AD
  8
DEFAULT
 62
     5
  0
POLYLINE
  5
AE
  8
DEFAULT
 62
     5
 66
     1
 10
0.0
 20
0.0
 30
0.0
 70
     1
  0
VERTEX
  5
AF
  8
DEFAULT
 62
     5
 10
-26.97484460046778
 20
-24.74899686519953
 30
0.0
  0
VERTEX
  5
B0
  8
DEFAULT
 62
     5
 10
-25.06126435355418
 20
-25.36628081581682
 30
0.0
 42
-0.1675828542376542
  0
VERTEX
  5
B1
  8
DEFAULT
 62
     5
 10
-26.55721270647464
 20
-27.785744263395
 30
0.0
 42
-0.1661937582504647
  0
VERTEX
  5
B2
  8
DEFAULT
 62
     5
 10
-29.21249821501923
 20
-28.57615735902669
 30
0.0
 42
-0.215319184999414
  0
VERTEX
  5
B3
  8
DEFAULT
 62
     5
 10
-32.48362136380317
 20
-27.2195789780466
 30
0.0
 42
-0.1965904895388774
  0
VERTEX
  5
B4
  8
DEFAULT
 62
     5
 10
-33.76496805725787
 20
-23.51057088040392
 30
0.0
 42
-0.1937029714982882
  0
VERTEX
  5
B5
  8
DEFAULT
 62
     5
 10
-32.48169232202265
 20
-19.64434776147868
 30
0.0
 42
-0.2169724536664538
  0
VERTEX
  5
B6
  8
DEFAULT
 62
     5
 10
-29.10833184270098
 20
-18.26751538371806
 30
0.0
 42
-0.1976451736485276
  0
VERTEX
  5
B7
  8
DEFAULT
 62
     5
 10
-26.14151079617696
 20
-19.34293922188953
 30
0.0
 42
-0.1363020021739251
  0
VERTEX
  5
B8
  8
DEFAULT
 62
     5
 10
-25.1229927486159
 20
-21.16874995161928
 30
0.0
  0
VERTEX
  5
B9
  8
DEFAULT
 62
     5
 10
-27.0365729955295
 20
-21.6625771121131
 30
0.0
 42
0.1763799485826866
  0
VERTEX
  5
BA
  8
DEFAULT
 62
     5
 10
-27.7903342973313
 20
-20.44295881372011
 30
0.0
 42
0.1713653637081543
  0
VERTEX
  5
BB
  8
DEFAULT
 62
     5
 10
-29.18452805111662
 20
-19.99591044544644
 30
0.0
 42
0.2243464100348563
  0
VERTEX
  5
BC
  8
DEFAULT
 62
     5
 10
-31.0223943500597
 20
-20.78969889323656
 30
0.0
 42
0.1799606418792044
  0
VERTEX
  5
BD
  8
DEFAULT
 62
     5
 10
-31.72793102022086
 20
-23.36107202624345
 30
0.0
 42
0.1742344162657797
  0
VERTEX
  5
BE
  8
DEFAULT
 62
     5
 10
-31.03396860074281
 20
-26.04722173231889
 30
0.0
 42
0.2281724803033822
  0
VERTEX
  5
BF
  8
DEFAULT
 62
     5
 10
-29.22985959104392
 20
-26.84776229729829
 30
0.0
 42
0.1850882652802943
  0
VERTEX
  5
C0
  8
DEFAULT
 62
     5
 10
-27.82119802390469
 20
-26.34139636523108
 30
0.0
 42
0.1585189073720078
  0
SEQEND
  5
C1
  8
DEFAULT
 62
     5
  0
POLYLINE
  5
C2
  8
DEFAULT
 62
     5
 66
     1
 10
0.0
 20
0.0
 30
0.0
 70
     1
  0
VERTEX
  5
C3
  8
DEFAULT
 62
     5
 10
-23.39459768688752
 20
-28.3909721738415
 30
0.0
  0
VERTEX
  5
C4
  8
DEFAULT
 62
     5
 10
-23.39459768688752
 20
-18.45270056890323
 30
0.0
  0
VERTEX
  5
C5
  8
DEFAULT
 62
     5
 10
-19.19320873912895
 20
-18.45270056890323
 30
0.0
 42
-0.0816429574392226
  0
VERTEX
  5
C6
  8
DEFAULT
 62
     5
 10
-16.88948544359465
 20
-18.72083313777841
 30
0.0
 42
-0.1689196668005293
  0
VERTEX
  5
C7
  8
DEFAULT
 62
     5
 10
-15.73979443878806
 20
-19.67521195900954
 30
0.0
 42
-0.1439595890209399
  0
VERTEX
  5
C8
  8
DEFAULT
 62
     5
 10
-15.30817793380112
 20
-21.24398069722972
 30
0.0
 42
-0.189056136137583
  0
VERTEX
  5
C9
  8
DEFAULT
 62
     5
 10
-15.95584382150411
 20
-23.09486802819131
 30
0.0
 42
-0.1790794822377285
  0
VERTEX
  5
CA
  8
DEFAULT
 62
     5
 10
-17.89208983838137
 20
-24.01500682877569
 30
0.0
 42
-0.073195055797362
  0
VERTEX
  5
CB
  8
DEFAULT
 62
     5
 10
-16.83209739253911
 20
-24.8468938517311
 30
0.0
 42
-0.0435225428788228
  0
VERTEX
  5
CC
  8
DEFAULT
 62
     5
 10
-15.70555394718383
 20
-26.45617246734218
 30
0.0
  0
VERTEX
  5
CD
  8
DEFAULT
 62
     5
 10
-14.50570879799864
 20
-28.3909721738415
 30
0.0
  0
VERTEX
  5
CE
  8
DEFAULT
 62
     5
 10
-16.89286126671058
 20
-28.3909721738415
 30
0.0
  0
VERTEX
  5
CF
  8
DEFAULT
 62
     5
 10
-18.30682722778877
 20
-26.23337096743685
 30
0.0
 42
0.0321176240099166
  0
VERTEX
  5
D0
  8
DEFAULT
 62
     5
 10
-19.35476316250277
 20
-24.77841381043754
 30
0.0
 42
0.1207533914463205
  0
VERTEX
  5
D1
  8
DEFAULT
 62
     5
 10
-19.95275669531483
 20
-24.36656998370092
 30
0.0
 42
0.0776116591927589
  0
VERTEX
  5
D2
  8
DEFAULT
 62
     5
 10
-20.95439656921127
 20
-24.25516970470571
 30
0.0
  0
VERTEX
  5
D3
  8
DEFAULT
 62
     5
 10
-21.35756064985048
 20
-24.25516970470571
 30
0.0
  0
VERTEX
  5
D4
  8
DEFAULT
 62
     5
 10
-21.35756064985048
 20
-28.3909721738415
 30
0.0
  0
SEQEND
  5
D5
  8
DEFAULT
 62
     5
  0
POLYLINE
  5
D6
  8
DEFAULT
 62
     5
 66
     1
 10
0.0
 20
0.0
 30
0.0
 70
     1
  0
VERTEX
  5
D7
  8
DEFAULT
 62
     5
 10
-21.35756064985048
 20
-22.65023143310077
 30
0.0
  0
VERTEX
  5
D8
  8
DEFAULT
 62
     5
 10
-19.88861699802746
 20
-22.65023143310077
 30
0.0
 42
0.0599431456476944
  0
VERTEX
  5
D9
  8
DEFAULT
 62
     5
 10
-18.10331614568864
 20
-22.52773869291011
 30
0.0
 42
0.1678504870086353
  0
VERTEX
  5
DA
  8
DEFAULT
 62
     5
 10
-17.54631427975517
 20
-22.10576692586827
 30
0.0
 42
0.150860418093513
  0
VERTEX
  5
DB
  8
DEFAULT
 62
     5
 10
-17.34521497083812
 20
-21.35779227845057
 30
0.0
 42
0.1832008207798015
  0
VERTEX
  5
DC
  8
DEFAULT
 62
     5
 10
-17.61045397704254
 20
-20.54471435477018
 30
0.0
 42
0.1795985078451257
  0
VERTEX
  5
DD
  8
DEFAULT
 62
     5
 10
-18.35794589305763
 20
-20.15312452481408
 30
0.0
  0
VERTEX
  5
DE
  8
DEFAULT
 62
     5
 10
-19.80759912707546
 20
-20.11936723556991
 30
0.0
  0
VERTEX
  5
DF
  8
DEFAULT
 62
     5
 10
-21.35756064985048
 20
-20.11936723556991
 30
0.0
  0
SEQEND
  5
E0
  8
DEFAULT
 62
     5
  0
POLYLINE
  5
E1
  8
DEFAULT
 62
     5
 66
     1
 10
0.0
 20
0.0
 30
0.0
 70
     1
  0
VERTEX
  5
E2
  8
DEFAULT
 62
     5
 10
-4.567437193060357
 20
-28.3909721738415
 30
0.0
  0
VERTEX
  5
E3
  8
DEFAULT
 62
     5
 10
-6.74722049611114
 20
-28.3909721738415
 30
0.0
  0
VERTEX
  5
E4
  8
DEFAULT
 62
     5
 10
-7.57958977951165
 20
-26.10702155655756
 30
0.0
  0
VERTEX
  5
E5
  8
DEFAULT
 62
     5
 10
-11.40675027333884
 20
-26.10702155655756
 30
0.0
  0
VERTEX
  5
E6
  8
DEFAULT
 62
     5
 10
-12.20246776290946
 20
-28.3909721738415
 30
0.0
  0
VERTEX
  5
E7
  8
DEFAULT
 62
     5
 10
-14.38225200787517
 20
-28.3909721738415
 30
0.0
  0
VERTEX
  5
E8
  8
DEFAULT
 62
     5
 10
-10.72484436498905
 20
-18.45270056890323
 30
0.0
  0
VERTEX
  5
E9
  8
DEFAULT
 62
     5
 10
-8.385916998875189
 20
-18.45270056890323
 30
0.0
  0
SEQEND
  5
EA
  8
DEFAULT
 62
     5
  0
POLYLINE
  5
EB
  8
DEFAULT
 62
     5
 66
     1
 10
0.0
 20
0.0
 30
0.0
 70
     1
  0
VERTEX
  5
EC
  8
DEFAULT
 62
     5
 10
-8.18722852122636
 20
-24.4403548898909
 30
0.0
  0
VERTEX
  5
ED
  8
DEFAULT
 62
     5
 10
-9.536572524572023
 20
-20.73665118618717
 30
0.0
  0
VERTEX
  5
EE
  8
DEFAULT
 62
     5
 10
-10.82708169552677
 20
-24.4403548898909
 30
0.0
  0
SEQEND
  5
EF
  8
DEFAULT
 62
     5
  0
POLYLINE
  5
F0
  8
DEFAULT
 62
     5
 66
     1
 10
0.0
 20
0.0
 30
0.0
 70
     1
  0
VERTEX
  5
F1
  8
DEFAULT
 62
     5
 10
-3.394597686887522
 20
-28.3909721738415
 30
0.0
  0
VERTEX
  5
F2
  8
DEFAULT
 62
     5
 10
-3.394597686887522
 20
-18.45270056890323
 30
0.0
  0
VERTEX
  5
F3
  8
DEFAULT
 62
     5
 10
3.395525769902576
 20
-18.45270056890323
 30
0.0
  0
VERTEX
  5
F4
  8
DEFAULT
 62
     5
 10
3.395525769902576
 20
-20.11936723556991
 30
0.0
  0
VERTEX
  5
F5
  8
DEFAULT
 62
     5
 10
-1.357560649850484
 20
-20.11936723556991
 30
0.0
  0
VERTEX
  5
F6
  8
DEFAULT
 62
     5
 10
-1.357560649850484
 20
-22.5267746429773
 30
0.0
  0
VERTEX
  5
F7
  8
DEFAULT
 62
     5
 10
2.778241819285313
 20
-22.5267746429773
 30
0.0
  0
VERTEX
  5
F8
  8
DEFAULT
 62
     5
 10
2.778241819285313
 20
-24.19344130964399
 30
0.0
  0
VERTEX
  5
F9
  8
DEFAULT
 62
     5
 10
-1.357560649850484
 20
-24.19344130964399
 30
0.0
  0
VERTEX
  5
FA
  8
DEFAULT
 62
     5
 10
-1.357560649850484
 20
-28.3909721738415
 30
0.0
  0
SEQEND
  5
FB
  8
DEFAULT
 62
     5
  0
POLYLINE
  5
FC
  8
DEFAULT
 62
     5
 66
     1
 10
0.0
 20
0.0
 30
0.0
 70
     1
  0
VERTEX
  5
FD
  8
DEFAULT
 62
     5
 10
7.284414658791491
 20
-28.3909721738415
 30
0.0
  0
VERTEX
  5
FE
  8
DEFAULT
 62
     5
 10
7.284414658791491
 20
-20.11936723556991
 30
0.0
  0
VERTEX
  5
FF
  8
DEFAULT
 62
     5
 10
4.383180090890221
 20
-20.11936723556991
 30
0.0
  0
VERTEX
  5
100
  8
DEFAULT
 62
     5
 10
4.383180090890221
 20
-18.45270056890323
 30
0.0
  0
VERTEX
  5
101
  8
DEFAULT
 62
     5
 10
12.22268626372977
 20
-18.45270056890323
 30
0.0
  0
VERTEX
  5
102
  8
DEFAULT
 62
     5
 10
12.22268626372977
 20
-20.11936723556991
 30
0.0
  0
VERTEX
  5
103
  8
DEFAULT
 62
     5
 10
9.321451695828557
 20
-20.11936723556991
 30
0.0
  0
VERTEX
  5
104
  8
DEFAULT
 62
     5
 10
9.321451695828557
 20
-28.3909721738415
 30
0.0
  0
SEQEND
  5
105
  8
DEFAULT
 62
     5
  0
POLYLINE
  5
106
  8
DEFAULT
 62
     5
 66
     1
 10
0.0
 20
0.0
 30
0.0
 70
     1
  0
VERTEX
  5
107
  8
DEFAULT
 62
     5
 10
13.02515539953225
 20
-25.18109563063163
 30
0.0
  0
VERTEX
  5
108
  8
DEFAULT
 62
     5
 10
14.93873564644582
 20
-24.99591044544644
 30
0.0
 42
0.1757987259282487
  0
VERTEX
  5
109
  8
DEFAULT
 62
     5
 10
15.64571909794239
 20
-26.39974893717689
 30
0.0
 42
0.1798176440028214
  0
VERTEX
  5
10A
  8
DEFAULT
 62
     5
 10
17.0828335603868
 20
-26.84776229729829
 30
0.0
 42
0.1732845404634022
  0
VERTEX
  5
10B
  8
DEFAULT
 62
     5
 10
18.52718098759328
 20
-26.44700951888473
 30
0.0
 42
0.234369077109342
  0
VERTEX
  5
10C
  8
DEFAULT
 62
     5
 10
19.01280972051989
 20
-25.50902708183054
 30
0.0
 42
0.1816333378887572
  0
VERTEX
  5
10D
  8
DEFAULT
 62
     5
 10
18.80978136982236
 20
-24.92260779970158
 30
0.0
 42
0.1294276486644011
  0
VERTEX
  5
10E
  8
DEFAULT
 62
     5
 10
18.10038708705758
 20
-24.50208328495262
 30
0.0
  0
VERTEX
  5
10F
  8
DEFAULT
 62
     5
 10
16.5205263585994
 20
-24.06901999863027
 30
0.0
 42
-0.1173611745411386
  0
VERTEX
  5
110
  8
DEFAULT
 62
     5
 10
14.29541057370642
 20
-23.08136567764259
 30
0.0
 42
-0.2194381154320409
  0
VERTEX
  5
111
  8
DEFAULT
 62
     5
 10
13.39552576990258
 20
-21.06458263738611
 30
0.0
 42
-0.145836205636221
  0
VERTEX
  5
112
  8
DEFAULT
 62
     5
 10
13.82087336006037
 20
-19.63180898990529
 30
0.0
 42
-0.1522117373762274
  0
VERTEX
  5
113
  8
DEFAULT
 62
     5
 10
15.04627878379489
 20
-18.61618403405756
 30
0.0
 42
-0.1028686881484114
  0
VERTEX
  5
114
  8
DEFAULT
 62
     5
 10
16.97770172526339
 20
-18.26751538371806
 30
0.0
 42
-0.1861118845194026
  0
VERTEX
  5
115
  8
DEFAULT
 62
     5
 10
19.75982031800476
 20
-19.10856441321598
 30
0.0
 42
-0.2120595473349312
  0
VERTEX
  5
116
  8
DEFAULT
 62
     5
 10
20.7412047822483
 20
-21.35393513680447
 30
0.0
  0
VERTEX
  5
117
  8
DEFAULT
 62
     5
 10
18.76589614027296
 20
-21.41566353186619
 30
0.0
 42
0.1870324440294825
  0
VERTEX
  5
118
  8
DEFAULT
 62
     5
 10
18.22239756680312
 20
-20.32721819071872
 30
0.0
 42
0.1673980338206501
  0
VERTEX
  5
119
  8
DEFAULT
 62
     5
 10
16.97095102094647
 20
-19.99591044544644
 30
0.0
 42
0.159085972064068
  0
VERTEX
  5
11A
  8
DEFAULT
 62
     5
 10
15.62257059657611
 20
-20.3518130024629
 30
0.0
 42
0.254196077378404
  0
VERTEX
  5
11B
  8
DEFAULT
 62
     5
 10
15.30910601681621
 20
-20.96234530684836
 30
0.0
 42
0.2319281523700327
  0
VERTEX
  5
11C
  8
DEFAULT
 62
     5
 10
15.60424564157614
 20
-21.56033883966046
 30
0.0
 42
0.0933887089371195
  0
VERTEX
  5
11D
  8
DEFAULT
 62
     5
 10
17.42812685856785
 20
-22.22102575938198
 30
0.0
 42
-0.0589888642510242
  0
VERTEX
  5
11E
  8
DEFAULT
 62
     5
 10
19.57077704925853
 20
-22.93427812570778
 30
0.0
 42
-0.13608398824576
  0
VERTEX
  5
11F
  8
DEFAULT
 62
     5
 10
20.657292877668
 20
-23.94025787265289
 30
0.0
 42
-0.1400796130821486
  0
VERTEX
  5
120
  8
DEFAULT
 62
     5
 10
21.04984675755691
 20
-25.51674324895262
 30
0.0
 42
-0.1451940046734298
  0
VERTEX
  5
121
  8
DEFAULT
 62
     5
 10
20.57868583798421
 20
-27.1110717907647
 30
0.0
 42
-0.1569002318560469
  0
VERTEX
  5
122
  8
DEFAULT
 62
     5
 10
19.24573868977296
 20
-28.21494946615633
 30
0.0
 42
-0.0985913091522252
  0
VERTEX
  5
123
  8
DEFAULT
 62
     5
 10
17.09826589463097
 20
-28.57615735902669
 30
0.0
 42
-0.1816431449270589
  0
VERTEX
  5
124
  8
DEFAULT
 62
     5
 10
14.22307244885184
 20
-27.70906626549171
 30
0.0
 42
-0.1921190031285954
  0
SEQEND
  5
125
  8
DEFAULT
 62
     5
  0
POLYLINE
  5
126
  8
DEFAULT
 62
     5
 66
     1
 10
0.0
 20
0.0
 30
0.0
 70
     1
  0
VERTEX
  5
127
  8
DEFAULT
 62
     5
 10
22.59305663410015
 20
-28.3909721738415
 30
0.0
  0
VERTEX
  5
128
  8
DEFAULT
 62
     5
 10
22.59305663410015
 20
-18.45270056890323
 30
0.0
  0
VERTEX
  5
129
  8
DEFAULT
 62
     5
 10
25.63318032636897
 20
-18.45270056890323
 30
0.0
  0
VERTEX
  5
12A
  8
DEFAULT
 62
     5
 10
27.50046451246499
 20
-25.23221429590049
 30
0.0
  0
VERTEX
  5
12B
  8
DEFAULT
 62
     5
 10
29.39089625801233
 20
-18.45270056890323
 30
0.0
  0
VERTEX
  5
12C
  8
DEFAULT
 62
     5
 10
32.40787144891493
 20
-18.45270056890323
 30
0.0
  0
VERTEX
  5
12D
  8
DEFAULT
 62
     5
 10
32.40787144891493
 20
-28.3909721738415
 30
0.0
  0
VERTEX
  5
12E
  8
DEFAULT
 62
     5
 10
30.49429120200136
 20
-28.3909721738415
 30
0.0
  0
VERTEX
  5
12F
  8
DEFAULT
 62
     5
 10
30.46342747542798
 20
-20.56786191422148
 30
0.0
  0
VERTEX
  5
130
  8
DEFAULT
 62
     5
 10
28.38588150291491
 20
-28.3909721738415
 30
0.0
  0
VERTEX
  5
131
  8
DEFAULT
 62
     5
 10
26.58804187900273
 20
-28.3909721738415
 30
0.0
  0
VERTEX
  5
132
  8
DEFAULT
 62
     5
 10
24.53750154950205
 20
-20.56786191422148
 30
0.0
  0
VERTEX
  5
133
  8
DEFAULT
 62
     5
 10
24.50663688101372
 20
-28.3909721738415
 30
0.0
  0
SEQEND
  5
134
  8
DEFAULT
 62
     5
  0
POLYLINE
  5
135
  8
DEFAULT
 62
     5
 66
     1
 10
0.0
 20
0.0
 30
0.0
 70
     1
  0
VERTEX
  5
136
  8
DEFAULT
 62
     5
 10
43.08688379459397
 20
-28.3909721738415
 30
0.0
  0
VERTEX
  5
137
  8
DEFAULT
 62
     5
 10
40.90710049154319
 20
-28.3909721738415
 30
0.0
  0
VERTEX
  5
138
  8
DEFAULT
 62
     5
 10
40.07473120814262
 20
-26.10702155655756
 30
0.0
  0
VERTEX
  5
139
  8
DEFAULT
 62
     5
 10
36.24757071431549
 20
-26.10702155655756
 30
0.0
  0
VERTEX
  5
13A
  8
DEFAULT
 62
     5
 10
35.45185322474487
 20
-28.3909721738415
 30
0.0
  0
VERTEX
  5
13B
  8
DEFAULT
 62
     5
 10
33.27206897977914
 20
-28.3909721738415
 30
0.0
  0
VERTEX
  5
13C
  8
DEFAULT
 62
     5
 10
36.92947662266528
 20
-18.45270056890323
 30
0.0
  0
VERTEX
  5
13D
  8
DEFAULT
 62
     5
 10
39.26840398877914
 20
-18.45270056890323
 30
0.0
  0
SEQEND
  5
13E
  8
DEFAULT
 62
     5
  0
POLYLINE
  5
13F
  8
DEFAULT
 62
     5
 66
     1
 10
0.0
 20
0.0
 30
0.0
 70
     1
  0
VERTEX
  5
140
  8
DEFAULT
 62
     5
 10
39.46709246642797
 20
-24.4403548898909
 30
0.0
  0
VERTEX
  5
141
  8
DEFAULT
 62
     5
 10
38.11774846308231
 20
-20.73665118618717
 30
0.0
  0
VERTEX
  5
142
  8
DEFAULT
 62
     5
 10
36.82723929212756
 20
-24.4403548898909
 30
0.0
  0
SEQEND
  5
143
  8
DEFAULT
 62
     5
  0
POLYLINE
  5
144
  8
DEFAULT
 62
     5
 66
     1
 10
0.0
 20
0.0
 30
0.0
 70
     1
  0
VERTEX
  5
145
  8
DEFAULT
 62
     5
 10
44.25972330076678
 20
-28.3909721738415
 30
0.0
  0
VERTEX
  5
146
  8
DEFAULT
 62
     5
 10
44.25972330076678
 20
-18.45270056890323
 30
0.0
  0
VERTEX
  5
147
  8
DEFAULT
 62
     5
 10
46.2601094858889
 20
-18.45270056890323
 30
0.0
  0
VERTEX
  5
148
  8
DEFAULT
 62
     5
 10
50.24737762175442
 20
-24.95925865161655
 30
0.0
  0
VERTEX
  5
149
  8
DEFAULT
 62
     5
 10
50.24737762175442
 20
-18.45270056890323
 30
0.0
  0
VERTEX
  5
14A
  8
DEFAULT
 62
     5
 10
52.16095786866805
 20
-18.45270056890323
 30
0.0
  0
VERTEX
  5
14B
  8
DEFAULT
 62
     5
 10
52.16095786866805
 20
-28.3909721738415
 30
0.0
  0
VERTEX
  5
14C
  8
DEFAULT
 62
     5
 10
50.10077327217965
 20
-28.3909721738415
 30
0.0
  0
VERTEX
  5
14D
  8
DEFAULT
 62
     5
 10
46.1733035476804
 20
-21.98279239618995
 30
0.0
  0
VERTEX
  5
14E
  8
DEFAULT
 62
     5
 10
46.1733035476804
 20
-28.3909721738415
 30
0.0
  0
SEQEND
  5
14F
  8
DEFAULT
 62
     5
  0
POLYLINE
  5
150
  8
DEFAULT
 62
     5
 66
     1
 10
0.0
 20
0.0
 30
0.0
 70
     1
  0
VERTEX
  5
151
  8
DEFAULT
 62
     5
 10
53.76589614027296
 20
-25.18109563063163
 30
0.0
  0
VERTEX
  5
152
  8
DEFAULT
 62
     5
 10
55.67947638718653
 20
-24.99591044544644
 30
0.0
 42
0.1757987259282318
  0
VERTEX
  5
153
  8
DEFAULT
 62
     5
 10
56.38645983868314
 20
-26.39974893717689
 30
0.0
 42
0.179817644002833
  0
VERTEX
  5
154
  8
DEFAULT
 62
     5
 10
57.82357430112751
 20
-26.84776229729829
 30
0.0
 42
0.1732845404634135
  0
VERTEX
  5
155
  8
DEFAULT
 62
     5
 10
59.26792172833399
 20
-26.44700951888473
 30
0.0
 42
0.2343690771093567
  0
VERTEX
  5
156
  8
DEFAULT
 62
     5
 10
59.75355046126065
 20
-25.50902708183054
 30
0.0
 42
0.1816333378887559
  0
VERTEX
  5
157
  8
DEFAULT
 62
     5
 10
59.55052211056313
 20
-24.92260779970158
 30
0.0
 42
0.1294276486644003
  0
VERTEX
  5
158
  8
DEFAULT
 62
     5
 10
58.84112782779835
 20
-24.50208328495262
 30
0.0
  0
VERTEX
  5
159
  8
DEFAULT
 62
     5
 10
57.26126709934016
 20
-24.06901999863027
 30
0.0
 42
-0.1173611745411496
  0
VERTEX
  5
15A
  8
DEFAULT
 62
     5
 10
55.03615131444718
 20
-23.08136567764259
 30
0.0
 42
-0.2194381154320423
  0
VERTEX
  5
15B
  8
DEFAULT
 62
     5
 10
54.13626651064334
 20
-21.06458263738611
 30
0.0
 42
-0.1458362056362046
  0
VERTEX
  5
15C
  8
DEFAULT
 62
     5
 10
54.56161410080108
 20
-19.63180898990529
 30
0.0
 42
-0.1522117373762087
  0
VERTEX
  5
15D
  8
DEFAULT
 62
     5
 10
55.78701952453565
 20
-18.61618403405756
 30
0.0
 42
-0.1028686881484114
  0
VERTEX
  5
15E
  8
DEFAULT
 62
     5
 10
57.71844246600409
 20
-18.26751538371806
 30
0.0
 42
-0.1861118845193969
  0
VERTEX
  5
15F
  8
DEFAULT
 62
     5
 10
60.50056105874552
 20
-19.10856441321599
 30
0.0
 42
-0.2120595473349434
  0
VERTEX
  5
160
  8
DEFAULT
 62
     5
 10
61.48194552298901
 20
-21.35393513680447
 30
0.0
  0
VERTEX
  5
161
  8
DEFAULT
 62
     5
 10
59.50663688101372
 20
-21.41566353186619
 30
0.0
 42
0.1870324440294832
  0
VERTEX
  5
162
  8
DEFAULT
 62
     5
 10
58.96313830754389
 20
-20.32721819071872
 30
0.0
 42
0.1673980338206522
  0
VERTEX
  5
163
  8
DEFAULT
 62
     5
 10
57.71169176168718
 20
-19.99591044544644
 30
0.0
 42
0.159085972064082
  0
VERTEX
  5
164
  8
DEFAULT
 62
     5
 10
56.36331133731687
 20
-20.3518130024629
 30
0.0
 42
0.2541960773784304
  0
VERTEX
  5
165
  8
DEFAULT
 62
     5
 10
56.04984675755691
 20
-20.96234530684836
 30
0.0
 42
0.2319281523700339
  0
VERTEX
  5
166
  8
DEFAULT
 62
     5
 10
56.34498638231685
 20
-21.56033883966046
 30
0.0
 42
0.0933887089371066
  0
VERTEX
  5
167
  8
DEFAULT
 62
     5
 10
58.16886759930861
 20
-22.22102575938197
 30
0.0
 42
-0.0589888642510154
  0
VERTEX
  5
168
  8
DEFAULT
 62
     5
 10
60.3115177899993
 20
-22.93427812570778
 30
0.0
 42
-0.1360839882457601
  0
VERTEX
  5
169
  8
DEFAULT
 62
     5
 10
61.39803361840877
 20
-23.94025787265289
 30
0.0
 42
-0.1400796130821489
  0
VERTEX
  5
16A
  8
DEFAULT
 62
     5
 10
61.79058749829767
 20
-25.51674324895262
 30
0.0
 42
-0.1451940046734314
  0
VERTEX
  5
16B
  8
DEFAULT
 62
     5
 10
61.31942657872497
 20
-27.1110717907647
 30
0.0
 42
-0.1569002318560231
  0
VERTEX
  5
16C
  8
DEFAULT
 62
     5
 10
59.98647943051373
 20
-28.21494946615633
 30
0.0
 42
-0.0985913091522212
  0
VERTEX
  5
16D
  8
DEFAULT
 62
     5
 10
57.83900663537173
 20
-28.57615735902669
 30
0.0
 42
-0.1816431449270638
  0
VERTEX
  5
16E
  8
DEFAULT
 62
     5
 10
54.96381318959259
 20
-27.70906626549171
 30
0.0
 42
-0.1921190031286037
  0
SEQEND
  5
16F
  8
DEFAULT
 62
     5
  0
POLYLINE
  5
170
  8
DEFAULT
 62
     5
 66
     1
 10
0.0
 20
0.0
 30
0.0
 70
     1
  0
VERTEX
  5
171
  8
DEFAULT
 62
     5
 10
63.45725416496435
 20
-28.3909721738415
 30
0.0
  0
VERTEX
  5
172
  8
DEFAULT
 62
     5
 10
63.45725416496435
 20
-18.45270056890323
 30
0.0
  0
VERTEX
  5
173
  8
DEFAULT
 62
     5
 10
66.66905974995473
 20
-18.45270056890322
 30
0.0
 42
-0.0512501894894364
  0
VERTEX
  5
174
  8
DEFAULT
 62
     5
 10
69.04849699345952
 20
-18.60123396025853
 30
0.0
 42
-0.1705377598162779
  0
VERTEX
  5
175
  8
DEFAULT
 62
     5
 10
70.47500125515359
 20
-19.57200916566663
 30
0.0
 42
-0.1683452898235701
  0
VERTEX
  5
176
  8
DEFAULT
 62
     5
 10
71.04984675755689
 20
-21.50150400726949
 30
0.0
 42
-0.1225574679040999
  0
VERTEX
  5
177
  8
DEFAULT
 62
     5
 10
70.72046805406518
 20
-23.03699771669062
 30
0.0
 42
-0.120099237790072
  0
VERTEX
  5
178
  8
DEFAULT
 62
     5
 10
69.88424162901849
 20
-24.01404277884287
 30
0.0
 42
-0.0998133031997772
  0
VERTEX
  5
179
  8
DEFAULT
 62
     5
 10
68.85270207848146
 20
-24.48375738803767
 30
0.0
 42
-0.045864623861868
  0
VERTEX
  5
17A
  8
DEFAULT
 62
     5
 10
66.79058749829767
 20
-24.62554007507606
 30
0.0
  0
VERTEX
  5
17B
  8
DEFAULT
 62
     5
 10
65.49429120200136
 20
-24.62554007507606
 30
0.0
  0
VERTEX
  5
17C
  8
DEFAULT
 62
     5
 10
65.49429120200136
 20
-28.3909721738415
 30
0.0
  0
SEQEND
  5
17D
  8
DEFAULT
 62
     5
  0
POLYLINE
  5
17E
  8
DEFAULT
 62
     5
 66
     1
 10
0.0
 20
0.0
 30
0.0
 70
     1
  0
VERTEX
  5
17F
  8
DEFAULT
 62
     5
 10
65.49429120200136
 20
-20.11936723556991
 30
0.0
  0
VERTEX
  5
180
  8
DEFAULT
 62
     5
 10
65.49429120200136
 20
-22.9588734084094
 30
0.0
  0
VERTEX
  5
181
  8
DEFAULT
 62
     5
 10
66.58611283722217
 20
-22.9588734084094
 30
0.0
 42
0.0782937827236097
  0
VERTEX
  5
182
  8
DEFAULT
 62
     5
 10
68.16356273441221
 20
-22.80165885808429
 30
0.0
 42
0.1546982739583161
  0
VERTEX
  5
183
  8
DEFAULT
 62
     5
 10
68.78711559985868
 20
-22.31024252885865
 30
0.0
 42
0.1527391250226108
  0
VERTEX
  5
184
  8
DEFAULT
 62
     5
 10
69.0128097205199
 20
-21.53236867575782
 30
0.0
 42
0.1899564736899935
  0
VERTEX
  5
185
  8
DEFAULT
 62
     5
 10
68.69596978860153
 20
-20.63151935106373
 30
0.0
 42
0.1715374720898441
  0
VERTEX
  5
186
  8
DEFAULT
 62
     5
 10
67.89398338420159
 20
-20.18784633494852
 30
0.0
 42
0.0381286563022445
  0
VERTEX
  5
187
  8
DEFAULT
 62
     5
 10
66.45783344264743
 20
-20.11936723556991
 30
0.0
  0
SEQEND
  5
188
  8
DEFAULT
 62
     5
  0
POLYLINE
  5
189
  8
DEFAULT
 62
     5
 66
     1
 10
0.0
 20
0.0
 30
0.0
 70
     1
  0
VERTEX
  5
18A
  8
DEFAULT
 62
     5
 10
81.48194552298901
 20
-28.3909721738415
 30
0.0
  0
VERTEX
  5
18B
  8
DEFAULT
 62
     5
 10
79.30216221993823
 20
-28.3909721738415
 30
0.0
  0
VERTEX
  5
18C
  8
DEFAULT
 62
     5
 10
78.46979293653771
 20
-26.10702155655756
 30
0.0
  0
VERTEX
  5
18D
  8
DEFAULT
 62
     5
 10
74.64263244271052
 20
-26.10702155655756
 30
0.0
  0
VERTEX
  5
18E
  8
DEFAULT
 62
     5
 10
73.8469149531399
 20
-28.3909721738415
 30
0.0
  0
VERTEX
  5
18F
  8
DEFAULT
 62
     5
 10
71.66713070817417
 20
-28.3909721738415
 30
0.0
  0
VERTEX
  5
190
  8
DEFAULT
 62
     5
 10
75.32453835106031
 20
-18.45270056890323
 30
0.0
  0
VERTEX
  5
191
  8
DEFAULT
 62
     5
 10
77.66346571717423
 20
-18.45270056890323
 30
0.0
  0
SEQEND
  5
192
  8
DEFAULT
 62
     5
  0
POLYLINE
  5
193
  8
DEFAULT
 62
     5
 66
     1
 10
0.0
 20
0.0
 30
0.0
 70
     1
  0
VERTEX
  5
194
  8
DEFAULT
 62
     5
 10
77.86215419482306
 20
-24.4403548898909
 30
0.0
  0
VERTEX
  5
195
  8
DEFAULT
 62
     5
 10
76.51281019147734
 20
-20.73665118618717
 30
0.0
  0
VERTEX
  5
196
  8
DEFAULT
 62
     5
 10
75.2223010205226
 20
-24.4403548898909
 30
0.0
  0
SEQEND
  5
197
  8
DEFAULT
 62
     5
  0
POLYLINE
  5
198
  8
DEFAULT
 62
     5
 66
     1
 10
0.0
 20
0.0
 30
0.0
 70
     1
  0
VERTEX
  5
199
  8
DEFAULT
 62
     5
 10
89.07453811558162
 20
-24.74899686519953
 30
0.0
  0
VERTEX
  5
19A
  8
DEFAULT
 62
     5
 10
90.98811836249519
 20
-25.36628081581682
 30
0.0
 42
-0.1675828542376682
  0
VERTEX
  5
19B
  8
DEFAULT
 62
     5
 10
89.49217000957474
 20
-27.78574426339499
 30
0.0
 42
-0.1661937582504642
  0
VERTEX
  5
19C
  8
DEFAULT
 62
     5
 10
86.83688450103017
 20
-28.57615735902669
 30
0.0
 42
-0.2153191849994081
  0
VERTEX
  5
19D
  8
DEFAULT
 62
     5
 10
83.56576135224617
 20
-27.2195789780466
 30
0.0
 42
-0.1965904895388733
  0
VERTEX
  5
19E
  8
DEFAULT
 62
     5
 10
82.28441465879149
 20
-23.51057088040391
 30
0.0
 42
-0.193702971498288
  0
VERTEX
  5
19F
  8
DEFAULT
 62
     5
 10
83.56769039402673
 20
-19.64434776147868
 30
0.0
 42
-0.2169724536664551
  0
VERTEX
  5
1A0
  8
DEFAULT
 62
     5
 10
86.94105087334839
 20
-18.26751538371807
 30
0.0
 42
-0.1976451736485271
  0
VERTEX
  5
1A1
  8
DEFAULT
 62
     5
 10
89.90787191987242
 20
-19.34293922188954
 30
0.0
 42
-0.1363020021739223
  0
VERTEX
  5
1A2
  8
DEFAULT
 62
     5
 10
90.92638996743347
 20
-21.16874995161928
 30
0.0
  0
VERTEX
  5
1A3
  8
DEFAULT
 62
     5
 10
89.0128097205199
 20
-21.6625771121131
 30
0.0
 42
0.1763799485826611
  0
VERTEX
  5
1A4
  8
DEFAULT
 62
     5
 10
88.25904841871812
 20
-20.44295881372011
 30
0.0
 42
0.1713653637081319
  0
VERTEX
  5
1A5
  8
DEFAULT
 62
     5
 10
86.8648546649328
 20
-19.99591044544644
 30
0.0
 42
0.2243464100348521
  0
VERTEX
  5
1A6
  8
DEFAULT
 62
     5
 10
85.02698836598967
 20
-20.78969889323656
 30
0.0
 42
0.1799606418791929
  0
VERTEX
  5
1A7
  8
DEFAULT
 62
     5
 10
84.32145169582856
 20
-23.36107202624345
 30
0.0
 42
0.1742344162657667
  0
VERTEX
  5
1A8
  8
DEFAULT
 62
     5
 10
85.01541411530656
 20
-26.04722173231889
 30
0.0
 42
0.2281724803033851
  0
VERTEX
  5
1A9
  8
DEFAULT
 62
     5
 10
86.81952312500545
 20
-26.84776229729827
 30
0.0
 42
0.1850882652803109
  0
VERTEX
  5
1AA
  8
DEFAULT
 62
     5
 10
88.2281846921447
 20
-26.34139636523108
 30
0.0
 42
0.1585189073719958
  0
SEQEND
  5
1AB
  8
DEFAULT
 62
     5
  0
POLYLINE
  5
1AC
  8
DEFAULT
 62
     5
 66
     1
 10
0.0
 20
0.0
 30
0.0
 70
     1
  0
VERTEX
  5
1AD
  8
DEFAULT
 62
     5
 10
92.65478502916181
 20
-28.3909721738415
 30
0.0
  0
VERTEX
  5
1AE
  8
DEFAULT
 62
     5
 10
92.65478502916181
 20
-18.45270056890323
 30
0.0
  0
VERTEX
  5
1AF
  8
DEFAULT
 62
     5
 10
100.0004640415075
 20
-18.45270056890323
 30
0.0
  0
VERTEX
  5
1B0
  8
DEFAULT
 62
     5
 10
100.0004640415075
 20
-20.11936723556991
 30
0.0
  0
VERTEX
  5
1B1
  8
DEFAULT
 62
     5
 10
94.69182206619888
 20
-20.11936723556991
 30
0.0
  0
VERTEX
  5
1B2
  8
DEFAULT
 62
     5
 10
94.69182206619888
 20
-22.34158945779211
 30
0.0
  0
VERTEX
  5
1B3
  8
DEFAULT
 62
     5
 10
99.63009367113716
 20
-22.34158945779211
 30
0.0
  0
VERTEX
  5
1B4
  8
DEFAULT
 62
     5
 10
99.63009367113716
 20
-24.0082561244588
 30
0.0
  0
VERTEX
  5
1B5
  8
DEFAULT
 62
     5
 10
94.69182206619888
 20
-24.0082561244588
 30
0.0
  0
VERTEX
  5
1B6
  8
DEFAULT
 62
     5
 10
94.69182206619888
 20
-26.72430550717485
 30
0.0
  0
VERTEX
  5
1B7
  8
DEFAULT
 62
     5
 10
100.1856492266928
 20
-26.72430550717485
 30
0.0
  0
VERTEX
  5
1B8
  8
DEFAULT
 62
     5
 10
100.1856492266928
 20
-28.3909721738415
 30
0.0
  0
SEQEND
  5
1B9
  8
DEFAULT
 62
     5
  0
POLYLINE
  5
1BA
  8
DEFAULT
 62
     5
 66
     1
 10
0.0
 20
0.0
 30
0.0
 70
     1
  0
VERTEX
  5
1BB
  8
DEFAULT
 62
     5
 10
101.7905874982977
 20
-28.3909721738415
 30
0.0
  0
VERTEX
  5
1BC
  8
DEFAULT
 62
     5
 10
101.7905874982977
 20
-26.47739192692794
 30
0.0
  0
VERTEX
  5
1BD
  8
DEFAULT
 62
     5
 10
103.7041677452112
 20
-26.47739192692794
 30
0.0
  0
VERTEX
  5
1BE
  8
DEFAULT
 62
     5
 10
103.7041677452112
 20
-28.3909721738415
 30
0.0
  0
SEQEND
  5
1BF
  8
DEFAULT
 62
     5
  0
POLYLINE
  5
1C0
  8
DEFAULT
 62
     5
 66
     1
 10
0.0
 20
0.0
 30
0.0
 70
     1
  0
VERTEX
  5
1C1
  8
DEFAULT
 62
     5
 10
112.0992294736063
 20
-24.74899686519953
 30
0.0
  0
VERTEX
  5
1C2
  8
DEFAULT
 62
     5
 10
114.0128097205199
 20
-25.36628081581683
 30
0.0
 42
-0.1675828542376523
  0
VERTEX
  5
1C3
  8
DEFAULT
 62
     5
 10
112.5168613675995
 20
-27.78574426339502
 30
0.0
 42
-0.1661937582504633
  0
VERTEX
  5
1C4
  8
DEFAULT
 62
     5
 10
109.8615758590549
 20
-28.57615735902669
 30
0.0
 42
-0.2153191849994128
  0
VERTEX
  5
1C5
  8
DEFAULT
 62
     5
 10
106.5904527102709
 20
-27.2195789780466
 30
0.0
 42
-0.1965904895388713
  0
VERTEX
  5
1C6
  8
DEFAULT
 62
     5
 10
105.3091060168162
 20
-23.51057088040392
 30
0.0
 42
-0.1937029714982806
  0
VERTEX
  5
1C7
  8
DEFAULT
 62
     5
 10
106.5923817520514
 20
-19.64434776147869
 30
0.0
 42
-0.2169724536664497
  0
VERTEX
  5
1C8
  8
DEFAULT
 62
     5
 10
109.9657422313731
 20
-18.26751538371807
 30
0.0
 42
-0.1976451736485287
  0
VERTEX
  5
1C9
  8
DEFAULT
 62
     5
 10
112.9325632778971
 20
-19.34293922188954
 30
0.0
 42
-0.1363020021739418
  0
VERTEX
  5
1CA
  8
DEFAULT
 62
     5
 10
113.9510813254581
 20
-21.16874995161928
 30
0.0
  0
VERTEX
  5
1CB
  8
DEFAULT
 62
     5
 10
112.0375010785446
 20
-21.6625771121131
 30
0.0
 42
0.1763799485826794
  0
VERTEX
  5
1CC
  8
DEFAULT
 62
     5
 10
111.2837397767428
 20
-20.44295881372012
 30
0.0
 42
0.1713653637081483
  0
VERTEX
  5
1CD
  8
DEFAULT
 62
     5
 10
109.8895460229575
 20
-19.99591044544644
 30
0.0
 42
0.2243464100348644
  0
VERTEX
  5
1CE
  8
DEFAULT
 62
     5
 10
108.0516797240144
 20
-20.78969889323656
 30
0.0
 42
0.179960641879208
  0
VERTEX
  5
1CF
  8
DEFAULT
 62
     5
 10
107.3461430538532
 20
-23.36107202624345
 30
0.0
 42
0.174234416265776
  0
VERTEX
  5
1D0
  8
DEFAULT
 62
     5
 10
108.0401054733313
 20
-26.04722173231889
 30
0.0
 42
0.2281724803033949
  0
VERTEX
  5
1D1
  8
DEFAULT
 62
     5
 10
109.8442144830302
 20
-26.84776229729829
 30
0.0
 42
0.1850882652802911
  0
VERTEX
  5
1D2
  8
DEFAULT
 62
     5
 10
111.2528760501694
 20
-26.34139636523108
 30
0.0
 42
0.1585189073720167
  0
SEQEND
  5
1D3
  8
DEFAULT
 62
     5
  0
POLYLINE
  5
1D4
  8
DEFAULT
 62
     5
 66
     1
 10
0.0
 20
0.0
 30
0.0
 70
     1
  0
VERTEX
  5
1D5
  8
DEFAULT
 62
     5
 10
115.3091060168162
 20
-23.48259977458636
 30
0.0
 42
-0.1018416397943134
  0
VERTEX
  5
1D6
  8
DEFAULT
 62
     5
 10
115.7566371164924
 20
-20.92665803390875
 30
0.0
 42
-0.0880713985140533
  0
VERTEX
  5
1D7
  8
DEFAULT
 62
     5
 10
116.6695424813573
 20
-19.55947086505071
 30
0.0
 42
-0.1028950386778317
  0
VERTEX
  5
1D8
  8
DEFAULT
 62
     5
 10
117.9364213614581
 20
-18.66199783442999
 30
0.0
 42
-0.1024921346879663
  0
VERTEX
  5
1D9
  8
DEFAULT
 62
     5
 10
120.0486900860205
 20
-18.26751538371807
 30
0.0
 42
-0.2135832424529309
  0
VERTEX
  5
1DA
  8
DEFAULT
 62
     5
 10
123.5151249474225
 20
-19.63422029213095
 30
0.0
 42
-0.1971385617084897
  0
VERTEX
  5
1DB
  8
DEFAULT
 62
     5
 10
124.8152788563223
 20
-23.43533919287856
 30
0.0
 42
-0.1964469629781111
  0
VERTEX
  5
1DC
  8
DEFAULT
 62
     5
 10
123.5252519458127
 20
-27.21282780277224
 30
0.0
 42
-0.2143460913173582
  0
VERTEX
  5
1DD
  8
DEFAULT
 62
     5
 10
120.0756957290329
 20
-28.57615735902669
 30
0.0
 42
-0.2134143313661387
  0
VERTEX
  5
1DE
  8
DEFAULT
 62
     5
 10
116.5991333982832
 20
-27.2195789780466
 30
0.0
 42
-0.197386323706527
  0
SEQEND
  5
1DF
  8
DEFAULT
 62
     5
  0
POLYLINE
  5
1E0
  8
DEFAULT
 62
     5
 66
     1
 10
0.0
 20
0.0
 30
0.0
 70
     1
  0
VERTEX
  5
1E1
  8
DEFAULT
 62
     5
 10
117.3461430538532
 20
-23.41508425418309
 30
0.0
 42
0.1838510025519579
  0
VERTEX
  5
1E2
  8
DEFAULT
 62
     5
 10
118.1163016817469
 20
-25.97584859931201
 30
0.0
 42
0.2254577132435074
  0
VERTEX
  5
1E3
  8
DEFAULT
 62
     5
 10
120.0718376454719
 20
-26.84776229729828
 30
0.0
 42
0.2262475935246271
  0
VERTEX
  5
1E4
  8
DEFAULT
 62
     5
 10
122.0182111316968
 20
-25.98260024554384
 30
0.0
 42
0.1821100867906023
  0
VERTEX
  5
1E5
  8
DEFAULT
 62
     5
 10
122.7782418192853
 20
-23.38807861117073
 30
0.0
 42
0.1818651488237444
  0
VERTEX
  5
1E6
  8
DEFAULT
 62
     5
 10
122.0379833389897
 20
-20.83695947494439
 30
0.0
 42
0.2256131841522026
  0
VERTEX
  5
1E7
  8
DEFAULT
 62
     5
 10
120.0718376454719
 20
-19.99591044544642
 30
0.0
 42
0.2254805064308849
  0
VERTEX
  5
1E8
  8
DEFAULT
 62
     5
 10
118.0965290034965
 20
-20.84708694429212
 30
0.0
 42
0.182359079411924
  0
SEQEND
  5
1E9
  8
DEFAULT
 62
     5
  0
POLYLINE
  5
1EA
  8
DEFAULT
 62
     5
 66
     1
 10
0.0
 20
0.0
 30
0.0
 70
     1
  0
VERTEX
  5
1EB
  8
DEFAULT
 62
     5
 10
126.2967603378038
 20
-28.3909721738415
 30
0.0
  0
VERTEX
  5
1EC
  8
DEFAULT
 62
     5
 10
126.2967603378038
 20
-18.45270056890323
 30
0.0
  0
VERTEX
  5
1ED
  8
DEFAULT
 62
     5
 10
129.3368840300727
 20
-18.45270056890323
 30
0.0
  0
VERTEX
  5
1EE
  8
DEFAULT
 62
     5
 10
131.2041682161687
 20
-25.23221429590049
 30
0.0
  0
VERTEX
  5
1EF
  8
DEFAULT
 62
     5
 10
133.094599961716
 20
-18.45270056890323
 30
0.0
  0
VERTEX
  5
1F0
  8
DEFAULT
 62
     5
 10
136.1115751526186
 20
-18.45270056890323
 30
0.0
  0
VERTEX
  5
1F1
  8
DEFAULT
 62
     5
 10
136.1115751526186
 20
-28.3909721738415
 30
0.0
  0
VERTEX
  5
1F2
  8
DEFAULT
 62
     5
 10
134.1979949057051
 20
-28.3909721738415
 30
0.0
  0
VERTEX
  5
1F3
  8
DEFAULT
 62
     5
 10
134.1671311791317
 20
-20.56786191422148
 30
0.0
  0
VERTEX
  5
1F4
  8
DEFAULT
 62
     5
 10
132.0895852066187
 20
-28.3909721738415
 30
0.0
  0
VERTEX
  5
1F5
  8
DEFAULT
 62
     5
 10
130.2917455827064
 20
-28.3909721738415
 30
0.0
  0
VERTEX
  5
1F6
  8
DEFAULT
 62
     5
 10
128.2412052532057
 20
-20.56786191422148
 30
0.0
  0
VERTEX
  5
1F7
  8
DEFAULT
 62
     5
 10
128.2103405847174
 20
-28.3909721738415
 30
0.0
  0
SEQEND
  5
1F8
  8
DEFAULT
 62
     5
  0
POLYLINE
  5
1F9
  8
DEFAULT
 62
     5
 66
     1
 10
0.0
 20
0.0
 30
0.0
 70
     1
  0
VERTEX
  5
1FA
  8
DEFAULT
 62
     5
 10
-65.22343309112142
 20
-44.63338535762995
 30
0.0
  0
VERTEX
  5
1FB
  8
DEFAULT
 62
     5
 10
-63.30985284420783
 20
-44.44820017244476
 30
0.0
 42
0.1757987259282416
  0
VERTEX
  5
1FC
  8
DEFAULT
 62
     5
 10
-62.60286939271128
 20
-45.85203866417522
 30
0.0
 42
0.1798176440028183
  0
VERTEX
  5
1FD
  8
DEFAULT
 62
     5
 10
-61.16575493026684
 20
-46.30005202429661
 30
0.0
 42
0.1732845404634043
  0
VERTEX
  5
1FE
  8
DEFAULT
 62
     5
 10
-59.7214075030604
 20
-45.89929924588304
 30
0.0
 42
0.2343690771093456
  0
VERTEX
  5
1FF
  8
DEFAULT
 62
     5
 10
-59.23577877013378
 20
-44.96131680882885
 30
0.0
 42
0.1816333378887386
  0
VERTEX
  5
200
  8
DEFAULT
 62
     5
 10
-59.43880712083129
 20
-44.3748975266999
 30
0.0
 42
0.1294276486644033
  0
VERTEX
  5
201
  8
DEFAULT
 62
     5
 10
-60.14820140359603
 20
-43.95437301195094
 30
0.0
  0
VERTEX
  5
202
  8
DEFAULT
 62
     5
 10
-61.72806213205422
 20
-43.52130972562858
 30
0.0
 42
-0.1173611745411389
  0
VERTEX
  5
203
  8
DEFAULT
 62
     5
 10
-63.95317791694723
 20
-42.53365540464091
 30
0.0
 42
-0.2194381154320315
  0
VERTEX
  5
204
  8
DEFAULT
 62
     5
 10
-64.85306272075104
 20
-40.51687236438443
 30
0.0
 42
-0.1458362056362022
  0
VERTEX
  5
205
  8
DEFAULT
 62
     5
 10
-64.4277151305933
 20
-39.0840987169036
 30
0.0
 42
-0.1522117373762042
  0
VERTEX
  5
206
  8
DEFAULT
 62
     5
 10
-63.20230970685876
 20
-38.06847376105589
 30
0.0
 42
-0.1028686881484189
  0
VERTEX
  5
207
  8
DEFAULT
 62
     5
 10
-61.27088676539029
 20
-37.71980511071636
 30
0.0
 42
-0.1861118845194003
  0
VERTEX
  5
208
  8
DEFAULT
 62
     5
 10
-58.48876817264887
 20
-38.5608541402143
 30
0.0
 42
-0.2120595473349317
  0
VERTEX
  5
209
  8
DEFAULT
 62
     5
 10
-57.50738370840538
 20
-40.80622486380278
 30
0.0
  0
VERTEX
  5
20A
  8
DEFAULT
 62
     5
 10
-59.48269235038069
 20
-40.8679532588645
 30
0.0
 42
0.1870324440294835
  0
VERTEX
  5
20B
  8
DEFAULT
 62
     5
 10
-60.02619092385052
 20
-39.77950791771703
 30
0.0
 42
0.167398033820651
  0
VERTEX
  5
20C
  8
DEFAULT
 62
     5
 10
-61.27763746970717
 20
-39.44820017244476
 30
0.0
 42
0.1590859720640777
  0
VERTEX
  5
20D
  8
DEFAULT
 62
     5
 10
-62.62601789407753
 20
-39.80410272946122
 30
0.0
 42
0.2541960773784195
  0
VERTEX
  5
20E
  8
DEFAULT
 62
     5
 10
-62.93948247383748
 20
-40.41463503384668
 30
0.0
 42
0.2319281523700322
  0
VERTEX
  5
20F
  8
DEFAULT
 62
     5
 10
-62.64434284907753
 20
-41.01262856665878
 30
0.0
 42
0.0933887089371142
  0
VERTEX
  5
210
  8
DEFAULT
 62
     5
 10
-60.82046163208577
 20
-41.6733154863803
 30
0.0
 42
-0.0589888642510224
  0
VERTEX
  5
211
  8
DEFAULT
 62
     5
 10
-58.67781144139508
 20
-42.38656785270609
 30
0.0
 42
-0.1360839882457417
  0
VERTEX
  5
212
  8
DEFAULT
 62
     5
 10
-57.59129561298561
 20
-43.39254759965121
 30
0.0
 42
-0.1400796130821368
  0
VERTEX
  5
213
  8
DEFAULT
 62
     5
 10
-57.19874173309674
 20
-44.96903297595094
 30
0.0
 42
-0.1451940046734268
  0
VERTEX
  5
214
  8
DEFAULT
 62
     5
 10
-57.66990265266944
 20
-46.56336151776301
 30
0.0
 42
-0.1569002318560468
  0
VERTEX
  5
215
  8
DEFAULT
 62
     5
 10
-59.00284980088068
 20
-47.66723919315464
 30
0.0
 42
-0.0985913091522241
  0
VERTEX
  5
216
  8
DEFAULT
 62
     5
 10
-61.15032259602268
 20
-48.02844708602501
 30
0.0
 42
-0.18164314492706
  0
VERTEX
  5
217
  8
DEFAULT
 62
     5
 10
-64.02551604180181
 20
-47.16135599249002
 30
0.0
 42
-0.1921190031285855
  0
SEQEND
  5
218
  8
DEFAULT
 62
     5
  0
POLYLINE
  5
219
  8
DEFAULT
 62
     5
 66
     1
 10
0.0
 20
0.0
 30
0.0
 70
     1
  0
VERTEX
  5
21A
  8
DEFAULT
 62
     5
 10
-55.53207506643005
 20
-40.62103967861759
 30
0.0
  0
VERTEX
  5
21B
  8
DEFAULT
 62
     5
 10
-53.74195160963993
 20
-40.62103967861759
 30
0.0
  0
VERTEX
  5
21C
  8
DEFAULT
 62
     5
 10
-53.74195160963993
 20
-41.67427953631309
 30
0.0
 42
-0.1189653659007598
  0
VERTEX
  5
21D
  8
DEFAULT
 62
     5
 10
-52.81747199409193
 20
-40.78500540421706
 30
0.0
 42
-0.1382105598910345
  0
VERTEX
  5
21E
  8
DEFAULT
 62
     5
 10
-51.52455104995408
 20
-40.43585449343239
 30
0.0
 42
-0.2273648758850382
  0
VERTEX
  5
21F
  8
DEFAULT
 62
     5
 10
-49.42096395531894
 20
-41.42784868746878
 30
0.0
 42
-0.183868218893616
  0
VERTEX
  5
220
  8
DEFAULT
 62
     5
 10
-48.55676642445474
 20
-44.19067686240498
 30
0.0
 42
-0.1823656645300182
  0
VERTEX
  5
221
  8
DEFAULT
 62
     5
 10
-49.42819739103843
 20
-47.01957330545161
 30
0.0
 42
-0.2285594541574926
  0
VERTEX
  5
222
  8
DEFAULT
 62
     5
 10
-51.53998338419825
 20
-48.02844708602501
 30
0.0
 42
-0.1163198006807806
  0
VERTEX
  5
223
  8
DEFAULT
 62
     5
 10
-52.60962103894309
 20
-47.79214276461349
 30
0.0
 42
-0.0904152380777575
  0
VERTEX
  5
224
  8
DEFAULT
 62
     5
 10
-53.61849481951648
 20
-46.98195699073148
 30
0.0
  0
VERTEX
  5
225
  8
DEFAULT
 62
     5
 10
-53.61849481951648
 20
-50.62103967861759
 30
0.0
  0
VERTEX
  5
226
  8
DEFAULT
 62
     5
 10
-55.53207506643005
 20
-50.62103967861759
 30
0.0
  0
SEQEND
  5
227
  8
DEFAULT
 62
     5
  0
POLYLINE
  5
228
  8
DEFAULT
 62
     5
 66
     1
 10
0.0
 20
0.0
 30
0.0
 70
     1
  0
VERTEX
  5
229
  8
DEFAULT
 62
     5
 10
-53.61849481951648
 20
-44.11062257042832
 30
0.0
 42
0.1662127852120608
  0
VERTEX
  5
22A
  8
DEFAULT
 62
     5
 10
-53.14492212676067
 20
-45.95186516344475
 30
0.0
 42
0.2404461653497659
  0
VERTEX
  5
22B
  8
DEFAULT
 62
     5
 10
-51.99137256743555
 20
-46.54696560454351
 30
0.0
 42
0.2413239634427084
  0
VERTEX
  5
22C
  8
DEFAULT
 62
     5
 10
-50.90389174717836
 20
-46.00057252648799
 30
0.0
 42
0.1627449374921747
  0
VERTEX
  5
22D
  8
DEFAULT
 62
     5
 10
-50.47034667136833
 20
-44.20803729651473
 30
0.0
 42
0.166197673138214
  0
VERTEX
  5
22E
  8
DEFAULT
 62
     5
 10
-50.917395039642
 20
-42.4810894870792
 30
0.0
 42
0.2412377667960414
  0
VERTEX
  5
22F
  8
DEFAULT
 62
     5
 10
-52.02416533578946
 20
-41.91733597491389
 30
0.0
 42
0.2367422129321822
  0
VERTEX
  5
230
  8
DEFAULT
 62
     5
 10
-53.16517659449865
 20
-42.47096248868895
 30
0.0
 42
0.1723447809989
  0
SEQEND
  5
231
  8
DEFAULT
 62
     5
  0
POLYLINE
  5
232
  8
DEFAULT
 62
     5
 66
     1
 10
0.0
 20
0.0
 30
0.0
 70
     1
  0
VERTEX
  5
233
  8
DEFAULT
 62
     5
 10
-45.65553185655352
 20
-42.84326190083982
 30
0.0
  0
VERTEX
  5
234
  8
DEFAULT
 62
     5
 10
-47.3839269182819
 20
-42.5963483205929
 30
0.0
 42
-0.1714833175990294
  0
VERTEX
  5
235
  8
DEFAULT
 62
     5
 10
-46.39675438678194
 20
-40.96536798495094
 30
0.0
 42
-0.1608829132837489
  0
VERTEX
  5
236
  8
DEFAULT
 62
     5
 10
-44.31583212019549
 20
-40.43585449343241
 30
0.0
 42
-0.1088364278880931
  0
VERTEX
  5
237
  8
DEFAULT
 62
     5
 10
-42.44854840505695
 20
-40.73919160384463
 30
0.0
 42
-0.1580303644335346
  0
VERTEX
  5
238
  8
DEFAULT
 62
     5
 10
-41.58483313463788
 20
-41.50983202122598
 30
0.0
 42
-0.1088017057953422
  0
VERTEX
  5
239
  8
DEFAULT
 62
     5
 10
-41.33454420223254
 20
-43.22520557997839
 30
0.0
  0
VERTEX
  5
23A
  8
DEFAULT
 62
     5
 10
-41.33454420223254
 20
-45.46286013644476
 30
0.0
 42
0.0514080219695329
  0
VERTEX
  5
23B
  8
DEFAULT
 62
     5
 10
-41.23037735895682
 20
-46.87152170358399
 30
0.0
 42
0.0692287864232419
  0
VERTEX
  5
23C
  8
DEFAULT
 62
     5
 10
-40.84071704173871
 20
-47.84326190083982
 30
0.0
  0
VERTEX
  5
23D
  8
DEFAULT
 62
     5
 10
-42.75429728865228
 20
-47.84326190083982
 30
0.0
  0
VERTEX
  5
23E
  8
DEFAULT
 62
     5
 10
-42.93755343205694
 20
-47.28384826172322
 30
0.0
  0
VERTEX
  5
23F
  8
DEFAULT
 62
     5
 10
-43.00506801054531
 20
-47.06104676181789
 30
0.0
 42
-0.0933244186738059
  0
VERTEX
  5
240
  8
DEFAULT
 62
     5
 10
-44.04962906405831
 20
-47.78635563927193
 30
0.0
 42
-0.1040133466925806
  0
VERTEX
  5
241
  8
DEFAULT
 62
     5
 10
-45.23693544167014
 20
-48.02844708602501
 30
0.0
 42
-0.1965430357596588
  0
VERTEX
  5
242
  8
DEFAULT
 62
     5
 10
-46.98992578610017
 20
-47.42321917557851
 30
0.0
 42
-0.2154369487651068
  0
VERTEX
  5
243
  8
DEFAULT
 62
     5
 10
-47.6308404985288
 20
-45.89302986009633
 30
0.0
 42
-0.1373780248024393
  0
VERTEX
  5
244
  8
DEFAULT
 62
     5
 10
-47.34534655362896
 20
-44.80120916679044
 30
0.0
 42
-0.1473783213971186
  0
VERTEX
  5
245
  8
DEFAULT
 62
     5
 10
-46.54528824909469
 20
-44.06673781183638
 30
0.0
 42
-0.0634404934847157
  0
VERTEX
  5
246
  8
DEFAULT
 62
     5
 10
-45.06139546538753
 20
-43.62161801438577
 30
0.0
 42
0.0472009877729129
  0
VERTEX
  5
247
  8
DEFAULT
 62
     5
 10
-43.2481244491461
 20
-43.15190387614845
 30
0.0
  0
VERTEX
  5
248
  8
DEFAULT
 62
     5
 10
-43.2481244491461
 20
-42.95803800295093
 30
0.0
 42
0.2070921599656426
  0
VERTEX
  5
249
  8
DEFAULT
 62
     5
 10
-43.50420050689304
 20
-42.15653338803872
 30
0.0
 42
0.1777887432707924
  0
VERTEX
  5
24A
  8
DEFAULT
 62
     5
 10
-44.47111809969754
 20
-41.91733597491389
 30
0.0
 42
0.1651091138038839
  0
VERTEX
  5
24B
  8
DEFAULT
 62
     5
 10
-45.22005679704804
 20
-42.12277562783709
 30
0.0
 42
0.1491587679877453
  0
SEQEND
  5
24C
  8
DEFAULT
 62
     5
  0
POLYLINE
  5
24D
  8
DEFAULT
 62
     5
 66
     1
 10
0.0
 20
0.0
 30
0.0
 70
     1
  0
VERTEX
  5
24E
  8
DEFAULT
 62
     5
 10
-43.2481244491461
 20
-44.38647177738304
 30
0.0
  0
VERTEX
  5
24F
  8
DEFAULT
 62
     5
 10
-44.36212865197052
 20
-44.67871689755726
 30
0.0
 42
0.0811165779561128
  0
VERTEX
  5
250
  8
DEFAULT
 62
     5
 10
-45.35846319001305
 20
-45.01147095320746
 30
0.0
 42
0.2517191883486285
  0
VERTEX
  5
251
  8
DEFAULT
 62
     5
 10
-45.71726025161525
 20
-45.68469617354492
 30
0.0
 42
0.4298150945544676
  0
VERTEX
  5
252
  8
DEFAULT
 62
     5
 10
-44.70067030391979
 20
-46.67042239466699
 30
0.0
 42
0.1670482644845784
  0
VERTEX
  5
253
  8
DEFAULT
 62
     5
 10
-43.75641848107892
 20
-46.33091575087002
 30
0.0
 42
0.165161245499131
  0
VERTEX
  5
254
  8
DEFAULT
 62
     5
 10
-43.31949711119552
 20
-45.69819946600856
 30
0.0
 42
0.0593667948163865
  0
VERTEX
  5
255
  8
DEFAULT
 62
     5
 10
-43.2481244491461
 20
-44.76745093563133
 30
0.0
  0
SEQEND
  5
256
  8
DEFAULT
 62
     5
  0
POLYLINE
  5
257
  8
DEFAULT
 62
     5
 66
     1
 10
0.0
 20
0.0
 30
0.0
 70
     1
  0
VERTEX
  5
258
  8
DEFAULT
 62
     5
 10
-39.54442074544241
 20
-48.33708906133364
 30
0.0
  0
VERTEX
  5
259
  8
DEFAULT
 62
     5
 10
-37.32219852322018
 20
-48.58400264158055
 30
0.0
 42
0.1963004846498924
  0
VERTEX
  5
25A
  8
DEFAULT
 62
     5
 10
-37.08010660550963
 20
-49.11737421666012
 30
0.0
 42
0.1652544786658753
  0
VERTEX
  5
25B
  8
DEFAULT
 62
     5
 10
-36.25738347292665
 20
-49.32474338232131
 30
0.0
 42
0.1335897911306573
  0
VERTEX
  5
25C
  8
DEFAULT
 62
     5
 10
-35.1800296510597
 20
-49.10387092419649
 30
0.0
 42
0.1695942548853957
  0
VERTEX
  5
25D
  8
DEFAULT
 62
     5
 10
-34.81448188514065
 20
-48.62740513972733
 30
0.0
 42
0.0745029496056976
  0
VERTEX
  5
25E
  8
DEFAULT
 62
     5
 10
-34.7296059306276
 20
-47.76224308797288
 30
0.0
  0
VERTEX
  5
25F
  8
DEFAULT
 62
     5
 10
-34.7296059306276
 20
-46.72347010171637
 30
0.0
 42
-0.2481650325452942
  0
VERTEX
  5
260
  8
DEFAULT
 62
     5
 10
-36.86405769375105
 20
-47.8432619008398
 30
0.0
 42
-0.2649646906886737
  0
VERTEX
  5
261
  8
DEFAULT
 62
     5
 10
-39.13450501857136
 20
-46.60869399960526
 30
0.0
 42
-0.1513235680991163
  0
VERTEX
  5
262
  8
DEFAULT
 62
     5
 10
-39.79133432568932
 20
-44.18006713261212
 30
0.0
 42
-0.1864728947506874
  0
VERTEX
  5
263
  8
DEFAULT
 62
     5
 10
-38.93051214698358
 20
-41.39746675038305
 30
0.0
 42
-0.2234769942370145
  0
VERTEX
  5
264
  8
DEFAULT
 62
     5
 10
-36.78979052711594
 20
-40.4358544934324
 30
0.0
 42
-0.2545979461410279
  0
VERTEX
  5
265
  8
DEFAULT
 62
     5
 10
-34.60614914050413
 20
-41.62798347549554
 30
0.0
  0
VERTEX
  5
266
  8
DEFAULT
 62
     5
 10
-34.60614914050413
 20
-40.62103967861759
 30
0.0
  0
VERTEX
  5
267
  8
DEFAULT
 62
     5
 10
-32.816025683714
 20
-40.62103967861759
 30
0.0
  0
VERTEX
  5
268
  8
DEFAULT
 62
     5
 10
-32.81602568371401
 20
-47.12277515687961
 30
0.0
 42
-0.0739274830705768
  0
VERTEX
  5
269
  8
DEFAULT
 62
     5
 10
-33.02484115975312
 20
-49.03924896646399
 30
0.0
 42
-0.1231238869312034
  0
VERTEX
  5
26A
  8
DEFAULT
 62
     5
 10
-33.6107786523944
 20
-50.03558397546396
 30
0.0
 42
-0.1133489208680351
  0
VERTEX
  5
26B
  8
DEFAULT
 62
     5
 10
-34.6177229202298
 20
-50.6017492608124
 30
0.0
 42
-0.0770474087797309
  0
VERTEX
  5
26C
  8
DEFAULT
 62
     5
 10
-36.21012289121882
 20
-50.80622486380278
 30
0.0
 42
-0.1675355138834473
  0
VERTEX
  5
26D
  8
DEFAULT
 62
     5
 10
-38.79017624128056
 20
-50.17350857894133
 30
0.0
 42
-0.2345118942080152
  0
VERTEX
  5
26E
  8
DEFAULT
 62
     5
 10
-39.55117144975929
 20
-48.56953482822667
 30
0.0
  0
SEQEND
  5
26F
  8
DEFAULT
 62
     5
  0
POLYLINE
  5
270
  8
DEFAULT
 62
     5
 66
     1
 10
0.0
 20
0.0
 30
0.0
 70
     1
  0
VERTEX
  5
271
  8
DEFAULT
 62
     5
 10
-37.87775407877575
 20
-44.11158709131857
 30
0.0
 42
0.1671831675161592
  0
VERTEX
  5
272
  8
DEFAULT
 62
     5
 10
-37.44083270889235
 20
-45.82020994575409
 30
0.0
 42
0.2386895617245771
  0
VERTEX
  5
273
  8
DEFAULT
 62
     5
 10
-36.36347888702539
 20
-46.36178041935832
 30
0.0
 42
0.2306067024897516
  0
VERTEX
  5
274
  8
DEFAULT
 62
     5
 10
-35.20317815242595
 20
-45.80622486380278
 30
0.0
 42
0.17818147477996
  0
VERTEX
  5
275
  8
DEFAULT
 62
     5
 10
-34.72960593062759
 20
-44.15981219391665
 30
0.0
 42
0.1711933697273352
  0
VERTEX
  5
276
  8
DEFAULT
 62
     5
 10
-35.18292368468795
 20
-42.46951570735354
 30
0.0
 42
0.2363895789849342
  0
VERTEX
  5
277
  8
DEFAULT
 62
     5
 10
-36.33068611867148
 20
-41.9173359749139
 30
0.0
 42
0.2389909455159873
  0
VERTEX
  5
278
  8
DEFAULT
 62
     5
 10
-37.44083270889234
 20
-42.45890597756068
 30
0.0
 42
0.1688350197989185
  0
SEQEND
  5
279
  8
DEFAULT
 62
     5
  0
POLYLINE
  5
27A
  8
DEFAULT
 62
     5
 66
     1
 10
0.0
 20
0.0
 30
0.0
 70
     1
  0
VERTEX
  5
27B
  8
DEFAULT
 62
     5
 10
-28.98886518988684
 20
-37.90499029590154
 30
0.0
  0
VERTEX
  5
27C
  8
DEFAULT
 62
     5
 10
-28.98886518988684
 20
-41.50934928982338
 30
0.0
 42
-0.2297604469665493
  0
VERTEX
  5
27D
  8
DEFAULT
 62
     5
 10
-26.7955776524575
 20
-40.4358544934324
 30
0.0
 42
-0.1105861482598755
  0
VERTEX
  5
27E
  8
DEFAULT
 62
     5
 10
-25.61454018967493
 20
-40.68132129234394
 30
0.0
 42
-0.1329990183628025
  0
VERTEX
  5
27F
  8
DEFAULT
 62
     5
 10
-24.82171579181759
 20
-41.30873224135149
 30
0.0
 42
-0.1017582537502389
  0
VERTEX
  5
280
  8
DEFAULT
 62
     5
 10
-24.45713254678878
 20
-42.15460387530075
 30
0.0
 42
-0.0473229415075489
  0
VERTEX
  5
281
  8
DEFAULT
 62
     5
 10
-24.35923556025722
 20
-43.59364690856825
 30
0.0
  0
VERTEX
  5
282
  8
DEFAULT
 62
     5
 10
-24.35923556025722
 20
-47.84326190083982
 30
0.0
  0
VERTEX
  5
283
  8
DEFAULT
 62
     5
 10
-26.27281580717079
 20
-47.84326190083982
 30
0.0
  0
VERTEX
  5
284
  8
DEFAULT
 62
     5
 10
-26.27281580717078
 20
-44.0267101948906
 30
0.0
 42
0.0632012682018194
  0
VERTEX
  5
285
  8
DEFAULT
 62
     5
 10
-26.37987574215984
 20
-42.58429180946464
 30
0.0
 42
0.1681746719245669
  0
VERTEX
  5
286
  8
DEFAULT
 62
     5
 10
-26.75892632958508
 20
-42.09769855564777
 30
0.0
 42
0.1491915597585494
  0
VERTEX
  5
287
  8
DEFAULT
 62
     5
 10
-27.43986818800209
 20
-41.9173359749139
 30
0.0
 42
0.1438663844543233
  0
VERTEX
  5
288
  8
DEFAULT
 62
     5
 10
-28.27802365482924
 20
-42.14881722091665
 30
0.0
 42
0.1700128950902127
  0
VERTEX
  5
289
  8
DEFAULT
 62
     5
 10
-28.81766508665296
 20
-42.84615499255312
 30
0.0
 42
0.0829006645174924
  0
VERTEX
  5
28A
  8
DEFAULT
 62
     5
 10
-28.98886518988684
 20
-44.2234696307589
 30
0.0
  0
VERTEX
  5
28B
  8
DEFAULT
 62
     5
 10
-28.98886518988684
 20
-47.84326190083982
 30
0.0
  0
VERTEX
  5
28C
  8
DEFAULT
 62
     5
 10
-30.90244543680043
 20
-47.84326190083982
 30
0.0
  0
VERTEX
  5
28D
  8
DEFAULT
 62
     5
 10
-30.90244543680043
 20
-37.90499029590154
 30
0.0
  0
SEQEND
  5
28E
  8
DEFAULT
 62
     5
  0
POLYLINE
  5
28F
  8
DEFAULT
 62
     5
 66
     1
 10
0.0
 20
0.0
 30
0.0
 70
     1
  0
VERTEX
  5
290
  8
DEFAULT
 62
     5
 10
-18.2481244491461
 20
-45.55931128355587
 30
0.0
  0
VERTEX
  5
291
  8
DEFAULT
 62
     5
 10
-16.33454420223253
 20
-45.80622486380278
 30
0.0
 42
-0.1601948643917331
  0
VERTEX
  5
292
  8
DEFAULT
 62
     5
 10
-17.49773849950276
 20
-47.46035275889608
 30
0.0
 42
-0.1590209405814377
  0
VERTEX
  5
293
  8
DEFAULT
 62
     5
 10
-19.48751401291705
 20
-48.02844708602501
 30
0.0
 42
-0.2510606897924166
  0
VERTEX
  5
294
  8
DEFAULT
 62
     5
 10
-22.28458220850004
 20
-46.7900211012294
 30
0.0
 42
-0.1603231689598251
  0
VERTEX
  5
295
  8
DEFAULT
 62
     5
 10
-23.00121086889919
 20
-44.28712706760115
 30
0.0
 42
-0.1928988919450637
  0
VERTEX
  5
296
  8
DEFAULT
 62
     5
 10
-22.05647678561319
 20
-41.45823062455452
 30
0.0
 42
-0.2186957110499501
  0
VERTEX
  5
297
  8
DEFAULT
 62
     5
 10
-19.66787753556588
 20
-40.4358544934324
 30
0.0
 42
-0.224876265082981
  0
VERTEX
  5
298
  8
DEFAULT
 62
     5
 10
-17.10807771132718
 20
-41.49922229143311
 30
0.0
 42
-0.1866850592647353
  0
VERTEX
  5
299
  8
DEFAULT
 62
     5
 10
-16.21108741210907
 20
-44.75684214775339
 30
0.0
  0
VERTEX
  5
29A
  8
DEFAULT
 62
     5
 10
-21.08763062198562
 20
-44.75684214775339
 30
0.0
 42
0.1907233177561264
  0
VERTEX
  5
29B
  8
DEFAULT
 62
     5
 10
-20.61550423960773
 20
-46.07580421401335
 30
0.0
 42
0.2135192120775217
  0
VERTEX
  5
29C
  8
DEFAULT
 62
     5
 10
-19.49040757558782
 20
-46.54696560454352
 30
0.0
 42
0.1657236937100909
  0
VERTEX
  5
29D
  8
DEFAULT
 62
     5
 10
-18.72024988960908
 20
-46.31307258535768
 30
0.0
 42
0.1589948514629532
  0
SEQEND
  5
29E
  8
DEFAULT
 62
     5
  0
POLYLINE
  5
29F
  8
DEFAULT
 62
     5
 66
     1
 10
0.0
 20
0.0
 30
0.0
 70
     1
  0
VERTEX
  5
2A0
  8
DEFAULT
 62
     5
 10
-18.12466765902266
 20
-43.58400264158055
 30
0.0
 42
0.1931771868552487
  0
VERTEX
  5
2A1
  8
DEFAULT
 62
     5
 10
-18.56399986017425
 20
-42.34220083366905
 30
0.0
 42
0.2094545272841114
  0
VERTEX
  5
2A2
  8
DEFAULT
 62
     5
 10
-19.58203611824763
 20
-41.9173359749139
 30
0.0
 42
0.2175151257022405
  0
VERTEX
  5
2A3
  8
DEFAULT
 62
     5
 10
-20.64202856408989
 20
-42.3658306535655
 30
0.0
 42
0.197485040297652
  0
VERTEX
  5
2A4
  8
DEFAULT
 62
     5
 10
-21.05387239082652
 20
-43.58400264158055
 30
0.0
  0
SEQEND
  5
2A5
  8
DEFAULT
 62
     5
  0
POLYLINE
  5
2A6
  8
DEFAULT
 62
     5
 66
     1
 10
0.0
 20
0.0
 30
0.0
 70
     1
  0
VERTEX
  5
2A7
  8
DEFAULT
 62
     5
 10
-11.39627259729426
 20
-40.62103967861759
 30
0.0
  0
VERTEX
  5
2A8
  8
DEFAULT
 62
     5
 10
-11.39627259729426
 20
-42.10252116009909
 30
0.0
  0
VERTEX
  5
2A9
  8
DEFAULT
 62
     5
 10
-12.69256889359056
 20
-42.10252116009909
 30
0.0
  0
VERTEX
  5
2AA
  8
DEFAULT
 62
     5
 10
-12.69256889359056
 20
-45.08477359895232
 30
0.0
  0
VERTEX
  5
2AB
  8
DEFAULT
 62
     5
 10
-12.65591757071815
 20
-46.14042617174587
 30
0.0
 42
0.1777629698041135
  0
VERTEX
  5
2AC
  8
DEFAULT
 62
     5
 10
-12.4905045928258
 20
-46.3878220124379
 30
0.0
 42
0.1671411134725039
  0
VERTEX
  5
2AD
  8
DEFAULT
 62
     5
 10
-12.17559323173049
 20
-46.48523720948179
 30
0.0
 42
0.0818670423875168
  0
VERTEX
  5
2AE
  8
DEFAULT
 62
     5
 10
-11.42713632386767
 20
-46.30294464505246
 30
0.0
  0
VERTEX
  5
2AF
  8
DEFAULT
 62
     5
 10
-11.27281580717079
 20
-47.75066883728976
 30
0.0
 42
-0.1009135694950926
  0
VERTEX
  5
2B0
  8
DEFAULT
 62
     5
 10
-12.76201251385942
 20
-48.02844708602501
 30
0.0
 42
-0.1023112505794195
  0
VERTEX
  5
2B1
  8
DEFAULT
 62
     5
 10
-13.68070500406589
 20
-47.85290663878496
 30
0.0
 42
-0.1427327602513579
  0
VERTEX
  5
2B2
  8
DEFAULT
 62
     5
 10
-14.28111031006108
 20
-47.39910615332201
 30
0.0
 42
-0.1112474266807323
  0
VERTEX
  5
2B3
  8
DEFAULT
 62
     5
 10
-14.54538432441774
 20
-46.64630937241049
 30
0.0
  0
VERTEX
  5
2B4
  8
DEFAULT
 62
     5
 10
-14.60614914050413
 20
-45.28539111838168
 30
0.0
  0
VERTEX
  5
2B5
  8
DEFAULT
 62
     5
 10
-14.60614914050413
 20
-42.10252116009909
 30
0.0
  0
VERTEX
  5
2B6
  8
DEFAULT
 62
     5
 10
-15.53207506643005
 20
-42.10252116009909
 30
0.0
  0
VERTEX
  5
2B7
  8
DEFAULT
 62
     5
 10
-15.53207506643005
 20
-40.62103967861759
 30
0.0
  0
VERTEX
  5
2B8
  8
DEFAULT
 62
     5
 10
-14.60614914050413
 20
-40.62103967861759
 30
0.0
  0
VERTEX
  5
2B9
  8
DEFAULT
 62
     5
 10
-14.60614914050413
 20
-39.26301498725957
 30
0.0
  0
VERTEX
  5
2BA
  8
DEFAULT
 62
     5
 10
-12.69256889359056
 20
-38.15190387614845
 30
0.0
  0
VERTEX
  5
2BB
  8
DEFAULT
 62
     5
 10
-12.69256889359056
 20
-40.62103967861759
 30
0.0
  0
SEQEND
  5
2BC
  8
DEFAULT
 62
     5
  0
POLYLINE
  5
2BD
  8
DEFAULT
 62
     5
 66
     1
 10
0.0
 20
0.0
 30
0.0
 70
     1
  0
VERTEX
  5
2BE
  8
DEFAULT
 62
     5
 10
-6.766642967664637
 20
-40.62103967861759
 30
0.0
  0
VERTEX
  5
2BF
  8
DEFAULT
 62
     5
 10
-6.766642967664637
 20
-42.10252116009909
 30
0.0
  0
VERTEX
  5
2C0
  8
DEFAULT
 62
     5
 10
-8.062939263960914
 20
-42.10252116009909
 30
0.0
  0
VERTEX
  5
2C1
  8
DEFAULT
 62
     5
 10
-8.062939263960914
 20
-45.08477359895232
 30
0.0
  0
VERTEX
  5
2C2
  8
DEFAULT
 62
     5
 10
-8.0262879410885
 20
-46.14042617174587
 30
0.0
 42
0.1777629698041683
  0
VERTEX
  5
2C3
  8
DEFAULT
 62
     5
 10
-7.860874963196183
 20
-46.38782201243792
 30
0.0
 42
0.1671411134724538
  0
VERTEX
  5
2C4
  8
DEFAULT
 62
     5
 10
-7.545963602100841
 20
-46.4852372094818
 30
0.0
 42
0.0818670423875088
  0
VERTEX
  5
2C5
  8
DEFAULT
 62
     5
 10
-6.797506694238024
 20
-46.30294464505246
 30
0.0
  0
VERTEX
  5
2C6
  8
DEFAULT
 62
     5
 10
-6.643186177541167
 20
-47.75066883728977
 30
0.0
 42
-0.1009135694950924
  0
VERTEX
  5
2C7
  8
DEFAULT
 62
     5
 10
-8.132382884229798
 20
-48.02844708602501
 30
0.0
 42
-0.1023112505794212
  0
VERTEX
  5
2C8
  8
DEFAULT
 62
     5
 10
-9.051075374436238
 20
-47.85290663878496
 30
0.0
 42
-0.1427327602513765
  0
VERTEX
  5
2C9
  8
DEFAULT
 62
     5
 10
-9.65148068043143
 20
-47.39910615332201
 30
0.0
 42
-0.1112474266807547
  0
VERTEX
  5
2CA
  8
DEFAULT
 62
     5
 10
-9.915754694788118
 20
-46.64630937241049
 30
0.0
  0
VERTEX
  5
2CB
  8
DEFAULT
 62
     5
 10
-9.97651951087451
 20
-45.28539111838168
 30
0.0
  0
VERTEX
  5
2CC
  8
DEFAULT
 62
     5
 10
-9.97651951087451
 20
-42.10252116009909
 30
0.0
  0
VERTEX
  5
2CD
  8
DEFAULT
 62
     5
 10
-10.90244543680043
 20
-42.10252116009909
 30
0.0
  0
VERTEX
  5
2CE
  8
DEFAULT
 62
     5
 10
-10.90244543680043
 20
-40.62103967861759
 30
0.0
  0
VERTEX
  5
2CF
  8
DEFAULT
 62
     5
 10
-9.97651951087451
 20
-40.62103967861759
 30
0.0
  0
VERTEX
  5
2D0
  8
DEFAULT
 62
     5
 10
-9.97651951087451
 20
-39.26301498725957
 30
0.0
  0
VERTEX
  5
2D1
  8
DEFAULT
 62
     5
 10
-8.062939263960914
 20
-38.15190387614845
 30
0.0
  0
VERTEX
  5
2D2
  8
DEFAULT
 62
     5
 10
-8.062939263960914
 20
-40.62103967861759
 30
0.0
  0
SEQEND
  5
2D3
  8
DEFAULT
 62
     5
  0
POLYLINE
  5
2D4
  8
DEFAULT
 62
     5
 66
     1
 10
0.0
 20
0.0
 30
0.0
 70
     1
  0
VERTEX
  5
2D5
  8
DEFAULT
 62
     5
 10
-5.470346671368333
 20
-39.57165696256823
 30
0.0
  0
VERTEX
  5
2D6
  8
DEFAULT
 62
     5
 10
-5.470346671368333
 20
-37.90499029590154
 30
0.0
  0
VERTEX
  5
2D7
  8
DEFAULT
 62
     5
 10
-3.556766424454736
 20
-37.90499029590154
 30
0.0
  0
VERTEX
  5
2D8
  8
DEFAULT
 62
     5
 10
-3.556766424454736
 20
-39.57165696256823
 30
0.0
  0
SEQEND
  5
2D9
  8
DEFAULT
 62
     5
  0
POLYLINE
  5
2DA
  8
DEFAULT
 62
     5
 66
     1
 10
0.0
 20
0.0
 30
0.0
 70
     1
  0
VERTEX
  5
2DB
  8
DEFAULT
 62
     5
 10
-5.470346671368333
 20
-47.84326190083982
 30
0.0
  0
VERTEX
  5
2DC
  8
DEFAULT
 62
     5
 10
-5.470346671368333
 20
-40.62103967861759
 30
0.0
  0
VERTEX
  5
2DD
  8
DEFAULT
 62
     5
 10
-3.556766424454736
 20
-40.62103967861759
 30
0.0
  0
VERTEX
  5
2DE
  8
DEFAULT
 62
     5
 10
-3.556766424454736
 20
-47.84326190083982
 30
0.0
  0
SEQEND
  5
2DF
  8
DEFAULT
 62
     5
  0
POLYLINE
  5
2E0
  8
DEFAULT
 62
     5
 66
     1
 10
0.0
 20
0.0
 30
0.0
 70
     1
  0
VERTEX
  5
2E1
  8
DEFAULT
 62
     5
 10
1.998789131100807
 20
-40.62103967861759
 30
0.0
  0
VERTEX
  5
2E2
  8
DEFAULT
 62
     5
 10
3.727184192829213
 20
-40.62103967861759
 30
0.0
  0
VERTEX
  5
2E3
  8
DEFAULT
 62
     5
 10
3.727184192829212
 20
-41.6000133115929
 30
0.0
 42
-0.2373869490350199
  0
VERTEX
  5
2E4
  8
DEFAULT
 62
     5
 10
5.973519437307914
 20
-40.4358544934324
 30
0.0
 42
-0.1315120310734562
  0
VERTEX
  5
2E5
  8
DEFAULT
 62
     5
 10
7.173847317895707
 20
-40.72520605093584
 30
0.0
 42
-0.1393853272245029
  0
VERTEX
  5
2E6
  8
DEFAULT
 62
     5
 10
8.008627432564424
 20
-41.6000133115929
 30
0.0
 42
-0.1018343532165941
  0
VERTEX
  5
2E7
  8
DEFAULT
 62
     5
 10
9.030039513753765
 20
-40.72520605093584
 30
0.0
 42
-0.1239296679571133
  0
VERTEX
  5
2E8
  8
DEFAULT
 62
     5
 10
10.19998592821327
 20
-40.4358544934324
 30
0.0
 42
-0.1355305589142076
  0
VERTEX
  5
2E9
  8
DEFAULT
 62
     5
 10
11.53968472265632
 20
-40.75992833202776
 30
0.0
 42
-0.1623661969580422
  0
VERTEX
  5
2EA
  8
DEFAULT
 62
     5
 10
12.35855071359327
 20
-41.71093133014298
 30
0.0
 42
-0.0915442810314289
  0
VERTEX
  5
2EB
  8
DEFAULT
 62
     5
 10
12.55434468665635
 20
-43.21170322942967
 30
0.0
  0
VERTEX
  5
2EC
  8
DEFAULT
 62
     5
 10
12.55434468665635
 20
-47.84326190083982
 30
0.0
  0
VERTEX
  5
2ED
  8
DEFAULT
 62
     5
 10
10.64076443974278
 20
-47.84326190083982
 30
0.0
  0
VERTEX
  5
2EE
  8
DEFAULT
 62
     5
 10
10.64076443974278
 20
-43.71324561513066
 30
0.0
 42
0.1141470137910813
  0
VERTEX
  5
2EF
  8
DEFAULT
 62
     5
 10
10.4459349875699
 20
-42.3253217180895
 30
0.0
 42
0.2721000606534076
  0
VERTEX
  5
2F0
  8
DEFAULT
 62
     5
 10
9.638643247316168
 20
-41.9173359749139
 30
0.0
 42
0.1575639071466329
  0
VERTEX
  5
2F1
  8
DEFAULT
 62
     5
 10
8.892597170721503
 20
-42.16232051338028
 30
0.0
 42
0.1657627374474169
  0
VERTEX
  5
2F2
  8
DEFAULT
 62
     5
 10
8.38816028043482
 20
-42.87991275275479
 30
0.0
 42
0.072343748725486
  0
VERTEX
  5
2F3
  8
DEFAULT
 62
     5
 10
8.23335703233539
 20
-44.3729684849194
 30
0.0
  0
VERTEX
  5
2F4
  8
DEFAULT
 62
     5
 10
8.233357032335391
 20
-47.84326190083982
 30
0.0
  0
VERTEX
  5
2F5
  8
DEFAULT
 62
     5
 10
6.319776785421766
 20
-47.84326190083982
 30
0.0
  0
VERTEX
  5
2F6
  8
DEFAULT
 62
     5
 10
6.319776785421769
 20
-43.88396392887685
 30
0.0
 42
0.0609892367974971
  0
VERTEX
  5
2F7
  8
DEFAULT
 62
     5
 10
6.219950757109702
 20
-42.52256341440292
 30
0.0
 42
0.1633931196985305
  0
VERTEX
  5
2F8
  8
DEFAULT
 62
     5
 10
5.90986247142314
 20
-42.06683435811692
 30
0.0
 42
0.1561218014297056
  0
VERTEX
  5
2F9
  8
DEFAULT
 62
     5
 10
5.339838631556233
 20
-41.9173359749139
 30
0.0
 42
0.1551837175468111
  0
VERTEX
  5
2FA
  8
DEFAULT
 62
     5
 10
4.559071215784627
 20
-42.15556886714847
 30
0.0
 42
0.1670025847935555
  0
VERTEX
  5
2FB
  8
DEFAULT
 62
     5
 10
4.062350492619999
 20
-42.84277916943722
 30
0.0
 42
0.0722698594962512
  0
VERTEX
  5
2FC
  8
DEFAULT
 62
     5
 10
3.912369378014374
 20
-44.33245860752845
 30
0.0
  0
VERTEX
  5
2FD
  8
DEFAULT
 62
     5
 10
3.912369378014375
 20
-47.84326190083982
 30
0.0
  0
VERTEX
  5
2FE
  8
DEFAULT
 62
     5
 10
1.998789131100807
 20
-47.84326190083982
 30
0.0
  0
SEQEND
  5
2FF
  8
DEFAULT
 62
     5
  0
POLYLINE
  5
300
  8
DEFAULT
 62
     5
 66
     1
 10
0.0
 20
0.0
 30
0.0
 70
     1
  0
VERTEX
  5
301
  8
DEFAULT
 62
     5
 10
18.66545579776749
 20
-45.55931128355587
 30
0.0
  0
VERTEX
  5
302
  8
DEFAULT
 62
     5
 10
20.57903604468106
 20
-45.80622486380278
 30
0.0
 42
-0.1601948643917259
  0
VERTEX
  5
303
  8
DEFAULT
 62
     5
 10
19.41584174741081
 20
-47.46035275889608
 30
0.0
 42
-0.1590209405814416
  0
VERTEX
  5
304
  8
DEFAULT
 62
     5
 10
17.42606623399655
 20
-48.02844708602501
 30
0.0
 42
-0.2510606897924198
  0
VERTEX
  5
305
  8
DEFAULT
 62
     5
 10
14.62899803841356
 20
-46.7900211012294
 30
0.0
 42
-0.1603231689598295
  0
VERTEX
  5
306
  8
DEFAULT
 62
     5
 10
13.91236937801438
 20
-44.28712706760115
 30
0.0
 42
-0.1928988919450624
  0
VERTEX
  5
307
  8
DEFAULT
 62
     5
 10
14.85710346130037
 20
-41.45823062455452
 30
0.0
 42
-0.2186957110499481
  0
VERTEX
  5
308
  8
DEFAULT
 62
     5
 10
17.24570271134774
 20
-40.43585449343241
 30
0.0
 42
-0.2248762650829819
  0
VERTEX
  5
309
  8
DEFAULT
 62
     5
 10
19.80550253558642
 20
-41.49922229143311
 30
0.0
 42
-0.1866850592647387
  0
VERTEX
  5
30A
  8
DEFAULT
 62
     5
 10
20.7024928348045
 20
-44.75684214775339
 30
0.0
  0
VERTEX
  5
30B
  8
DEFAULT
 62
     5
 10
15.82594962492795
 20
-44.75684214775339
 30
0.0
 42
0.1907233177560892
  0
VERTEX
  5
30C
  8
DEFAULT
 62
     5
 10
16.29807600730584
 20
-46.07580421401334
 30
0.0
 42
0.2135192120775148
  0
VERTEX
  5
30D
  8
DEFAULT
 62
     5
 10
17.42317267132574
 20
-46.54696560454352
 30
0.0
 42
0.165723693710084
  0
VERTEX
  5
30E
  8
DEFAULT
 62
     5
 10
18.19333035730449
 20
-46.31307258535767
 30
0.0
 42
0.1589948514629395
  0
SEQEND
  5
30F
  8
DEFAULT
 62
     5
  0
POLYLINE
  5
310
  8
DEFAULT
 62
     5
 66
     1
 10
0.0
 20
0.0
 30
0.0
 70
     1
  0
VERTEX
  5
311
  8
DEFAULT
 62
     5
 10
18.78891258789093
 20
-43.58400264158055
 30
0.0
 42
0.1931771868552379
  0
VERTEX
  5
312
  8
DEFAULT
 62
     5
 10
18.34958038673932
 20
-42.34220083366904
 30
0.0
 42
0.2094545272841089
  0
VERTEX
  5
313
  8
DEFAULT
 62
     5
 10
17.33154412866594
 20
-41.9173359749139
 30
0.0
 42
0.2175151257022389
  0
VERTEX
  5
314
  8
DEFAULT
 62
     5
 10
16.27155168282372
 20
-42.3658306535655
 30
0.0
 42
0.1974850402976962
  0
VERTEX
  5
315
  8
DEFAULT
 62
     5
 10
15.85970785608709
 20
-43.58400264158055
 30
0.0
  0
SEQEND
  5
316
  8
DEFAULT
 62
     5
  0
POLYLINE
  5
317
  8
DEFAULT
 62
     5
 66
     1
 10
0.0
 20
0.0
 30
0.0
 70
     1
  0
VERTEX
  5
318
  8
DEFAULT
 62
     5
 10
23.60372740270572
 20
-42.84326190083982
 30
0.0
  0
VERTEX
  5
319
  8
DEFAULT
 62
     5
 10
21.87533234097731
 20
-42.59634832059291
 30
0.0
 42
-0.1714833175990194
  0
VERTEX
  5
31A
  8
DEFAULT
 62
     5
 10
22.86250487247736
 20
-40.96536798495094
 30
0.0
 42
-0.160882913283754
  0
VERTEX
  5
31B
  8
DEFAULT
 62
     5
 10
24.94342713906377
 20
-40.4358544934324
 30
0.0
 42
-0.1088364278880924
  0
VERTEX
  5
31C
  8
DEFAULT
 62
     5
 10
26.81071085420228
 20
-40.73919160384463
 30
0.0
 42
-0.1580303644335434
  0
VERTEX
  5
31D
  8
DEFAULT
 62
     5
 10
27.67442612462134
 20
-41.50983202122598
 30
0.0
 42
-0.1088017057953651
  0
VERTEX
  5
31E
  8
DEFAULT
 62
     5
 10
27.92471505702673
 20
-43.22520557997839
 30
0.0
  0
VERTEX
  5
31F
  8
DEFAULT
 62
     5
 10
27.92471505702673
 20
-45.46286013644476
 30
0.0
 42
0.0514080219695334
  0
VERTEX
  5
320
  8
DEFAULT
 62
     5
 10
28.02888190030245
 20
-46.87152170358399
 30
0.0
 42
0.0692287864232412
  0
VERTEX
  5
321
  8
DEFAULT
 62
     5
 10
28.41854221752055
 20
-47.84326190083982
 30
0.0
  0
VERTEX
  5
322
  8
DEFAULT
 62
     5
 10
26.50496197060698
 20
-47.84326190083982
 30
0.0
  0
VERTEX
  5
323
  8
DEFAULT
 62
     5
 10
26.32170582720232
 20
-47.28384826172322
 30
0.0
  0
VERTEX
  5
324
  8
DEFAULT
 62
     5
 10
26.25419124871393
 20
-47.06104676181789
 30
0.0
 42
-0.0933244186738043
  0
VERTEX
  5
325
  8
DEFAULT
 62
     5
 10
25.20963019520093
 20
-47.78635563927192
 30
0.0
 42
-0.1040133466925826
  0
VERTEX
  5
326
  8
DEFAULT
 62
     5
 10
24.0223238175891
 20
-48.02844708602501
 30
0.0
 42
-0.1965430357596529
  0
VERTEX
  5
327
  8
DEFAULT
 62
     5
 10
22.26933347315907
 20
-47.42321917557851
 30
0.0
 42
-0.2154369487651098
  0
VERTEX
  5
328
  8
DEFAULT
 62
     5
 10
21.62841876073043
 20
-45.89302986009633
 30
0.0
 42
-0.1373780248024468
  0
VERTEX
  5
329
  8
DEFAULT
 62
     5
 10
21.91391270563031
 20
-44.80120916679044
 30
0.0
 42
-0.1473783213971419
  0
VERTEX
  5
32A
  8
DEFAULT
 62
     5
 10
22.71397101016458
 20
-44.06673781183639
 30
0.0
 42
-0.0634404934847192
  0
VERTEX
  5
32B
  8
DEFAULT
 62
     5
 10
24.1978637938717
 20
-43.62161801438577
 30
0.0
 42
0.0472009877729069
  0
VERTEX
  5
32C
  8
DEFAULT
 62
     5
 10
26.01113481011316
 20
-43.15190387614845
 30
0.0
  0
VERTEX
  5
32D
  8
DEFAULT
 62
     5
 10
26.01113481011316
 20
-42.95803800295093
 30
0.0
 42
0.2070921599656631
  0
VERTEX
  5
32E
  8
DEFAULT
 62
     5
 10
25.75505875236621
 20
-42.15653338803873
 30
0.0
 42
0.1777887432708045
  0
VERTEX
  5
32F
  8
DEFAULT
 62
     5
 10
24.78814115956169
 20
-41.9173359749139
 30
0.0
 42
0.1651091138038848
  0
VERTEX
  5
330
  8
DEFAULT
 62
     5
 10
24.03920246221122
 20
-42.12277562783708
 30
0.0
 42
0.1491587679877627
  0
SEQEND
  5
331
  8
DEFAULT
 62
     5
  0
POLYLINE
  5
332
  8
DEFAULT
 62
     5
 66
     1
 10
0.0
 20
0.0
 30
0.0
 70
     1
  0
VERTEX
  5
333
  8
DEFAULT
 62
     5
 10
26.01113481011316
 20
-44.38647177738304
 30
0.0
  0
VERTEX
  5
334
  8
DEFAULT
 62
     5
 10
24.89713060728872
 20
-44.67871689755726
 30
0.0
 42
0.0811165779560998
  0
VERTEX
  5
335
  8
DEFAULT
 62
     5
 10
23.90079606924615
 20
-45.01147095320746
 30
0.0
 42
0.2517191883486091
  0
VERTEX
  5
336
  8
DEFAULT
 62
     5
 10
23.54199900764399
 20
-45.68469617354492
 30
0.0
 42
0.429815094554478
  0
VERTEX
  5
337
  8
DEFAULT
 62
     5
 10
24.55858895533947
 20
-46.67042239466699
 30
0.0
 42
0.1670482644845796
  0
VERTEX
  5
338
  8
DEFAULT
 62
     5
 10
25.50284077818031
 20
-46.33091575087002
 30
0.0
 42
0.1651612454991366
  0
VERTEX
  5
339
  8
DEFAULT
 62
     5
 10
25.93976214806372
 20
-45.69819946600856
 30
0.0
 42
0.0593667948164121
  0
VERTEX
  5
33A
  8
DEFAULT
 62
     5
 10
26.01113481011316
 20
-44.76745093563133
 30
0.0
  0
SEQEND
  5
33B
  8
DEFAULT
 62
     5
  0
POLYLINE
  5
33C
  8
DEFAULT
 62
     5
 66
     1
 10
0.0
 20
0.0
 30
0.0
 70
     1
  0
VERTEX
  5
33D
  8
DEFAULT
 62
     5
 10
29.22101135332304
 20
-45.80622486380278
 30
0.0
  0
VERTEX
  5
33E
  8
DEFAULT
 62
     5
 10
31.13459160023661
 20
-45.55931128355587
 30
0.0
 42
0.1817134537412905
  0
VERTEX
  5
33F
  8
DEFAULT
 62
     5
 10
31.62986601302328
 20
-46.3878220124379
 30
0.0
 42
0.1637490318832744
  0
VERTEX
  5
340
  8
DEFAULT
 62
     5
 10
32.67297981424343
 20
-46.67042239466699
 30
0.0
 42
0.1581548590316417
  0
VERTEX
  5
341
  8
DEFAULT
 62
     5
 10
33.78505544624482
 20
-46.39360866682198
 30
0.0
 42
0.2454173628752732
  0
VERTEX
  5
342
  8
DEFAULT
 62
     5
 10
34.03582616813781
 20
-45.87470396318139
 30
0.0
 42
0.1967133408659006
  0
VERTEX
  5
343
  8
DEFAULT
 62
     5
 10
33.89983154835596
 20
-45.50819167637206
 30
0.0
 42
0.1152480441762451
  0
VERTEX
  5
344
  8
DEFAULT
 62
     5
 10
33.25939909637242
 20
-45.25259740811282
 30
0.0
 42
-0.0750101977649375
  0
VERTEX
  5
345
  8
DEFAULT
 62
     5
 10
30.32537176011727
 20
-44.30834652718688
 30
0.0
 42
-0.2630575377237361
  0
VERTEX
  5
346
  8
DEFAULT
 62
     5
 10
29.46792493356992
 20
-42.6706145453131
 30
0.0
 42
-0.2278055359034112
  0
VERTEX
  5
347
  8
DEFAULT
 62
     5
 10
30.20914793475578
 20
-41.08014455801952
 30
0.0
 42
-0.178940957779903
  0
VERTEX
  5
348
  8
DEFAULT
 62
     5
 10
32.50708410494855
 20
-40.4358544934324
 30
0.0
 42
-0.1478680227512955
  0
VERTEX
  5
349
  8
DEFAULT
 62
     5
 10
34.710016380323
 20
-40.93498604786521
 30
0.0
 42
-0.1798681362132154
  0
VERTEX
  5
34A
  8
DEFAULT
 62
     5
 10
35.7024928348045
 20
-42.41116313540772
 30
0.0
  0
VERTEX
  5
34B
  8
DEFAULT
 62
     5
 10
33.91236937801438
 20
-42.71980511071635
 30
0.0
 42
0.1762609448243981
  0
VERTEX
  5
34C
  8
DEFAULT
 62
     5
 10
33.47448395819816
 20
-42.03259433747014
 30
0.0
 42
0.1598214678236513
  0
VERTEX
  5
34D
  8
DEFAULT
 62
     5
 10
32.55434468665635
 20
-41.79387918479043
 30
0.0
 42
0.1371855487857699
  0
VERTEX
  5
34E
  8
DEFAULT
 62
     5
 10
31.47506276492385
 20
-42.0079990547685
 30
0.0
 42
0.2593740206710555
  0
VERTEX
  5
34F
  8
DEFAULT
 62
     5
 10
31.25804839036005
 20
-42.40248244739539
 30
0.0
 42
0.2456185528239754
  0
VERTEX
  5
350
  8
DEFAULT
 62
     5
 10
31.44805617999651
 20
-42.75549144174107
 30
0.0
 42
0.0664798749578769
  0
VERTEX
  5
351
  8
DEFAULT
 62
     5
 10
33.22757037795129
 20
-43.30188404883916
 30
0.0
 42
-0.1095214193377512
  0
VERTEX
  5
352
  8
DEFAULT
 62
     5
 10
35.35237740312959
 20
-44.1607767148069
 30
0.0
 42
-0.2284114958797678
  0
VERTEX
  5
353
  8
DEFAULT
 62
     5
 10
35.94940641505144
 20
-45.59113953101954
 30
0.0
 42
-0.2276229810650904
  0
VERTEX
  5
354
  8
DEFAULT
 62
     5
 10
35.12186020705963
 20
-47.30988985480277
 30
0.0
 42
-0.180972224282539
  0
VERTEX
  5
355
  8
DEFAULT
 62
     5
 10
32.67297981424343
 20
-48.02844708602501
 30
0.0
 42
-0.1534212868271936
  0
VERTEX
  5
356
  8
DEFAULT
 62
     5
 10
30.34321445467214
 20
-47.43045308225546
 30
0.0
 42
-0.1853542620165998
  0
SEQEND
  5
357
  8
DEFAULT
 62
     5
  0
POLYLINE
  5
358
  8
DEFAULT
 62
     5
 66
     1
 10
0.0
 20
0.0
 30
0.0
 70
     1
  0
VERTEX
  5
359
  8
DEFAULT
 62
     5
 10
42.36915950147119
 20
-47.84326190083982
 30
0.0
  0
VERTEX
  5
35A
  8
DEFAULT
 62
     5
 10
42.36915950147119
 20
-46.76976616253393
 30
0.0
 42
-0.1223972716446173
  0
VERTEX
  5
35B
  8
DEFAULT
 62
     5
 10
41.34099624500749
 20
-47.68604735051471
 30
0.0
 42
-0.1257588650398528
  0
VERTEX
  5
35C
  8
DEFAULT
 62
     5
 10
39.99551032522288
 20
-48.028447086025
 30
0.0
 42
-0.1301059334599622
  0
VERTEX
  5
35D
  8
DEFAULT
 62
     5
 10
38.70162533115223
 20
-47.70774859958811
 30
0.0
 42
-0.1670007383232181
  0
VERTEX
  5
35E
  8
DEFAULT
 62
     5
 10
37.87214961042247
 20
-46.80738200629662
 30
0.0
 42
-0.1009427833083605
  0
VERTEX
  5
35F
  8
DEFAULT
 62
     5
 10
37.61607308171807
 20
-45.20437230551474
 30
0.0
  0
VERTEX
  5
360
  8
DEFAULT
 62
     5
 10
37.61607308171807
 20
-40.62103967861759
 30
0.0
  0
VERTEX
  5
361
  8
DEFAULT
 62
     5
 10
39.5296533286317
 20
-40.62103967861759
 30
0.0
  0
VERTEX
  5
362
  8
DEFAULT
 62
     5
 10
39.5296533286317
 20
-43.93701163592624
 30
0.0
 42
0.050373006625949
  0
VERTEX
  5
363
  8
DEFAULT
 62
     5
 10
39.63382017190737
 20
-45.80284856972941
 30
0.0
 42
0.1675734251047458
  0
VERTEX
  5
364
  8
DEFAULT
 62
     5
 10
40.01383575118035
 20
-46.34634808511419
 30
0.0
 42
0.1610647544742146
  0
VERTEX
  5
365
  8
DEFAULT
 62
     5
 10
40.71310256459736
 20
-46.54696560454351
 30
0.0
 42
0.157851889473401
  0
VERTEX
  5
366
  8
DEFAULT
 62
     5
 10
41.58019365813237
 20
-46.27835030426576
 30
0.0
 42
0.1591085904631127
  0
VERTEX
  5
367
  8
DEFAULT
 62
     5
 10
42.10440275571188
 20
-45.61235851964778
 30
0.0
 42
0.0627948021468494
  0
VERTEX
  5
368
  8
DEFAULT
 62
     5
 10
42.24570271134775
 20
-43.66598503342283
 30
0.0
  0
VERTEX
  5
369
  8
DEFAULT
 62
     5
 10
42.24570271134775
 20
-40.62103967861759
 30
0.0
  0
VERTEX
  5
36A
  8
DEFAULT
 62
     5
 10
44.15928295826126
 20
-40.62103967861759
 30
0.0
  0
VERTEX
  5
36B
  8
DEFAULT
 62
     5
 10
44.15928295826126
 20
-47.84326190083982
 30
0.0
  0
SEQEND
  5
36C
  8
DEFAULT
 62
     5
  0
POLYLINE
  5
36D
  8
DEFAULT
 62
     5
 66
     1
 10
0.0
 20
0.0
 30
0.0
 70
     1
  0
VERTEX
  5
36E
  8
DEFAULT
 62
     5
 10
47.98644345208845
 20
-47.84326190083982
 30
0.0
  0
VERTEX
  5
36F
  8
DEFAULT
 62
     5
 10
46.07286320517488
 20
-47.84326190083982
 30
0.0
  0
VERTEX
  5
370
  8
DEFAULT
 62
     5
 10
46.07286320517488
 20
-40.62103967861759
 30
0.0
  0
VERTEX
  5
371
  8
DEFAULT
 62
     5
 10
47.86298666196501
 20
-40.62103967861759
 30
0.0
  0
VERTEX
  5
372
  8
DEFAULT
 62
     5
 10
47.86298666196501
 20
-41.6405222470689
 30
0.0
 42
-0.0977550519460467
  0
VERTEX
  5
373
  8
DEFAULT
 62
     5
 10
48.64713037180996
 20
-40.67698094833776
 30
0.0
 42
-0.1561720185079377
  0
VERTEX
  5
374
  8
DEFAULT
 62
     5
 10
49.43706120699653
 20
-40.4358544934324
 30
0.0
 42
-0.1438170981369837
  0
VERTEX
  5
375
  8
DEFAULT
 62
     5
 10
50.64076443974278
 20
-40.79947321757095
 30
0.0
  0
VERTEX
  5
376
  8
DEFAULT
 62
     5
 10
50.0543451576138
 20
-42.47481963033506
 30
0.0
 42
0.1496770151887684
  0
VERTEX
  5
377
  8
DEFAULT
 62
     5
 10
49.20172187743276
 20
-42.16424955516081
 30
0.0
 42
0.1810970994866586
  0
VERTEX
  5
378
  8
DEFAULT
 62
     5
 10
48.55502051061995
 20
-42.38560333181581
 30
0.0
 42
0.1501348396487552
  0
VERTEX
  5
379
  8
DEFAULT
 62
     5
 10
48.13835360847457
 20
-43.18566116539264
 30
0.0
 42
0.0509111359642141
  0
VERTEX
  5
37A
  8
DEFAULT
 62
     5
 10
47.98644345208845
 20
-45.60946542793448
 30
0.0
  0
SEQEND
  5
37B
  8
DEFAULT
 62
     5
  0
POLYLINE
  5
37C
  8
DEFAULT
 62
     5
 66
     1
 10
0.0
 20
0.0
 30
0.0
 70
     1
  0
VERTEX
  5
37D
  8
DEFAULT
 62
     5
 10
51.44323357554526
 20
-39.57165696256823
 30
0.0
  0
VERTEX
  5
37E
  8
DEFAULT
 62
     5
 10
51.44323357554526
 20
-37.90499029590154
 30
0.0
  0
VERTEX
  5
37F
  8
DEFAULT
 62
     5
 10
53.35681382245883
 20
-37.90499029590154
 30
0.0
  0
VERTEX
  5
380
  8
DEFAULT
 62
     5
 10
53.35681382245883
 20
-39.57165696256823
 30
0.0
  0
SEQEND
  5
381
  8
DEFAULT
 62
     5
  0
POLYLINE
  5
382
  8
DEFAULT
 62
     5
 66
     1
 10
0.0
 20
0.0
 30
0.0
 70
     1
  0
VERTEX
  5
383
  8
DEFAULT
 62
     5
 10
51.44323357554526
 20
-47.84326190083982
 30
0.0
  0
VERTEX
  5
384
  8
DEFAULT
 62
     5
 10
51.44323357554526
 20
-40.62103967861759
 30
0.0
  0
VERTEX
  5
385
  8
DEFAULT
 62
     5
 10
53.35681382245883
 20
-40.62103967861759
 30
0.0
  0
VERTEX
  5
386
  8
DEFAULT
 62
     5
 10
53.35681382245883
 20
-47.84326190083982
 30
0.0
  0
SEQEND
  5
387
  8
DEFAULT
 62
     5
  0
POLYLINE
  5
388
  8
DEFAULT
 62
     5
 66
     1
 10
0.0
 20
0.0
 30
0.0
 70
     1
  0
VERTEX
  5
389
  8
DEFAULT
 62
     5
 10
61.81360394591564
 20
-47.84326190083982
 30
0.0
  0
VERTEX
  5
38A
  8
DEFAULT
 62
     5
 10
59.90002369900202
 20
-47.84326190083982
 30
0.0
  0
VERTEX
  5
38B
  8
DEFAULT
 62
     5
 10
59.90002369900202
 20
-44.15595411035562
 30
0.0
 42
0.065904340344177
  0
VERTEX
  5
38C
  8
DEFAULT
 62
     5
 10
59.77946047154938
 20
-42.64167938956274
 30
0.0
 42
0.160013069576559
  0
VERTEX
  5
38D
  8
DEFAULT
 62
     5
 10
59.38787111255073
 20
-42.10782555403804
 30
0.0
 42
0.1575149176298097
  0
VERTEX
  5
38E
  8
DEFAULT
 62
     5
 10
58.73586488084152
 20
-41.9173359749139
 30
0.0
 42
0.1576987046345097
  0
VERTEX
  5
38F
  8
DEFAULT
 62
     5
 10
57.85961130980655
 20
-42.18932662735011
 30
0.0
 42
0.1684371822617909
  0
VERTEX
  5
390
  8
DEFAULT
 62
     5
 10
57.32768604510494
 20
-42.91029468984052
 30
0.0
 42
0.0659809918576835
  0
VERTEX
  5
391
  8
DEFAULT
 62
     5
 10
57.18397431628597
 20
-44.57069244167795
 30
0.0
  0
VERTEX
  5
392
  8
DEFAULT
 62
     5
 10
57.18397431628597
 20
-47.84326190083982
 30
0.0
  0
VERTEX
  5
393
  8
DEFAULT
 62
     5
 10
55.2703940693724
 20
-47.84326190083982
 30
0.0
  0
VERTEX
  5
394
  8
DEFAULT
 62
     5
 10
55.2703940693724
 20
-40.62103967861759
 30
0.0
  0
VERTEX
  5
395
  8
DEFAULT
 62
     5
 10
57.06051752616253
 20
-40.62103967861759
 30
0.0
  0
VERTEX
  5
396
  8
DEFAULT
 62
     5
 10
57.06051752616253
 20
-41.67427953631309
 30
0.0
 42
-0.248629612198851
  0
VERTEX
  5
397
  8
DEFAULT
 62
     5
 10
59.41391270563031
 20
-40.4358544934324
 30
0.0
 42
-0.1053164015608073
  0
VERTEX
  5
398
  8
DEFAULT
 62
     5
 10
60.55637027471738
 20
-40.66444217676437
 30
0.0
 42
-0.1292191717088504
  0
VERTEX
  5
399
  8
DEFAULT
 62
     5
 10
61.33954946367214
 20
-41.2474861067349
 30
0.0
 42
-0.1054932374261734
  0
VERTEX
  5
39A
  8
DEFAULT
 62
     5
 10
61.70943757359737
 20
-42.052366544763
 30
0.0
 42
-0.0533641385177248
  0
VERTEX
  5
39B
  8
DEFAULT
 62
     5
 10
61.81360394591564
 20
-43.34191072387003
 30
0.0
  0
SEQEND
  5
39C
  8
DEFAULT
 62
     5
  0
POLYLINE
  5
39D
  8
DEFAULT
 62
     5
 66
     1
 10
0.0
 20
0.0
 30
0.0
 70
     1
  0
VERTEX
  5
39E
  8
DEFAULT
 62
     5
 10
63.54199900764399
 20
-48.33708906133364
 30
0.0
  0
VERTEX
  5
39F
  8
DEFAULT
 62
     5
 10
65.76422122986624
 20
-48.58400264158055
 30
0.0
 42
0.1963004846499239
  0
VERTEX
  5
3A0
  8
DEFAULT
 62
     5
 10
66.0063131475768
 20
-49.11737421666011
 30
0.0
 42
0.1652544786658833
  0
VERTEX
  5
3A1
  8
DEFAULT
 62
     5
 10
66.82903628015976
 20
-49.32474338232132
 30
0.0
 42
0.1335897911306624
  0
VERTEX
  5
3A2
  8
DEFAULT
 62
     5
 10
67.9063901020267
 20
-49.10387092419649
 30
0.0
 42
0.1695942548854099
  0
VERTEX
  5
3A3
  8
DEFAULT
 62
     5
 10
68.27193786794578
 20
-48.62740513972733
 30
0.0
 42
0.0745029496056934
  0
VERTEX
  5
3A4
  8
DEFAULT
 62
     5
 10
68.35681382245883
 20
-47.76224308797288
 30
0.0
  0
VERTEX
  5
3A5
  8
DEFAULT
 62
     5
 10
68.35681382245883
 20
-46.72347010171637
 30
0.0
 42
-0.2481650325452857
  0
VERTEX
  5
3A6
  8
DEFAULT
 62
     5
 10
66.22236205933535
 20
-47.84326190083981
 30
0.0
 42
-0.2649646906886551
  0
VERTEX
  5
3A7
  8
DEFAULT
 62
     5
 10
63.95191473451503
 20
-46.60869399960526
 30
0.0
 42
-0.1513235680991181
  0
VERTEX
  5
3A8
  8
DEFAULT
 62
     5
 10
63.29508542739705
 20
-44.18006713261212
 30
0.0
 42
-0.1864728947506977
  0
VERTEX
  5
3A9
  8
DEFAULT
 62
     5
 10
64.15590760610286
 20
-41.39746675038304
 30
0.0
 42
-0.2234769942370113
  0
VERTEX
  5
3AA
  8
DEFAULT
 62
     5
 10
66.29662922597043
 20
-40.43585449343239
 30
0.0
 42
-0.2545979461410356
  0
VERTEX
  5
3AB
  8
DEFAULT
 62
     5
 10
68.48027061258227
 20
-41.62798347549554
 30
0.0
  0
VERTEX
  5
3AC
  8
DEFAULT
 62
     5
 10
68.48027061258227
 20
-40.62103967861759
 30
0.0
  0
VERTEX
  5
3AD
  8
DEFAULT
 62
     5
 10
70.2703940693724
 20
-40.62103967861759
 30
0.0
  0
VERTEX
  5
3AE
  8
DEFAULT
 62
     5
 10
70.2703940693724
 20
-47.12277515687961
 30
0.0
 42
-0.073927483070568
  0
VERTEX
  5
3AF
  8
DEFAULT
 62
     5
 10
70.06157859333331
 20
-49.03924896646399
 30
0.0
 42
-0.1231238869311962
  0
VERTEX
  5
3B0
  8
DEFAULT
 62
     5
 10
69.47564110069203
 20
-50.03558397546396
 30
0.0
 42
-0.1133489208680092
  0
VERTEX
  5
3B1
  8
DEFAULT
 62
     5
 10
68.46869683285661
 20
-50.6017492608124
 30
0.0
 42
-0.0770474087797331
  0
VERTEX
  5
3B2
  8
DEFAULT
 62
     5
 10
66.87629686186762
 20
-50.80622486380277
 30
0.0
 42
-0.1675355138834508
  0
VERTEX
  5
3B3
  8
DEFAULT
 62
     5
 10
64.29624351180586
 20
-50.17350857894132
 30
0.0
 42
-0.2345118942080142
  0
VERTEX
  5
3B4
  8
DEFAULT
 62
     5
 10
63.53524830332714
 20
-48.56953482822667
 30
0.0
  0
SEQEND
  5
3B5
  8
DEFAULT
 62
     5
  0
POLYLINE
  5
3B6
  8
DEFAULT
 62
     5
 66
     1
 10
0.0
 20
0.0
 30
0.0
 70
     1
  0
VERTEX
  5
3B7
  8
DEFAULT
 62
     5
 10
65.20866567431068
 20
-44.11158709131857
 30
0.0
 42
0.1671831675161597
  0
VERTEX
  5
3B8
  8
DEFAULT
 62
     5
 10
65.64558704419407
 20
-45.82020994575411
 30
0.0
 42
0.2386895617245717
  0
VERTEX
  5
3B9
  8
DEFAULT
 62
     5
 10
66.72294086606104
 20
-46.36178041935833
 30
0.0
 42
0.2306067024897439
  0
VERTEX
  5
3BA
  8
DEFAULT
 62
     5
 10
67.88324160066048
 20
-45.80622486380278
 30
0.0
 42
0.1781814747799574
  0
VERTEX
  5
3BB
  8
DEFAULT
 62
     5
 10
68.35681382245883
 20
-44.15981219391665
 30
0.0
 42
0.1711933697273412
  0
VERTEX
  5
3BC
  8
DEFAULT
 62
     5
 10
67.90349606839847
 20
-42.46951570735353
 30
0.0
 42
0.2363895789849211
  0
VERTEX
  5
3BD
  8
DEFAULT
 62
     5
 10
66.75573363441492
 20
-41.9173359749139
 30
0.0
 42
0.2389909455159872
  0
VERTEX
  5
3BE
  8
DEFAULT
 62
     5
 10
65.64558704419409
 20
-42.45890597756068
 30
0.0
 42
0.1688350197989219
  0
SEQEND
  5
3BF
  8
DEFAULT
 62
     5
  0
POLYLINE
  5
3C0
  8
DEFAULT
 62
     5
 66
     1
 10
0.0
 20
0.0
 30
0.0
 70
     1
  0
VERTEX
  5
3C1
  8
DEFAULT
 62
     5
 10
79.34446814344648
 20
-40.62103967861759
 30
0.0
  0
VERTEX
  5
3C2
  8
DEFAULT
 62
     5
 10
79.34446814344648
 20
-42.10252116009909
 30
0.0
  0
VERTEX
  5
3C3
  8
DEFAULT
 62
     5
 10
78.04817184715017
 20
-42.10252116009909
 30
0.0
  0
VERTEX
  5
3C4
  8
DEFAULT
 62
     5
 10
78.04817184715017
 20
-45.08477359895232
 30
0.0
  0
VERTEX
  5
3C5
  8
DEFAULT
 62
     5
 10
78.08482317002262
 20
-46.14042617174587
 30
0.0
 42
0.1777629698040247
  0
VERTEX
  5
3C6
  8
DEFAULT
 62
     5
 10
78.2502361479149
 20
-46.38782201243792
 30
0.0
 42
0.16714111347244
  0
VERTEX
  5
3C7
  8
DEFAULT
 62
     5
 10
78.56514750901027
 20
-46.48523720948179
 30
0.0
 42
0.0818670423875074
  0
VERTEX
  5
3C8
  8
DEFAULT
 62
     5
 10
79.31360441687309
 20
-46.30294464505246
 30
0.0
  0
VERTEX
  5
3C9
  8
DEFAULT
 62
     5
 10
79.46792493356992
 20
-47.75066883728977
 30
0.0
 42
-0.1009135694950971
  0
VERTEX
  5
3CA
  8
DEFAULT
 62
     5
 10
77.97872822688129
 20
-48.02844708602502
 30
0.0
 42
-0.1023112505794098
  0
VERTEX
  5
3CB
  8
DEFAULT
 62
     5
 10
77.0600357366748
 20
-47.85290663878497
 30
0.0
 42
-0.1427327602513417
  0
VERTEX
  5
3CC
  8
DEFAULT
 62
     5
 10
76.4596304306797
 20
-47.399106153322
 30
0.0
 42
-0.1112474266808124
  0
VERTEX
  5
3CD
  8
DEFAULT
 62
     5
 10
76.19535641632302
 20
-46.64630937241049
 30
0.0
  0
VERTEX
  5
3CE
  8
DEFAULT
 62
     5
 10
76.1345916002366
 20
-45.28539111838168
 30
0.0
  0
VERTEX
  5
3CF
  8
DEFAULT
 62
     5
 10
76.1345916002366
 20
-42.10252116009909
 30
0.0
  0
VERTEX
  5
3D0
  8
DEFAULT
 62
     5
 10
75.20866567431068
 20
-42.10252116009909
 30
0.0
  0
VERTEX
  5
3D1
  8
DEFAULT
 62
     5
 10
75.20866567431068
 20
-40.62103967861759
 30
0.0
  0
VERTEX
  5
3D2
  8
DEFAULT
 62
     5
 10
76.1345916002366
 20
-40.62103967861759
 30
0.0
  0
VERTEX
  5
3D3
  8
DEFAULT
 62
     5
 10
76.1345916002366
 20
-39.26301498725957
 30
0.0
  0
VERTEX
  5
3D4
  8
DEFAULT
 62
     5
 10
78.04817184715017
 20
-38.15190387614845
 30
0.0
  0
VERTEX
  5
3D5
  8
DEFAULT
 62
     5
 10
78.04817184715017
 20
-40.62103967861759
 30
0.0
  0
SEQEND
  5
3D6
  8
DEFAULT
 62
     5
  0
POLYLINE
  5
3D7
  8
DEFAULT
 62
     5
 66
     1
 10
0.0
 20
0.0
 30
0.0
 70
     1
  0
VERTEX
  5
3D8
  8
DEFAULT
 62
     5
 10
80.20866567431068
 20
-44.12991298823351
 30
0.0
 42
-0.1222574291832584
  0
VERTEX
  5
3D9
  8
DEFAULT
 62
     5
 10
80.67500446038952
 20
-42.27613162364367
 30
0.0
 42
-0.1509199207835905
  0
VERTEX
  5
3DA
  8
DEFAULT
 62
     5
 10
81.99637829983261
 20
-40.90797993389539
 30
0.0
 42
-0.1287246067144081
  0
VERTEX
  5
3DB
  8
DEFAULT
 62
     5
 10
83.90561867369746
 20
-40.4358544934324
 30
0.0
 42
-0.2109274079128292
  0
VERTEX
  5
3DC
  8
DEFAULT
 62
     5
 10
86.57537105368107
 20
-41.50645619811004
 30
0.0
 42
-0.2026212639801676
  0
VERTEX
  5
3DD
  8
DEFAULT
 62
     5
 10
87.61607308171806
 20
-44.21189538007579
 30
0.0
 42
-0.202229597332319
  0
VERTEX
  5
3DE
  8
DEFAULT
 62
     5
 10
86.56524405529075
 20
-46.94434208888373
 30
0.0
 42
-0.2115506096600915
  0
VERTEX
  5
3DF
  8
DEFAULT
 62
     5
 10
83.91912102424618
 20
-48.02844708602502
 30
0.0
 42
-0.1188796278362176
  0
VERTEX
  5
3E0
  8
DEFAULT
 62
     5
 10
82.0368872353086
 20
-47.57705790278772
 30
0.0
 42
-0.1582355798320202
  0
VERTEX
  5
3E1
  8
DEFAULT
 62
     5
 10
80.67500446038952
 20
-46.25327276111898
 30
0.0
 42
-0.1239053267140272
  0
SEQEND
  5
3E2
  8
DEFAULT
 62
     5
  0
POLYLINE
  5
3E3
  8
DEFAULT
 62
     5
 66
     1
 10
0.0
 20
0.0
 30
0.0
 70
     1
  0
VERTEX
  5
3E4
  8
DEFAULT
 62
     5
 10
82.12224592122425
 20
-44.23215031877123
 30
0.0
 42
0.1807696907208412
  0
VERTEX
  5
3E5
  8
DEFAULT
 62
     5
 10
82.62186020705968
 20
-45.90460411077947
 30
0.0
 42
0.4777036397637661
  0
VERTEX
  5
3E6
  8
DEFAULT
 62
     5
 10
85.08279805291903
 20
-45.90460411077947
 30
0.0
 42
0.1794408075869616
  0
VERTEX
  5
3E7
  8
DEFAULT
 62
     5
 10
85.57903604468098
 20
-44.21864702630759
 30
0.0
 42
0.1800932450793788
  0
VERTEX
  5
3E8
  8
DEFAULT
 62
     5
 10
85.08279805291903
 20
-42.55969699772049
 30
0.0
 42
0.4793729384846476
  0
VERTEX
  5
3E9
  8
DEFAULT
 62
     5
 10
82.62186020705968
 20
-42.55969699772049
 30
0.0
 42
0.1807697890868693
  0
SEQEND
  5
3EA
  8
DEFAULT
 62
     5
  0
POLYLINE
  5
3EB
  8
DEFAULT
 62
     5
 66
     1
 10
0.0
 20
0.0
 30
0.0
 70
     1
  0
VERTEX
  5
3EC
  8
DEFAULT
 62
     5
 10
88.66545579776749
 20
-44.12991298823351
 30
0.0
 42
-0.1222574291832597
  0
VERTEX
  5
3ED
  8
DEFAULT
 62
     5
 10
89.13179458384633
 20
-42.27613162364366
 30
0.0
 42
-0.1509199207835892
  0
VERTEX
  5
3EE
  8
DEFAULT
 62
     5
 10
90.45316842328941
 20
-40.90797993389537
 30
0.0
 42
-0.1287246067144058
  0
VERTEX
  5
3EF
  8
DEFAULT
 62
     5
 10
92.36240879715427
 20
-40.43585449343239
 30
0.0
 42
-0.2109274079128317
  0
VERTEX
  5
3F0
  8
DEFAULT
 62
     5
 10
95.03216117713782
 20
-41.50645619811004
 30
0.0
 42
-0.2026212639801771
  0
VERTEX
  5
3F1
  8
DEFAULT
 62
     5
 10
96.07286320517488
 20
-44.21189538007579
 30
0.0
 42
-0.2022295973323192
  0
VERTEX
  5
3F2
  8
DEFAULT
 62
     5
 10
95.02203417874755
 20
-46.94434208888372
 30
0.0
 42
-0.2115506096600965
  0
VERTEX
  5
3F3
  8
DEFAULT
 62
     5
 10
92.375911147703
 20
-48.02844708602502
 30
0.0
 42
-0.1188796278362187
  0
VERTEX
  5
3F4
  8
DEFAULT
 62
     5
 10
90.4936773587654
 20
-47.57705790278771
 30
0.0
 42
-0.1582355798320191
  0
VERTEX
  5
3F5
  8
DEFAULT
 62
     5
 10
89.13179458384634
 20
-46.25327276111898
 30
0.0
 42
-0.1239053267140335
  0
SEQEND
  5
3F6
  8
DEFAULT
 62
     5
  0
POLYLINE
  5
3F7
  8
DEFAULT
 62
     5
 66
     1
 10
0.0
 20
0.0
 30
0.0
 70
     1
  0
VERTEX
  5
3F8
  8
DEFAULT
 62
     5
 10
90.579036044681
 20
-44.23215031877123
 30
0.0
 42
0.1807696907208422
  0
VERTEX
  5
3F9
  8
DEFAULT
 62
     5
 10
91.07865033051644
 20
-45.90460411077947
 30
0.0
 42
0.4777036397637644
  0
VERTEX
  5
3FA
  8
DEFAULT
 62
     5
 10
93.53958817637584
 20
-45.90460411077947
 30
0.0
 42
0.1794408075869626
  0
VERTEX
  5
3FB
  8
DEFAULT
 62
     5
 10
94.0358261681378
 20
-44.21864702630759
 30
0.0
 42
0.1800932450793798
  0
VERTEX
  5
3FC
  8
DEFAULT
 62
     5
 10
93.53958817637584
 20
-42.55969699772049
 30
0.0
 42
0.4793729384846396
  0
VERTEX
  5
3FD
  8
DEFAULT
 62
     5
 10
91.07865033051644
 20
-42.55969699772049
 30
0.0
 42
0.1807697890868693
  0
SEQEND
  5
3FE
  8
DEFAULT
 62
     5
  0
POLYLINE
  5
3FF
  8
DEFAULT
 62
     5
 66
     1
 10
0.0
 20
0.0
 30
0.0
 70
     1
  0
VERTEX
  5
400
  8
DEFAULT
 62
     5
 10
97.55434468665635
 20
-47.84326190083982
 30
0.0
  0
VERTEX
  5
401
  8
DEFAULT
 62
     5
 10
97.55434468665635
 20
-37.90499029590154
 30
0.0
  0
VERTEX
  5
402
  8
DEFAULT
 62
     5
 10
99.46792493356992
 20
-37.90499029590154
 30
0.0
  0
VERTEX
  5
403
  8
DEFAULT
 62
     5
 10
99.46792493356992
 20
-47.84326190083982
 30
0.0
  0
SEQEND
  5
404
  8
DEFAULT
 62
     5
  0
POLYLINE
  5
405
  8
DEFAULT
 62
     5
 66
     1
 10
0.0
 20
0.0
 30
0.0
 70
     1
  0
VERTEX
  5
406
  8
DEFAULT
 62
     5
 10
105.2086656743107
 20
-40.62103967861759
 30
0.0
  0
VERTEX
  5
407
  8
DEFAULT
 62
     5
 10
106.9987891311008
 20
-40.62103967861759
 30
0.0
  0
VERTEX
  5
408
  8
DEFAULT
 62
     5
 10
106.9987891311008
 20
-41.67427953631309
 30
0.0
 42
-0.1189653659007572
  0
VERTEX
  5
409
  8
DEFAULT
 62
     5
 10
107.9232687466488
 20
-40.78500540421705
 30
0.0
 42
-0.1382105598910397
  0
VERTEX
  5
40A
  8
DEFAULT
 62
     5
 10
109.2161896907866
 20
-40.4358544934324
 30
0.0
 42
-0.2273648758850368
  0
VERTEX
  5
40B
  8
DEFAULT
 62
     5
 10
111.3197767854218
 20
-41.42784868746879
 30
0.0
 42
-0.1838682188936148
  0
VERTEX
  5
40C
  8
DEFAULT
 62
     5
 10
112.183974316286
 20
-44.19067686240498
 30
0.0
 42
-0.1823656645300186
  0
VERTEX
  5
40D
  8
DEFAULT
 62
     5
 10
111.3125433497023
 20
-47.01957330545161
 30
0.0
 42
-0.2285594541574952
  0
VERTEX
  5
40E
  8
DEFAULT
 62
     5
 10
109.2007573565425
 20
-48.028447086025
 30
0.0
 42
-0.1163198006807876
  0
VERTEX
  5
40F
  8
DEFAULT
 62
     5
 10
108.1311197017977
 20
-47.79214276461349
 30
0.0
 42
-0.0904152380777678
  0
VERTEX
  5
410
  8
DEFAULT
 62
     5
 10
107.1222459212242
 20
-46.98195699073148
 30
0.0
  0
VERTEX
  5
411
  8
DEFAULT
 62
     5
 10
107.1222459212242
 20
-50.62103967861759
 30
0.0
  0
VERTEX
  5
412
  8
DEFAULT
 62
     5
 10
105.2086656743107
 20
-50.62103967861759
 30
0.0
  0
SEQEND
  5
413
  8
DEFAULT
 62
     5
  0
POLYLINE
  5
414
  8
DEFAULT
 62
     5
 66
     1
 10
0.0
 20
0.0
 30
0.0
 70
     1
  0
VERTEX
  5
415
  8
DEFAULT
 62
     5
 10
107.1222459212242
 20
-44.11062257042832
 30
0.0
 42
0.1662127852120517
  0
VERTEX
  5
416
  8
DEFAULT
 62
     5
 10
107.5958186139801
 20
-45.95186516344475
 30
0.0
 42
0.2404461653497606
  0
VERTEX
  5
417
  8
DEFAULT
 62
     5
 10
108.7493681733052
 20
-46.54696560454352
 30
0.0
 42
0.2413239634427151
  0
VERTEX
  5
418
  8
DEFAULT
 62
     5
 10
109.8368489935623
 20
-46.00057252648799
 30
0.0
 42
0.1627449374921767
  0
VERTEX
  5
419
  8
DEFAULT
 62
     5
 10
110.2703940693724
 20
-44.20803729651473
 30
0.0
 42
0.1661976731382108
  0
VERTEX
  5
41A
  8
DEFAULT
 62
     5
 10
109.8233457010987
 20
-42.4810894870792
 30
0.0
 42
0.2412377667960517
  0
VERTEX
  5
41B
  8
DEFAULT
 62
     5
 10
108.7165754049512
 20
-41.91733597491388
 30
0.0
 42
0.2367422129321844
  0
VERTEX
  5
41C
  8
DEFAULT
 62
     5
 10
107.5755641462421
 20
-42.47096248868895
 30
0.0
 42
0.1723447809989005
  0
SEQEND
  5
41D
  8
DEFAULT
 62
     5
  0
POLYLINE
  5
41E
  8
DEFAULT
 62
     5
 66
     1
 10
0.0
 20
0.0
 30
0.0
 70
     1
  0
VERTEX
  5
41F
  8
DEFAULT
 62
     5
 10
113.6654557977675
 20
-47.84326190083982
 30
0.0
  0
VERTEX
  5
420
  8
DEFAULT
 62
     5
 10
113.6654557977675
 20
-37.90499029590154
 30
0.0
  0
VERTEX
  5
421
  8
DEFAULT
 62
     5
 10
115.579036044681
 20
-37.90499029590154
 30
0.0
  0
VERTEX
  5
422
  8
DEFAULT
 62
     5
 10
115.579036044681
 20
-47.84326190083982
 30
0.0
  0
SEQEND
  5
423
  8
DEFAULT
 62
     5
  0
POLYLINE
  5
424
  8
DEFAULT
 62
     5
 66
     1
 10
0.0
 20
0.0
 30
0.0
 70
     1
  0
VERTEX
  5
425
  8
DEFAULT
 62
     5
 10
118.9123693780144
 20
-42.84326190083982
 30
0.0
  0
VERTEX
  5
426
  8
DEFAULT
 62
     5
 10
117.183974316286
 20
-42.59634832059291
 30
0.0
 42
-0.1714833175990097
  0
VERTEX
  5
427
  8
DEFAULT
 62
     5
 10
118.171146847786
 20
-40.96536798495094
 30
0.0
 42
-0.1608829132837491
  0
VERTEX
  5
428
  8
DEFAULT
 62
     5
 10
120.2520691143724
 20
-40.43585449343241
 30
0.0
 42
-0.1088364278880975
  0
VERTEX
  5
429
  8
DEFAULT
 62
     5
 10
122.1193528295109
 20
-40.73919160384462
 30
0.0
 42
-0.1580303644335432
  0
VERTEX
  5
42A
  8
DEFAULT
 62
     5
 10
122.98306809993
 20
-41.50983202122598
 30
0.0
 42
-0.1088017057953595
  0
VERTEX
  5
42B
  8
DEFAULT
 62
     5
 10
123.2333570323354
 20
-43.22520557997839
 30
0.0
  0
VERTEX
  5
42C
  8
DEFAULT
 62
     5
 10
123.2333570323354
 20
-45.46286013644476
 30
0.0
 42
0.0514080219695331
  0
VERTEX
  5
42D
  8
DEFAULT
 62
     5
 10
123.3375238756111
 20
-46.87152170358399
 30
0.0
 42
0.0692287864232215
  0
VERTEX
  5
42E
  8
DEFAULT
 62
     5
 10
123.7271841928292
 20
-47.84326190083982
 30
0.0
  0
VERTEX
  5
42F
  8
DEFAULT
 62
     5
 10
121.8136039459156
 20
-47.84326190083982
 30
0.0
  0
VERTEX
  5
430
  8
DEFAULT
 62
     5
 10
121.6303478025109
 20
-47.28384826172322
 30
0.0
  0
VERTEX
  5
431
  8
DEFAULT
 62
     5
 10
121.5628332240226
 20
-47.06104676181789
 30
0.0
 42
-0.0933244186738132
  0
VERTEX
  5
432
  8
DEFAULT
 62
     5
 10
120.5182721705095
 20
-47.78635563927194
 30
0.0
 42
-0.1040133466925944
  0
VERTEX
  5
433
  8
DEFAULT
 62
     5
 10
119.3309657928978
 20
-48.02844708602502
 30
0.0
 42
-0.1965430357596681
  0
VERTEX
  5
434
  8
DEFAULT
 62
     5
 10
117.5779754484677
 20
-47.42321917557851
 30
0.0
 42
-0.2154369487650979
  0
VERTEX
  5
435
  8
DEFAULT
 62
     5
 10
116.9370607360391
 20
-45.89302986009633
 30
0.0
 42
-0.1373780248024243
  0
VERTEX
  5
436
  8
DEFAULT
 62
     5
 10
117.2225546809389
 20
-44.80120916679044
 30
0.0
 42
-0.1473783213971207
  0
VERTEX
  5
437
  8
DEFAULT
 62
     5
 10
118.0226129854732
 20
-44.06673781183639
 30
0.0
 42
-0.0634404934847223
  0
VERTEX
  5
438
  8
DEFAULT
 62
     5
 10
119.5065057691804
 20
-43.62161801438577
 30
0.0
 42
0.0472009877729145
  0
VERTEX
  5
439
  8
DEFAULT
 62
     5
 10
121.3197767854218
 20
-43.15190387614846
 30
0.0
  0
VERTEX
  5
43A
  8
DEFAULT
 62
     5
 10
121.3197767854218
 20
-42.95803800295093
 30
0.0
 42
0.2070921599656204
  0
VERTEX
  5
43B
  8
DEFAULT
 62
     5
 10
121.0637007276749
 20
-42.15653338803871
 30
0.0
 42
0.1777887432707957
  0
VERTEX
  5
43C
  8
DEFAULT
 62
     5
 10
120.0967831348703
 20
-41.91733597491389
 30
0.0
 42
0.1651091138038867
  0
VERTEX
  5
43D
  8
DEFAULT
 62
     5
 10
119.3478444375199
 20
-42.12277562783709
 30
0.0
 42
0.1491587679877553
  0
SEQEND
  5
43E
  8
DEFAULT
 62
     5
  0
POLYLINE
  5
43F
  8
DEFAULT
 62
     5
 66
     1
 10
0.0
 20
0.0
 30
0.0
 70
     1
  0
VERTEX
  5
440
  8
DEFAULT
 62
     5
 10
121.3197767854218
 20
-44.38647177738304
 30
0.0
  0
VERTEX
  5
441
  8
DEFAULT
 62
     5
 10
120.2057725825974
 20
-44.67871689755724
 30
0.0
 42
0.0811165779560978
  0
VERTEX
  5
442
  8
DEFAULT
 62
     5
 10
119.2094380445548
 20
-45.01147095320746
 30
0.0
 42
0.2517191883486091
  0
VERTEX
  5
443
  8
DEFAULT
 62
     5
 10
118.8506409829527
 20
-45.68469617354492
 30
0.0
 42
0.4298150945544842
  0
VERTEX
  5
444
  8
DEFAULT
 62
     5
 10
119.8672309306481
 20
-46.67042239466698
 30
0.0
 42
0.1670482644845863
  0
VERTEX
  5
445
  8
DEFAULT
 62
     5
 10
120.811482753489
 20
-46.33091575087001
 30
0.0
 42
0.1651612454990774
  0
VERTEX
  5
446
  8
DEFAULT
 62
     5
 10
121.2484041233724
 20
-45.69819946600856
 30
0.0
 42
0.0593667948163625
  0
VERTEX
  5
447
  8
DEFAULT
 62
     5
 10
121.3197767854218
 20
-44.76745093563133
 30
0.0
  0
SEQEND
  5
448
  8
DEFAULT
 62
     5
  0
POLYLINE
  5
449
  8
DEFAULT
 62
     5
 66
     1
 10
0.0
 20
0.0
 30
0.0
 70
     1
  0
VERTEX
  5
44A
  8
DEFAULT
 62
     5
 10
131.7518755508539
 20
-47.84326190083982
 30
0.0
  0
VERTEX
  5
44B
  8
DEFAULT
 62
     5
 10
129.8382953039403
 20
-47.84326190083982
 30
0.0
  0
VERTEX
  5
44C
  8
DEFAULT
 62
     5
 10
129.8382953039403
 20
-44.15595411035562
 30
0.0
 42
0.0659043403441872
  0
VERTEX
  5
44D
  8
DEFAULT
 62
     5
 10
129.7177320764876
 20
-42.64167938956274
 30
0.0
 42
0.1600130695766221
  0
VERTEX
  5
44E
  8
DEFAULT
 62
     5
 10
129.326142717489
 20
-42.10782555403806
 30
0.0
 42
0.1575149176298337
  0
VERTEX
  5
44F
  8
DEFAULT
 62
     5
 10
128.6741364857798
 20
-41.91733597491388
 30
0.0
 42
0.1576987046345251
  0
VERTEX
  5
450
  8
DEFAULT
 62
     5
 10
127.7978829147448
 20
-42.18932662735011
 30
0.0
 42
0.1684371822617004
  0
VERTEX
  5
451
  8
DEFAULT
 62
     5
 10
127.2659576500432
 20
-42.91029468984053
 30
0.0
 42
0.0659809918576599
  0
VERTEX
  5
452
  8
DEFAULT
 62
     5
 10
127.1222459212242
 20
-44.57069244167795
 30
0.0
  0
VERTEX
  5
453
  8
DEFAULT
 62
     5
 10
127.1222459212242
 20
-47.84326190083982
 30
0.0
  0
VERTEX
  5
454
  8
DEFAULT
 62
     5
 10
125.2086656743107
 20
-47.84326190083982
 30
0.0
  0
VERTEX
  5
455
  8
DEFAULT
 62
     5
 10
125.2086656743107
 20
-40.62103967861759
 30
0.0
  0
VERTEX
  5
456
  8
DEFAULT
 62
     5
 10
126.9987891311008
 20
-40.62103967861759
 30
0.0
  0
VERTEX
  5
457
  8
DEFAULT
 62
     5
 10
126.9987891311008
 20
-41.67427953631309
 30
0.0
 42
-0.2486296121988565
  0
VERTEX
  5
458
  8
DEFAULT
 62
     5
 10
129.3521843105686
 20
-40.4358544934324
 30
0.0
 42
-0.1053164015607974
  0
VERTEX
  5
459
  8
DEFAULT
 62
     5
 10
130.4946418796557
 20
-40.66444217676437
 30
0.0
 42
-0.1292191717088312
  0
VERTEX
  5
45A
  8
DEFAULT
 62
     5
 10
131.2778210686104
 20
-41.2474861067349
 30
0.0
 42
-0.1054932374261642
  0
VERTEX
  5
45B
  8
DEFAULT
 62
     5
 10
131.6477091785356
 20
-42.052366544763
 30
0.0
 42
-0.0533641385176985
  0
VERTEX
  5
45C
  8
DEFAULT
 62
     5
 10
131.7518755508539
 20
-43.34191072387003
 30
0.0
  0
SEQEND
  5
45D
  8
DEFAULT
 62
     5
  0
ENDSEC
  0
EOF
