  0
SECTION
  2
HEADER
  9
$ACADVER
  1
AC1009
  9
$DWGCODEPAGE
  3
ansi_1252
  9
$INSBASE
 10
0.0
 20
0.0
 30
0.0
  9
$EXTMIN
 10
-128.206827123505
 20
-109.8887481409754
 30
0.0
  9
$EXTMAX
 10
127.96807056362
 20
168.9194020569946
 30
0.0
  9
$LIMMIN
 10
0.0
 20
0.0
  9
$LIMMAX
 10
12.0
 20
9.0
  9
$ORTHOMODE
 70
     0
  9
$REGENMODE
 70
     1
  9
$FILLMODE
 70
     1
  9
$QTEXTMODE
 70
     0
  9
$MIRRTEXT
 70
     1
  9
$DRAGMODE
 70
     2
  9
$LTSCALE
 40
1.0
  9
$OSMODE
 70
    37
  9
$ATTMODE
 70
     1
  9
$TEXTSIZE
 40
0.2
  9
$TRACEWID
 40
0.05
  9
$TEXTSTYLE
  7
STANDARD
  9
$CLAYER
  8
DEFAULT
  9
$CELTYPE
  6
BYLAYER
  9
$CECOLOR
 62
   256
  9
$DIMSCALE
 40
1.0
  9
$DIMASZ
 40
0.18
  9
$DIMEXO
 40
0.0625
  9
$DIMDLI
 40
0.38
  9
$DIMRND
 40
0.0
  9
$DIMDLE
 40
0.0
  9
$DIMEXE
 40
0.18
  9
$DIMTP
 40
0.0
  9
$DIMTM
 40
0.0
  9
$DIMTXT
 40
0.18
  9
$DIMCEN
 40
0.09
  9
$DIMTSZ
 40
0.0
  9
$DIMTOL
 70
     0
  9
$DIMLIM
 70
     0
  9
$DIMTIH
 70
     1
  9
$DIMTOH
 70
     1
  9
$DIMSE1
 70
     0
  9
$DIMSE2
 70
     0
  9
$DIMTAD
 70
     0
  9
$DIMZIN
 70
     0
  9
$DIMBLK
  1

  9
$DIMASO
 70
     1
  9
$DIMSHO
 70
     1
  9
$DIMPOST
  1

  9
$DIMAPOST
  1

  9
$DIMALT
 70
     0
  9
$DIMALTD
 70
     2
  9
$DIMALTF
 40
25.4
  9
$DIMLFAC
 40
1.0
  9
$DIMTOFL
 70
     0
  9
$DIMTVP
 40
0.0
  9
$DIMTIX
 70
     0
  9
$DIMSOXD
 70
     0
  9
$DIMSAH
 70
     0
  9
$DIMBLK1
  1

  9
$DIMBLK2
  1

  9
$DIMSTYLE
  2
STANDARD
  9
$DIMCLRD
 70
     0
  9
$DIMCLRE
 70
     0
  9
$DIMCLRT
 70
     0
  9
$DIMTFAC
 40
1.0
  9
$DIMGAP
 40
0.09
  9
$LUNITS
 70
     2
  9
$LUPREC
 70
     4
  9
$SKETCHINC
 40
0.1
  9
$FILLETRAD
 40
0.5
  9
$AUNITS
 70
     0
  9
$AUPREC
 70
     0
  9
$MENU
  1
.
  9
$ELEVATION
 40
0.0
  9
$PELEVATION
 40
0.0
  9
$THICKNESS
 40
0.0
  9
$LIMCHECK
 70
     0
  9
$CHAMFERA
 40
0.0
  9
$CHAMFERB
 40
0.0
  9
$SKPOLY
 70
     0
  9
$TDCREATE
 40
2458791.583332222
  9
$TDUPDATE
 40
2458791.583346157
  9
$TDINDWG
 40
0.0000000116
  9
$TDUSRTIMER
 40
0.0000000116
  9
$USRTIMER
 70
     1
  9
$ANGBASE
 50
0.0
  9
$ANGDIR
 70
     0
  9
$PDMODE
 70
     0
  9
$PDSIZE
 40
0.0
  9
$PLINEWID
 40
0.0
  9
$COORDS
 70
     1
  9
$SPLFRAME
 70
     0
  9
$SPLINETYPE
 70
     6
  9
$SPLINESEGS
 70
     8
  9
$ATTDIA
 70
     0
  9
$ATTREQ
 70
     1
  9
$HANDLING
 70
     1
  9
$HANDSEED
  5
583
  9
$SURFTAB1
 70
     6
  9
$SURFTAB2
 70
     6
  9
$SURFTYPE
 70
     6
  9
$SURFU
 70
     6
  9
$SURFV
 70
     6
  9
$UCSNAME
  2

  9
$UCSORG
 10
0.0
 20
0.0
 30
0.0
  9
$UCSXDIR
 10
1.0
 20
0.0
 30
0.0
  9
$UCSYDIR
 10
0.0
 20
1.0
 30
0.0
  9
$PUCSNAME
  2

  9
$PUCSORG
 10
0.0
 20
0.0
 30
0.0
  9
$PUCSXDIR
 10
1.0
 20
0.0
 30
0.0
  9
$PUCSYDIR
 10
0.0
 20
1.0
 30
0.0
  9
$USERI1
 70
     0
  9
$USERI2
 70
     0
  9
$USERI3
 70
     0
  9
$USERI4
 70
     0
  9
$USERI5
 70
     0
  9
$USERR1
 40
0.0
  9
$USERR2
 40
0.0
  9
$USERR3
 40
0.0
  9
$USERR4
 40
0.0
  9
$USERR5
 40
0.0
  9
$WORLDVIEW
 70
     1
  9
$SHADEDGE
 70
     3
  9
$SHADEDIF
 70
    70
  9
$TILEMODE
 70
     1
  9
$MAXACTVP
 70
    64
  9
$PLIMCHECK
 70
     0
  9
$PEXTMIN
 10
1.000000000000000E+20
 20
1.000000000000000E+20
 30
1.000000000000000E+20
  9
$PEXTMAX
 10
-1.000000000000000E+20
 20
-1.000000000000000E+20
 30
-1.000000000000000E+20
  9
$PLIMMIN
 10
0.0
 20
0.0
  9
$PLIMMAX
 10
12.0
 20
9.0
  9
$UNITMODE
 70
     0
  9
$VISRETAIN
 70
     1
  9
$PLINEGEN
 70
     0
  9
$PSLTSCALE
 70
     1
  0
ENDSEC
  0
SECTION
  2
TABLES
  0
TABLE
  2
VPORT
 70
     1
  0
VPORT
  2
*ACTIVE
 70
     0
 10
0.0
 20
0.0
 11
1.0
 21
1.0
 12
-0.119378279942481
 22
29.51532695800962
 13
0.0
 23
0.0
 14
0.5
 24
0.5
 15
0.5
 25
0.5
 16
0.0
 26
0.0
 36
1.0
 17
0.0
 27
0.0
 37
0.0
 40
284.3843132019293
 41
0.9188214100098077
 42
50.0
 43
0.0
 44
0.0
 50
0.0
 51
0.0
 71
     0
 72
   100
 73
     1
 74
     3
 75
     0
 76
     0
 77
     0
 78
     0
  0
ENDTAB
  0
TABLE
  2
LTYPE
 70
     1
  0
LTYPE
  2
CONTINUOUS
 70
     0
  3
Solid line
 72
    65
 73
     0
 40
0.0
  0
ENDTAB
  0
TABLE
  2
LAYER
 70
    16
  0
LAYER
  2
0
 70
     0
 62
     7
  6
CONTINUOUS
  0
LAYER
  2
DEFAULT
 70
     0
 62
     7
  6
CONTINUOUS
  0
LAYER
  2
14
 70
     0
 62
     7
  6
CONTINUOUS
  0
LAYER
  2
13
 70
     0
 62
     7
  6
CONTINUOUS
  0
LAYER
  2
12
 70
     0
 62
     7
  6
CONTINUOUS
  0
LAYER
  2
11
 70
     0
 62
     7
  6
CONTINUOUS
  0
LAYER
  2
10
 70
     0
 62
     7
  6
CONTINUOUS
  0
LAYER
  2
9
 70
     0
 62
     7
  6
CONTINUOUS
  0
LAYER
  2
8
 70
     0
 62
     7
  6
CONTINUOUS
  0
LAYER
  2
7
 70
     0
 62
     7
  6
CONTINUOUS
  0
LAYER
  2
6
 70
     0
 62
     7
  6
CONTINUOUS
  0
LAYER
  2
5
 70
     0
 62
     7
  6
CONTINUOUS
  0
LAYER
  2
4
 70
     0
 62
     7
  6
CONTINUOUS
  0
LAYER
  2
3
 70
     0
 62
     7
  6
CONTINUOUS
  0
LAYER
  2
2
 70
     0
 62
     7
  6
CONTINUOUS
  0
LAYER
  2
1
 70
     0
 62
     7
  6
CONTINUOUS
  0
ENDTAB
  0
TABLE
  2
STYLE
 70
     1
  0
STYLE
  2
STANDARD
 70
     0
 40
0.0
 41
1.0
 50
0.0
 71
     0
 42
0.2
  3
txt
  4

  0
ENDTAB
  0
TABLE
  2
VIEW
 70
     0
  0
ENDTAB
  0
TABLE
  2
UCS
 70
     0
  0
ENDTAB
  0
TABLE
  2
APPID
 70
     1
  0
APPID
  2
ACAD
 70
     0
  0
ENDTAB
  0
TABLE
  2
DIMSTYLE
 70
     1
  0
DIMSTYLE
  2
STANDARD
 70
     0
  3

  4

  5

  6

  7

 40
1.0
 41
0.18
 42
0.0625
 43
0.38
 44
0.18
 45
0.0
 46
0.0
 47
0.0
 48
0.0
140
0.18
141
0.09
142
0.0
143
25.4
144
1.0
145
0.0
146
1.0
147
0.09
 71
     0
 72
     0
 73
     1
 74
     1
 75
     0
 76
     0
 77
     0
 78
     0
170
     0
171
     2
172
     0
173
     0
174
     0
175
     0
176
     0
177
     0
178
     0
  0
ENDTAB
  0
ENDSEC
  0
SECTION
  2
BLOCKS
  0
BLOCK
  8
0
  2
$MODEL_SPACE
 70
     0
 10
0.0
 20
0.0
 30
0.0
  3
$MODEL_SPACE
  1

  0
ENDBLK
  5
21
  8
0
  0
BLOCK
 67
     1
  8
0
  2
$PAPER_SPACE
 70
     0
 10
0.0
 20
0.0
 30
0.0
  3
$PAPER_SPACE
  1

  0
ENDBLK
  5
1D
 67
     1
  8
0
  0
BLOCK
  8
0
  2
SE
 70
     0
 10
0.0
 20
0.0
 30
0.0
  3
SE
  1

  0
LINE
  5
54C
  8
1
  6
CONTINUOUS
 62
     7
 10
147.6480976552
 20
333.0460288295
 30
0.0
 11
147.6480976552
 21
105.0460288295
 31
0.0
  0
LINE
  5
54D
  8
1
  6
CONTINUOUS
 62
     7
 10
147.6480976552
 20
105.0460288295
 30
0.0
 11
185.6480976552
 21
295.0460288295
 31
0.0
  0
LINE
  5
54E
  8
1
  6
CONTINUOUS
 62
     7
 10
185.6480976552
 20
295.0460288295
 30
0.0
 11
147.6480976552
 21
333.0460288295
 31
0.0
  0
LINE
  5
54F
  8
2
  6
CONTINUOUS
 62
     7
 10
185.6480976552
 20
295.0460288295
 30
0.0
 11
147.6480976552
 21
105.0460288295
 31
0.0
  0
LINE
  5
550
  8
2
  6
CONTINUOUS
 62
     7
 10
147.6480976552
 20
105.0460288295
 30
0.0
 11
223.6480976552
 21
257.0460288295
 31
0.0
  0
LINE
  5
551
  8
2
  6
CONTINUOUS
 62
     7
 10
223.6480976552
 20
257.0460288295
 30
0.0
 11
185.6480976552
 21
295.0460288295
 31
0.0
  0
LINE
  5
552
  8
3
  6
CONTINUOUS
 62
     7
 10
147.6480976552
 20
333.0460288295
 30
0.0
 11
185.6480976552
 21
295.0460288295
 31
0.0
  0
LINE
  5
553
  8
3
  6
CONTINUOUS
 62
     7
 10
185.6480976552
 20
295.0460288295
 30
0.0
 11
261.6480976552
 21
333.0460288295
 31
0.0
  0
LINE
  5
554
  8
3
  6
CONTINUOUS
 62
     7
 10
261.6480976552
 20
333.0460288295
 30
0.0
 11
147.6480976552
 21
333.0460288295
 31
0.0
  0
LINE
  5
555
  8
4
  6
CONTINUOUS
 62
     7
 10
261.6480976552
 20
333.0460288295
 30
0.0
 11
223.6480976552
 21
314.0460288295
 31
0.0
  0
LINE
  5
556
  8
4
  6
CONTINUOUS
 62
     7
 10
223.6480976552
 20
314.0460288295
 30
0.0
 11
337.6480976552
 21
257.0460288295
 31
0.0
  0
LINE
  5
557
  8
4
  6
CONTINUOUS
 62
     7
 10
337.6480976552
 20
257.0460288295
 30
0.0
 11
261.6480976552
 21
333.0460288295
 31
0.0
  0
LINE
  5
558
  8
5
  6
CONTINUOUS
 62
     7
 10
337.6480976552
 20
257.0460288295
 30
0.0
 11
261.6480976552
 21
333.0460288295
 31
0.0
  0
LINE
  5
559
  8
5
  6
CONTINUOUS
 62
     7
 10
261.6480976552
 20
333.0460288295
 30
0.0
 11
375.6480976552
 21
333.0460288295
 31
0.0
  0
LINE
  5
55A
  8
5
  6
CONTINUOUS
 62
     7
 10
375.6480976552
 20
333.0460288295
 30
0.0
 11
337.6480976552
 21
257.0460288295
 31
0.0
  0
LINE
  5
55B
  8
6
  6
CONTINUOUS
 62
     7
 10
318.6480976552
 20
219.0460288295
 30
0.0
 11
375.6480976552
 21
333.0460288295
 31
0.0
  0
LINE
  5
55C
  8
6
  6
CONTINUOUS
 62
     7
 10
375.6480976552
 20
333.0460288295
 30
0.0
 11
375.6480976552
 21
219.0460288295
 31
0.0
  0
LINE
  5
55D
  8
6
  6
CONTINUOUS
 62
     7
 10
375.6480976552
 20
219.0460288295
 30
0.0
 11
318.6480976552
 21
219.0460288295
 31
0.0
  0
LINE
  5
55E
  8
7
  6
CONTINUOUS
 62
     7
 10
375.6480976552
 20
219.0460288295
 30
0.0
 11
318.6480976552
 21
219.0460288295
 31
0.0
  0
LINE
  5
55F
  8
7
  6
CONTINUOUS
 62
     7
 10
318.6480976552
 20
219.0460288295
 30
0.0
 11
375.6480976552
 21
181.0460288295
 31
0.0
  0
LINE
  5
560
  8
7
  6
CONTINUOUS
 62
     7
 10
375.6480976552
 20
181.0460288295
 30
0.0
 11
375.6480976552
 21
219.0460288295
 31
0.0
  0
LINE
  5
561
  8
8
  6
CONTINUOUS
 62
     7
 10
318.6480976552
 20
219.0460288295
 30
0.0
 11
375.6480976552
 21
181.0460288295
 31
0.0
  0
LINE
  5
562
  8
8
  6
CONTINUOUS
 62
     7
 10
375.6480976552
 20
181.0460288295
 30
0.0
 11
375.6480976552
 21
105.0460288295
 31
0.0
  0
LINE
  5
563
  8
8
  6
CONTINUOUS
 62
     7
 10
375.6480976552
 20
105.0460288295
 30
0.0
 11
261.6480976552
 21
105.0460288295
 31
0.0
  0
LINE
  5
564
  8
8
  6
CONTINUOUS
 62
     7
 10
261.6480976552
 20
105.0460288295
 30
0.0
 11
318.6480976552
 21
219.0460288295
 31
0.0
  0
LINE
  5
565
  8
9
  6
CONTINUOUS
 62
     7
 10
261.6480976552
 20
105.0460288295
 30
0.0
 11
299.6480976552
 21
181.0460288295
 31
0.0
  0
LINE
  5
566
  8
9
  6
CONTINUOUS
 62
     7
 10
299.6480976552
 20
181.0460288295
 30
0.0
 11
261.6480976552
 21
219.0460288295
 31
0.0
  0
LINE
  5
567
  8
9
  6
CONTINUOUS
 62
     7
 10
261.6480976552
 20
219.0460288295
 30
0.0
 11
261.6480976552
 21
105.0460288295
 31
0.0
  0
LINE
  5
568
  8
10
  6
CONTINUOUS
 62
     7
 10
261.6480976552
 20
105.0460288295
 30
0.0
 11
261.6480976552
 21
219.0460288295
 31
0.0
  0
LINE
  5
569
  8
10
  6
CONTINUOUS
 62
     7
 10
261.6480976552
 20
219.0460288295
 30
0.0
 11
223.6480976552
 21
257.0460288295
 31
0.0
  0
LINE
  5
56A
  8
10
  6
CONTINUOUS
 62
     7
 10
223.6480976552
 20
257.0460288295
 30
0.0
 11
204.6480976552
 21
219.0460288295
 31
0.0
  0
LINE
  5
56B
  8
10
  6
CONTINUOUS
 62
     7
 10
204.6480976552
 20
219.0460288295
 30
0.0
 11
204.6480976552
 21
105.0460288295
 31
0.0
  0
LINE
  5
56C
  8
10
  6
CONTINUOUS
 62
     7
 10
204.6480976552
 20
105.0460288295
 30
0.0
 11
261.6480976552
 21
105.0460288295
 31
0.0
  0
LINE
  5
56D
  8
11
  6
CONTINUOUS
 62
     7
 10
204.6480976552
 20
219.0460288295
 30
0.0
 11
204.6480976552
 21
105.0460288295
 31
0.0
  0
LINE
  5
56E
  8
11
  6
CONTINUOUS
 62
     7
 10
204.6480976552
 20
105.0460288295
 30
0.0
 11
185.6480976552
 21
181.0460288295
 31
0.0
  0
LINE
  5
56F
  8
11
  6
CONTINUOUS
 62
     7
 10
185.6480976552
 20
181.0460288295
 30
0.0
 11
204.6480976552
 21
219.0460288295
 31
0.0
  0
LINE
  5
570
  8
12
  6
CONTINUOUS
 62
     7
 10
185.6480976552
 20
181.0460288295
 30
0.0
 11
204.6480976552
 21
105.0460288295
 31
0.0
  0
LINE
  5
571
  8
12
  6
CONTINUOUS
 62
     7
 10
204.6480976552
 20
105.0460288295
 30
0.0
 11
147.6480976552
 21
105.0460288295
 31
0.0
  0
LINE
  5
572
  8
12
  6
CONTINUOUS
 62
     7
 10
147.6480976552
 20
105.0460288295
 30
0.0
 11
185.6480976552
 21
181.0460288295
 31
0.0
  0
LINE
  5
573
  8
13
  6
CONTINUOUS
 62
     7
 10
185.6480976552
 20
295.0460288295
 30
0.0
 11
223.6480976552
 21
314.0460288295
 31
0.0
  0
LINE
  5
574
  8
13
  6
CONTINUOUS
 62
     7
 10
223.6480976552
 20
314.0460288295
 30
0.0
 11
337.6480976552
 21
257.0460288295
 31
0.0
  0
LINE
  5
575
  8
13
  6
CONTINUOUS
 62
     7
 10
337.6480976552
 20
257.0460288295
 30
0.0
 11
223.6480976552
 21
257.0460288295
 31
0.0
  0
LINE
  5
576
  8
13
  6
CONTINUOUS
 62
     7
 10
223.6480976552
 20
257.0460288295
 30
0.0
 11
185.6480976552
 21
295.0460288295
 31
0.0
  0
LINE
  5
577
  8
14
  6
CONTINUOUS
 62
     7
 10
337.6480976552
 20
257.0460288295
 30
0.0
 11
223.6480976552
 21
257.0460288295
 31
0.0
  0
LINE
  5
578
  8
14
  6
CONTINUOUS
 62
     7
 10
223.6480976552
 20
257.0460288295
 30
0.0
 11
299.6480976552
 21
181.0460288295
 31
0.0
  0
LINE
  5
579
  8
14
  6
CONTINUOUS
 62
     7
 10
299.6480976552
 20
181.0460288295
 30
0.0
 11
337.6480976552
 21
257.0460288295
 31
0.0
  0
ENDBLK
  5
57B
  8
0
  0
ENDSEC
  0
SECTION
  2
ENTITIES
  0
POLYLINE
  5
6F
  8
DEFAULT
 62
     5
 66
     1
 10
0.0
 20
0.0
 30
0.0
 70
     1
  0
VERTEX
  5
70
  8
DEFAULT
 62
     5
 10
127.9660123826679
 20
137.2398109767876
 30
0.0
  0
VERTEX
  5
71
  8
DEFAULT
 62
     5
 10
126.0524321357543
 20
137.2398109767876
 30
0.0
  0
VERTEX
  5
72
  8
DEFAULT
 62
     5
 10
126.0524321357543
 20
140.9271187672718
 30
0.0
 42
0.0659043403441863
  0
VERTEX
  5
73
  8
DEFAULT
 62
     5
 10
125.9318689083016
 20
142.4413934880647
 30
0.0
 42
0.1600130695765548
  0
VERTEX
  5
74
  8
DEFAULT
 62
     5
 10
125.540279549303
 20
142.9752473235894
 30
0.0
 42
0.1575149176298511
  0
VERTEX
  5
75
  8
DEFAULT
 62
     5
 10
124.8882733175938
 20
143.1657369027135
 30
0.0
 42
0.1576987046344989
  0
VERTEX
  5
76
  8
DEFAULT
 62
     5
 10
124.0120197465588
 20
142.8937462502773
 30
0.0
 42
0.1684371822617588
  0
VERTEX
  5
77
  8
DEFAULT
 62
     5
 10
123.4800944818572
 20
142.1727781877869
 30
0.0
 42
0.0659809918576611
  0
VERTEX
  5
78
  8
DEFAULT
 62
     5
 10
123.3363827530382
 20
140.5123804359495
 30
0.0
  0
VERTEX
  5
79
  8
DEFAULT
 62
     5
 10
123.3363827530382
 20
137.2398109767876
 30
0.0
  0
VERTEX
  5
7A
  8
DEFAULT
 62
     5
 10
121.4228025061247
 20
137.2398109767876
 30
0.0
  0
VERTEX
  5
7B
  8
DEFAULT
 62
     5
 10
121.4228025061247
 20
144.4620331990099
 30
0.0
  0
VERTEX
  5
7C
  8
DEFAULT
 62
     5
 10
123.2129259629148
 20
144.4620331990099
 30
0.0
  0
VERTEX
  5
7D
  8
DEFAULT
 62
     5
 10
123.2129259629148
 20
143.4087933413144
 30
0.0
 42
-0.248629612198836
  0
VERTEX
  5
7E
  8
DEFAULT
 62
     5
 10
125.5663211423825
 20
144.647218384195
 30
0.0
 42
-0.1053164015608093
  0
VERTEX
  5
7F
  8
DEFAULT
 62
     5
 10
126.7087787114696
 20
144.4186307008631
 30
0.0
 42
-0.1292191717088491
  0
VERTEX
  5
80
  8
DEFAULT
 62
     5
 10
127.4919579004244
 20
143.8355867708926
 30
0.0
 42
-0.1054932374261724
  0
VERTEX
  5
81
  8
DEFAULT
 62
     5
 10
127.8618460103496
 20
143.0307063328644
 30
0.0
 42
-0.0533641385176999
  0
VERTEX
  5
82
  8
DEFAULT
 62
     5
 10
127.9660123826679
 20
141.7411621537574
 30
0.0
  0
SEQEND
  5
83
  8
DEFAULT
 62
     5
  0
POLYLINE
  5
84
  8
DEFAULT
 62
     5
 66
     1
 10
0.0
 20
0.0
 30
0.0
 70
     1
  0
VERTEX
  5
85
  8
DEFAULT
 62
     5
 10
117.5339136172358
 20
140.6966011002444
 30
0.0
  0
VERTEX
  5
86
  8
DEFAULT
 62
     5
 10
116.4199094144114
 20
140.4043559800702
 30
0.0
 42
0.0811165779561544
  0
VERTEX
  5
87
  8
DEFAULT
 62
     5
 10
115.4235748763688
 20
140.07160192442
 30
0.0
 42
0.2517191883486029
  0
VERTEX
  5
88
  8
DEFAULT
 62
     5
 10
115.0647778147667
 20
139.3983767040825
 30
0.0
 42
0.4298150945544992
  0
VERTEX
  5
89
  8
DEFAULT
 62
     5
 10
116.0813677624621
 20
138.4126504829604
 30
0.0
 42
0.1670482644846024
  0
VERTEX
  5
8A
  8
DEFAULT
 62
     5
 10
117.025619585303
 20
138.7521571267574
 30
0.0
 42
0.1651612454991282
  0
VERTEX
  5
8B
  8
DEFAULT
 62
     5
 10
117.4625409551864
 20
139.3848734116189
 30
0.0
 42
0.0593667948163978
  0
VERTEX
  5
8C
  8
DEFAULT
 62
     5
 10
117.5339136172358
 20
140.3156219419961
 30
0.0
  0
SEQEND
  5
8D
  8
DEFAULT
 62
     5
  0
POLYLINE
  5
8E
  8
DEFAULT
 62
     5
 66
     1
 10
0.0
 20
0.0
 30
0.0
 70
     1
  0
VERTEX
  5
8F
  8
DEFAULT
 62
     5
 10
115.1265062098284
 20
142.2398109767876
 30
0.0
  0
VERTEX
  5
90
  8
DEFAULT
 62
     5
 10
113.3981111481
 20
142.4867245570345
 30
0.0
 42
-0.1714833175990271
  0
VERTEX
  5
91
  8
DEFAULT
 62
     5
 10
114.3852836796
 20
144.1177048926765
 30
0.0
 42
-0.1608829132837605
  0
VERTEX
  5
92
  8
DEFAULT
 62
     5
 10
116.4662059461864
 20
144.647218384195
 30
0.0
 42
-0.1088364278881173
  0
VERTEX
  5
93
  8
DEFAULT
 62
     5
 10
118.3334896613249
 20
144.3438812737828
 30
0.0
 42
-0.1580303644335653
  0
VERTEX
  5
94
  8
DEFAULT
 62
     5
 10
119.197204931744
 20
143.5732408564015
 30
0.0
 42
-0.1088017057953372
  0
VERTEX
  5
95
  8
DEFAULT
 62
     5
 10
119.4474938641494
 20
141.8578672976491
 30
0.0
  0
VERTEX
  5
96
  8
DEFAULT
 62
     5
 10
119.4474938641493
 20
139.6202127411827
 30
0.0
 42
0.0514080219695323
  0
VERTEX
  5
97
  8
DEFAULT
 62
     5
 10
119.5516607074251
 20
138.2115511740434
 30
0.0
 42
0.0692287864232469
  0
VERTEX
  5
98
  8
DEFAULT
 62
     5
 10
119.9413210246432
 20
137.2398109767877
 30
0.0
  0
VERTEX
  5
99
  8
DEFAULT
 62
     5
 10
118.0277407777296
 20
137.2398109767876
 30
0.0
  0
VERTEX
  5
9A
  8
DEFAULT
 62
     5
 10
117.8444846343249
 20
137.7992246159042
 30
0.0
  0
VERTEX
  5
9B
  8
DEFAULT
 62
     5
 10
117.7769700558366
 20
138.0220261158096
 30
0.0
 42
-0.0933244186738208
  0
VERTEX
  5
9C
  8
DEFAULT
 62
     5
 10
116.7324090023236
 20
137.2967172383555
 30
0.0
 42
-0.1040133466925851
  0
VERTEX
  5
9D
  8
DEFAULT
 62
     5
 10
115.5451026247118
 20
137.0546257916024
 30
0.0
 42
-0.1965430357596472
  0
VERTEX
  5
9E
  8
DEFAULT
 62
     5
 10
113.7921122802817
 20
137.659853702049
 30
0.0
 42
-0.2154369487651213
  0
VERTEX
  5
9F
  8
DEFAULT
 62
     5
 10
113.1511975678531
 20
139.1900430175311
 30
0.0
 42
-0.1373780248024508
  0
VERTEX
  5
A0
  8
DEFAULT
 62
     5
 10
113.4366915127529
 20
140.281863710837
 30
0.0
 42
-0.1473783213971331
  0
VERTEX
  5
A1
  8
DEFAULT
 62
     5
 10
114.2367498172872
 20
141.0163350657911
 30
0.0
 42
-0.063440493484693
  0
VERTEX
  5
A2
  8
DEFAULT
 62
     5
 10
115.7206426009944
 20
141.4614548632417
 30
0.0
 42
0.0472009877729152
  0
VERTEX
  5
A3
  8
DEFAULT
 62
     5
 10
117.5339136172358
 20
141.931169001479
 30
0.0
  0
VERTEX
  5
A4
  8
DEFAULT
 62
     5
 10
117.5339136172358
 20
142.1250348746765
 30
0.0
 42
0.2070921599656381
  0
VERTEX
  5
A5
  8
DEFAULT
 62
     5
 10
117.2778375594888
 20
142.9265394895887
 30
0.0
 42
0.1777887432707634
  0
VERTEX
  5
A6
  8
DEFAULT
 62
     5
 10
116.3109199666843
 20
143.1657369027135
 30
0.0
 42
0.1651091138039271
  0
VERTEX
  5
A7
  8
DEFAULT
 62
     5
 10
115.5619812693338
 20
142.9602972497904
 30
0.0
 42
0.1491587679877388
  0
SEQEND
  5
A8
  8
DEFAULT
 62
     5
  0
POLYLINE
  5
A9
  8
DEFAULT
 62
     5
 66
     1
 10
0.0
 20
0.0
 30
0.0
 70
     1
  0
VERTEX
  5
AA
  8
DEFAULT
 62
     5
 10
109.8795926295815
 20
137.2398109767876
 30
0.0
  0
VERTEX
  5
AB
  8
DEFAULT
 62
     5
 10
109.8795926295815
 20
147.1780825817259
 30
0.0
  0
VERTEX
  5
AC
  8
DEFAULT
 62
     5
 10
111.793172876495
 20
147.1780825817259
 30
0.0
  0
VERTEX
  5
AD
  8
DEFAULT
 62
     5
 10
111.793172876495
 20
137.2398109767876
 30
0.0
  0
SEQEND
  5
AE
  8
DEFAULT
 62
     5
  0
POLYLINE
  5
AF
  8
DEFAULT
 62
     5
 66
     1
 10
0.0
 20
0.0
 30
0.0
 70
     1
  0
VERTEX
  5
B0
  8
DEFAULT
 62
     5
 10
103.3363827530383
 20
140.9724503071991
 30
0.0
 42
0.1662127852120517
  0
VERTEX
  5
B1
  8
DEFAULT
 62
     5
 10
103.8099554457941
 20
139.1312077141827
 30
0.0
 42
0.2404461653497501
  0
VERTEX
  5
B2
  8
DEFAULT
 62
     5
 10
104.9635050051192
 20
138.5361072730839
 30
0.0
 42
0.2413239634426833
  0
VERTEX
  5
B3
  8
DEFAULT
 62
     5
 10
106.0509858253764
 20
139.0825003511395
 30
0.0
 42
0.1627449374921634
  0
VERTEX
  5
B4
  8
DEFAULT
 62
     5
 10
106.4845309011864
 20
140.8750355811127
 30
0.0
 42
0.1661976731382071
  0
VERTEX
  5
B5
  8
DEFAULT
 62
     5
 10
106.0374825329127
 20
142.6019833905482
 30
0.0
 42
0.2412377667961038
  0
VERTEX
  5
B6
  8
DEFAULT
 62
     5
 10
104.9307122367653
 20
143.1657369027136
 30
0.0
 42
0.2367422129321797
  0
VERTEX
  5
B7
  8
DEFAULT
 62
     5
 10
103.7897009780561
 20
142.6121103889385
 30
0.0
 42
0.1723447809988885
  0
SEQEND
  5
B8
  8
DEFAULT
 62
     5
  0
POLYLINE
  5
B9
  8
DEFAULT
 62
     5
 66
     1
 10
0.0
 20
0.0
 30
0.0
 70
     1
  0
VERTEX
  5
BA
  8
DEFAULT
 62
     5
 10
101.4228025061247
 20
144.4620331990099
 30
0.0
  0
VERTEX
  5
BB
  8
DEFAULT
 62
     5
 10
103.2129259629148
 20
144.4620331990099
 30
0.0
  0
VERTEX
  5
BC
  8
DEFAULT
 62
     5
 10
103.2129259629148
 20
143.4087933413144
 30
0.0
 42
-0.1189653659007449
  0
VERTEX
  5
BD
  8
DEFAULT
 62
     5
 10
104.1374055784628
 20
144.2980674734104
 30
0.0
 42
-0.1382105598910187
  0
VERTEX
  5
BE
  8
DEFAULT
 62
     5
 10
105.4303265226006
 20
144.647218384195
 30
0.0
 42
-0.2273648758850272
  0
VERTEX
  5
BF
  8
DEFAULT
 62
     5
 10
107.5339136172358
 20
143.6552241901587
 30
0.0
 42
-0.1838682188936122
  0
VERTEX
  5
C0
  8
DEFAULT
 62
     5
 10
108.3981111481
 20
140.8923960152225
 30
0.0
 42
-0.1823656645300058
  0
VERTEX
  5
C1
  8
DEFAULT
 62
     5
 10
107.5266801815163
 20
138.0634995721758
 30
0.0
 42
-0.2285594541574736
  0
VERTEX
  5
C2
  8
DEFAULT
 62
     5
 10
105.4148941883565
 20
137.0546257916025
 30
0.0
 42
-0.1163198006808127
  0
VERTEX
  5
C3
  8
DEFAULT
 62
     5
 10
104.3452565336116
 20
137.290930113014
 30
0.0
 42
-0.0904152380777625
  0
VERTEX
  5
C4
  8
DEFAULT
 62
     5
 10
103.3363827530383
 20
138.1011158868959
 30
0.0
  0
VERTEX
  5
C5
  8
DEFAULT
 62
     5
 10
103.3363827530383
 20
134.4620331990099
 30
0.0
  0
VERTEX
  5
C6
  8
DEFAULT
 62
     5
 10
101.4228025061247
 20
134.4620331990099
 30
0.0
  0
SEQEND
  5
C7
  8
DEFAULT
 62
     5
  0
POLYLINE
  5
C8
  8
DEFAULT
 62
     5
 66
     1
 10
0.0
 20
0.0
 30
0.0
 70
     1
  0
VERTEX
  5
C9
  8
DEFAULT
 62
     5
 10
94.20058028390244
 20
141.4990702360469
 30
0.0
 42
0.1931771868552701
  0
VERTEX
  5
CA
  8
DEFAULT
 62
     5
 10
93.76124808275085
 20
142.7408720439584
 30
0.0
 42
0.2094545272840826
  0
VERTEX
  5
CB
  8
DEFAULT
 62
     5
 10
92.74321182467747
 20
143.1657369027135
 30
0.0
 42
0.2175151257022493
  0
VERTEX
  5
CC
  8
DEFAULT
 62
     5
 10
91.68321937883522
 20
142.7172422240619
 30
0.0
 42
0.1974850402976488
  0
VERTEX
  5
CD
  8
DEFAULT
 62
     5
 10
91.2713755520986
 20
141.4990702360469
 30
0.0
  0
SEQEND
  5
CE
  8
DEFAULT
 62
     5
  0
POLYLINE
  5
CF
  8
DEFAULT
 62
     5
 66
     1
 10
0.0
 20
0.0
 30
0.0
 70
     1
  0
VERTEX
  5
D0
  8
DEFAULT
 62
     5
 10
94.077123493779
 20
139.5237615940716
 30
0.0
  0
VERTEX
  5
D1
  8
DEFAULT
 62
     5
 10
95.99070374069258
 20
139.2768480138247
 30
0.0
 42
-0.1601948643917279
  0
VERTEX
  5
D2
  8
DEFAULT
 62
     5
 10
94.82750944342233
 20
137.6227201187314
 30
0.0
 42
-0.1590209405814414
  0
VERTEX
  5
D3
  8
DEFAULT
 62
     5
 10
92.83773393000806
 20
137.0546257916024
 30
0.0
 42
-0.2510606897924286
  0
VERTEX
  5
D4
  8
DEFAULT
 62
     5
 10
90.04066573442506
 20
138.293051776398
 30
0.0
 42
-0.1603231689598309
  0
VERTEX
  5
D5
  8
DEFAULT
 62
     5
 10
89.32403707402591
 20
140.7959458100263
 30
0.0
 42
-0.1928988919450588
  0
VERTEX
  5
D6
  8
DEFAULT
 62
     5
 10
90.2687711573119
 20
143.6248422530729
 30
0.0
 42
-0.218695711049955
  0
VERTEX
  5
D7
  8
DEFAULT
 62
     5
 10
92.65737040735925
 20
144.647218384195
 30
0.0
 42
-0.2248762650829779
  0
VERTEX
  5
D8
  8
DEFAULT
 62
     5
 10
95.21717023159793
 20
143.5838505861943
 30
0.0
 42
-0.186685059264736
  0
VERTEX
  5
D9
  8
DEFAULT
 62
     5
 10
96.11416053081602
 20
140.3262307298741
 30
0.0
  0
VERTEX
  5
DA
  8
DEFAULT
 62
     5
 10
91.23761732093948
 20
140.3262307298741
 30
0.0
 42
0.1907233177561194
  0
VERTEX
  5
DB
  8
DEFAULT
 62
     5
 10
91.7097437033174
 20
139.0072686636141
 30
0.0
 42
0.2135192120775327
  0
VERTEX
  5
DC
  8
DEFAULT
 62
     5
 10
92.83484036733726
 20
138.5361072730839
 30
0.0
 42
0.1657236937101118
  0
VERTEX
  5
DD
  8
DEFAULT
 62
     5
 10
93.60499805331602
 20
138.7700002922698
 30
0.0
 42
0.1589948514629381
  0
SEQEND
  5
DE
  8
DEFAULT
 62
     5
  0
POLYLINE
  5
DF
  8
DEFAULT
 62
     5
 66
     1
 10
0.0
 20
0.0
 30
0.0
 70
     1
  0
VERTEX
  5
E0
  8
DEFAULT
 62
     5
 10
86.05243213575429
 20
137.2398109767876
 30
0.0
  0
VERTEX
  5
E1
  8
DEFAULT
 62
     5
 10
86.05243213575429
 20
147.1780825817259
 30
0.0
  0
VERTEX
  5
E2
  8
DEFAULT
 62
     5
 10
87.96601238266788
 20
147.1780825817259
 30
0.0
  0
VERTEX
  5
E3
  8
DEFAULT
 62
     5
 10
87.96601238266788
 20
137.2398109767876
 30
0.0
  0
SEQEND
  5
E4
  8
DEFAULT
 62
     5
  0
POLYLINE
  5
E5
  8
DEFAULT
 62
     5
 66
     1
 10
0.0
 20
0.0
 30
0.0
 70
     1
  0
VERTEX
  5
E6
  8
DEFAULT
 62
     5
 10
78.33638275303827
 20
137.2398109767876
 30
0.0
  0
VERTEX
  5
E7
  8
DEFAULT
 62
     5
 10
78.33638275303827
 20
138.7212924582691
 30
0.0
  0
VERTEX
  5
E8
  8
DEFAULT
 62
     5
 10
81.00613607493673
 20
141.8810148571004
 30
0.0
  0
VERTEX
  5
E9
  8
DEFAULT
 62
     5
 10
81.97835806168024
 20
142.9805517175284
 30
0.0
  0
VERTEX
  5
EA
  8
DEFAULT
 62
     5
 10
81.10933886827965
 20
142.9390782611621
 30
0.0
  0
VERTEX
  5
EB
  8
DEFAULT
 62
     5
 10
78.58329633328518
 20
142.9188233224666
 30
0.0
  0
VERTEX
  5
EC
  8
DEFAULT
 62
     5
 10
78.58329633328518
 20
144.4620331990099
 30
0.0
  0
VERTEX
  5
ED
  8
DEFAULT
 62
     5
 10
84.5092222592111
 20
144.4620331990099
 30
0.0
  0
VERTEX
  5
EE
  8
DEFAULT
 62
     5
 10
84.5092222592111
 20
143.1040085076518
 30
0.0
  0
VERTEX
  5
EF
  8
DEFAULT
 62
     5
 10
81.72469377711641
 20
139.9047416942348
 30
0.0
  0
VERTEX
  5
F0
  8
DEFAULT
 62
     5
 10
80.74379016044566
 20
138.8447492483926
 30
0.0
  0
VERTEX
  5
F1
  8
DEFAULT
 62
     5
 10
81.74687681567747
 20
138.9064776434543
 30
0.0
  0
VERTEX
  5
F2
  8
DEFAULT
 62
     5
 10
84.75613583945801
 20
138.9064776434543
 30
0.0
  0
VERTEX
  5
F3
  8
DEFAULT
 62
     5
 10
84.75613583945801
 20
137.2398109767876
 30
0.0
  0
SEQEND
  5
F4
  8
DEFAULT
 62
     5
  0
POLYLINE
  5
F5
  8
DEFAULT
 62
     5
 66
     1
 10
0.0
 20
0.0
 30
0.0
 70
     1
  0
VERTEX
  5
F6
  8
DEFAULT
 62
     5
 10
71.42280250612467
 20
137.2398109767876
 30
0.0
  0
VERTEX
  5
F7
  8
DEFAULT
 62
     5
 10
71.42280250612467
 20
138.7212924582691
 30
0.0
  0
VERTEX
  5
F8
  8
DEFAULT
 62
     5
 10
74.09255582802317
 20
141.8810148571004
 30
0.0
  0
VERTEX
  5
F9
  8
DEFAULT
 62
     5
 10
75.06477781476664
 20
142.9805517175284
 30
0.0
  0
VERTEX
  5
FA
  8
DEFAULT
 62
     5
 10
74.19575862136608
 20
142.9390782611621
 30
0.0
  0
VERTEX
  5
FB
  8
DEFAULT
 62
     5
 10
71.66971608637158
 20
142.9188233224666
 30
0.0
  0
VERTEX
  5
FC
  8
DEFAULT
 62
     5
 10
71.66971608637158
 20
144.4620331990099
 30
0.0
  0
VERTEX
  5
FD
  8
DEFAULT
 62
     5
 10
77.5956420122975
 20
144.4620331990099
 30
0.0
  0
VERTEX
  5
FE
  8
DEFAULT
 62
     5
 10
77.5956420122975
 20
143.1040085076518
 30
0.0
  0
VERTEX
  5
FF
  8
DEFAULT
 62
     5
 10
74.81111353020285
 20
139.9047416942348
 30
0.0
  0
VERTEX
  5
100
  8
DEFAULT
 62
     5
 10
73.83020991353209
 20
138.8447492483926
 30
0.0
  0
VERTEX
  5
101
  8
DEFAULT
 62
     5
 10
74.8332965687639
 20
138.9064776434543
 30
0.0
  0
VERTEX
  5
102
  8
DEFAULT
 62
     5
 10
77.84255559254441
 20
138.9064776434543
 30
0.0
  0
VERTEX
  5
103
  8
DEFAULT
 62
     5
 10
77.84255559254441
 20
137.2398109767876
 30
0.0
  0
SEQEND
  5
104
  8
DEFAULT
 62
     5
  0
POLYLINE
  5
105
  8
DEFAULT
 62
     5
 66
     1
 10
0.0
 20
0.0
 30
0.0
 70
     1
  0
VERTEX
  5
106
  8
DEFAULT
 62
     5
 10
68.52156793822343
 20
137.2398109767876
 30
0.0
  0
VERTEX
  5
107
  8
DEFAULT
 62
     5
 10
68.52156793822343
 20
138.3133067150935
 30
0.0
 42
-0.1223972716446332
  0
VERTEX
  5
108
  8
DEFAULT
 62
     5
 10
67.4934046817598
 20
137.3970255271127
 30
0.0
 42
-0.1257588650398386
  0
VERTEX
  5
109
  8
DEFAULT
 62
     5
 10
66.14791876197515
 20
137.0546257916024
 30
0.0
 42
-0.1301059334599251
  0
VERTEX
  5
10A
  8
DEFAULT
 62
     5
 10
64.8540337679045
 20
137.3753242780393
 30
0.0
 42
-0.1670007383232172
  0
VERTEX
  5
10B
  8
DEFAULT
 62
     5
 10
64.02455804717474
 20
138.2756908713308
 30
0.0
 42
-0.1009427833083619
  0
VERTEX
  5
10C
  8
DEFAULT
 62
     5
 10
63.76848151847033
 20
139.8787005721127
 30
0.0
  0
VERTEX
  5
10D
  8
DEFAULT
 62
     5
 10
63.76848151847034
 20
144.4620331990099
 30
0.0
  0
VERTEX
  5
10E
  8
DEFAULT
 62
     5
 10
65.68206176538393
 20
144.4620331990099
 30
0.0
  0
VERTEX
  5
10F
  8
DEFAULT
 62
     5
 10
65.68206176538393
 20
141.1460612417012
 30
0.0
 42
0.0503730066259811
  0
VERTEX
  5
110
  8
DEFAULT
 62
     5
 10
65.78622860865966
 20
139.2802243078981
 30
0.0
 42
0.1675734251047516
  0
VERTEX
  5
111
  8
DEFAULT
 62
     5
 10
66.16624418793262
 20
138.7367247925133
 30
0.0
 42
0.1610647544742219
  0
VERTEX
  5
112
  8
DEFAULT
 62
     5
 10
66.86551100134963
 20
138.536107273084
 30
0.0
 42
0.1578518894733814
  0
VERTEX
  5
113
  8
DEFAULT
 62
     5
 10
67.73260209488463
 20
138.8047225733617
 30
0.0
 42
0.1591085904630391
  0
VERTEX
  5
114
  8
DEFAULT
 62
     5
 10
68.25681119246418
 20
139.4707143579797
 30
0.0
 42
0.0627948021468188
  0
VERTEX
  5
115
  8
DEFAULT
 62
     5
 10
68.39811114809997
 20
141.4170878442046
 30
0.0
  0
VERTEX
  5
116
  8
DEFAULT
 62
     5
 10
68.39811114809999
 20
144.4620331990099
 30
0.0
  0
VERTEX
  5
117
  8
DEFAULT
 62
     5
 10
70.31169139501355
 20
144.4620331990099
 30
0.0
  0
VERTEX
  5
118
  8
DEFAULT
 62
     5
 10
70.31169139501355
 20
137.2398109767876
 30
0.0
  0
SEQEND
  5
119
  8
DEFAULT
 62
     5
  0
POLYLINE
  5
11A
  8
DEFAULT
 62
     5
 66
     1
 10
0.0
 20
0.0
 30
0.0
 70
     1
  0
VERTEX
  5
11B
  8
DEFAULT
 62
     5
 10
57.22527164192715
 20
140.9724503071991
 30
0.0
 42
0.1662127852120645
  0
VERTEX
  5
11C
  8
DEFAULT
 62
     5
 10
57.69884433468297
 20
139.1312077141827
 30
0.0
 42
0.2404461653497526
  0
VERTEX
  5
11D
  8
DEFAULT
 62
     5
 10
58.85239389400806
 20
138.536107273084
 30
0.0
 42
0.241323963442703
  0
VERTEX
  5
11E
  8
DEFAULT
 62
     5
 10
59.93987471426525
 20
139.0825003511395
 30
0.0
 42
0.1627449374921686
  0
VERTEX
  5
11F
  8
DEFAULT
 62
     5
 10
60.3734197900753
 20
140.8750355811127
 30
0.0
 42
0.1661976731382164
  0
VERTEX
  5
120
  8
DEFAULT
 62
     5
 10
59.92637142180163
 20
142.6019833905483
 30
0.0
 42
0.2412377667960552
  0
VERTEX
  5
121
  8
DEFAULT
 62
     5
 10
58.81960112565415
 20
143.1657369027135
 30
0.0
 42
0.236742212932205
  0
VERTEX
  5
122
  8
DEFAULT
 62
     5
 10
57.67858986694497
 20
142.6121103889385
 30
0.0
 42
0.1723447809988868
  0
SEQEND
  5
123
  8
DEFAULT
 62
     5
  0
POLYLINE
  5
124
  8
DEFAULT
 62
     5
 66
     1
 10
0.0
 20
0.0
 30
0.0
 70
     1
  0
VERTEX
  5
125
  8
DEFAULT
 62
     5
 10
55.31169139501355
 20
144.4620331990099
 30
0.0
  0
VERTEX
  5
126
  8
DEFAULT
 62
     5
 10
57.10181485180368
 20
144.4620331990099
 30
0.0
  0
VERTEX
  5
127
  8
DEFAULT
 62
     5
 10
57.10181485180367
 20
143.4087933413144
 30
0.0
 42
-0.1189653659007461
  0
VERTEX
  5
128
  8
DEFAULT
 62
     5
 10
58.02629446735168
 20
144.2980674734104
 30
0.0
 42
-0.1382105598910055
  0
VERTEX
  5
129
  8
DEFAULT
 62
     5
 10
59.31921541148955
 20
144.647218384195
 30
0.0
 42
-0.2273648758850212
  0
VERTEX
  5
12A
  8
DEFAULT
 62
     5
 10
61.42280250612467
 20
143.6552241901587
 30
0.0
 42
-0.1838682188936125
  0
VERTEX
  5
12B
  8
DEFAULT
 62
     5
 10
62.28700003698886
 20
140.8923960152225
 30
0.0
 42
-0.1823656645300189
  0
VERTEX
  5
12C
  8
DEFAULT
 62
     5
 10
61.41556907040518
 20
138.0634995721759
 30
0.0
 42
-0.2285594541574752
  0
VERTEX
  5
12D
  8
DEFAULT
 62
     5
 10
59.30378307724538
 20
137.0546257916024
 30
0.0
 42
-0.1163198006808012
  0
VERTEX
  5
12E
  8
DEFAULT
 62
     5
 10
58.23414542250052
 20
137.2909301130139
 30
0.0
 42
-0.0904152380777463
  0
VERTEX
  5
12F
  8
DEFAULT
 62
     5
 10
57.22527164192715
 20
138.101115886896
 30
0.0
  0
VERTEX
  5
130
  8
DEFAULT
 62
     5
 10
57.22527164192715
 20
134.4620331990099
 30
0.0
  0
VERTEX
  5
131
  8
DEFAULT
 62
     5
 10
55.31169139501355
 20
134.4620331990099
 30
0.0
  0
SEQEND
  5
132
  8
DEFAULT
 62
     5
  0
POLYLINE
  5
133
  8
DEFAULT
 62
     5
 66
     1
 10
0.0
 20
0.0
 30
0.0
 70
     1
  0
VERTEX
  5
134
  8
DEFAULT
 62
     5
 10
43.08946917279135
 20
139.2768480138247
 30
0.0
  0
VERTEX
  5
135
  8
DEFAULT
 62
     5
 10
45.00304941970494
 20
139.5237615940716
 30
0.0
 42
0.1817134537412864
  0
VERTEX
  5
136
  8
DEFAULT
 62
     5
 10
45.4983238324916
 20
138.6952508651895
 30
0.0
 42
0.1637490318832496
  0
VERTEX
  5
137
  8
DEFAULT
 62
     5
 10
46.54143763371175
 20
138.4126504829605
 30
0.0
 42
0.158154859031622
  0
VERTEX
  5
138
  8
DEFAULT
 62
     5
 10
47.65351326571314
 20
138.6894642108055
 30
0.0
 42
0.2454173628753026
  0
VERTEX
  5
139
  8
DEFAULT
 62
     5
 10
47.90428398760616
 20
139.2083689144461
 30
0.0
 42
0.1967133408659273
  0
VERTEX
  5
13A
  8
DEFAULT
 62
     5
 10
47.76828936782425
 20
139.5748812012554
 30
0.0
 42
0.1152480441762079
  0
VERTEX
  5
13B
  8
DEFAULT
 62
     5
 10
47.12785691584071
 20
139.8304754695146
 30
0.0
 42
-0.0750101977649257
  0
VERTEX
  5
13C
  8
DEFAULT
 62
     5
 10
44.19382957958555
 20
140.7747263504406
 30
0.0
 42
-0.2630575377237235
  0
VERTEX
  5
13D
  8
DEFAULT
 62
     5
 10
43.33638275303823
 20
142.4124583323143
 30
0.0
 42
-0.2278055359033845
  0
VERTEX
  5
13E
  8
DEFAULT
 62
     5
 10
44.07760575422413
 20
144.0029283196079
 30
0.0
 42
-0.1789409577799125
  0
VERTEX
  5
13F
  8
DEFAULT
 62
     5
 10
46.37554192441684
 20
144.647218384195
 30
0.0
 42
-0.1478680227512724
  0
VERTEX
  5
140
  8
DEFAULT
 62
     5
 10
48.57847419979136
 20
144.1480868297623
 30
0.0
 42
-0.1798681362132204
  0
VERTEX
  5
141
  8
DEFAULT
 62
     5
 10
49.5709506542728
 20
142.6719097422197
 30
0.0
  0
VERTEX
  5
142
  8
DEFAULT
 62
     5
 10
47.78082719748272
 20
142.3632677669111
 30
0.0
 42
0.1762609448244283
  0
VERTEX
  5
143
  8
DEFAULT
 62
     5
 10
47.34294177766651
 20
143.0504785401573
 30
0.0
 42
0.1598214678236325
  0
VERTEX
  5
144
  8
DEFAULT
 62
     5
 10
46.42280250612467
 20
143.289193692837
 30
0.0
 42
0.1371855487857256
  0
VERTEX
  5
145
  8
DEFAULT
 62
     5
 10
45.34352058439216
 20
143.0750738228589
 30
0.0
 42
0.2593740206710327
  0
VERTEX
  5
146
  8
DEFAULT
 62
     5
 10
45.12650620982834
 20
142.6805904302321
 30
0.0
 42
0.2456185528240463
  0
VERTEX
  5
147
  8
DEFAULT
 62
     5
 10
45.31651399946487
 20
142.3275814358864
 30
0.0
 42
0.0664798749578964
  0
VERTEX
  5
148
  8
DEFAULT
 62
     5
 10
47.0960281974196
 20
141.7811888287883
 30
0.0
 42
-0.1095214193377445
  0
VERTEX
  5
149
  8
DEFAULT
 62
     5
 10
49.22083522259791
 20
140.9222961628206
 30
0.0
 42
-0.2284114958797889
  0
VERTEX
  5
14A
  8
DEFAULT
 62
     5
 10
49.81786423451973
 20
139.4919333466079
 30
0.0
 42
-0.2276229810650844
  0
VERTEX
  5
14B
  8
DEFAULT
 62
     5
 10
48.99031802652798
 20
137.7731830228247
 30
0.0
 42
-0.1809722242825335
  0
VERTEX
  5
14C
  8
DEFAULT
 62
     5
 10
46.54143763371175
 20
137.0546257916024
 30
0.0
 42
-0.153421286827204
  0
VERTEX
  5
14D
  8
DEFAULT
 62
     5
 10
44.21167227414046
 20
137.652619795372
 30
0.0
 42
-0.1853542620166114
  0
SEQEND
  5
14E
  8
DEFAULT
 62
     5
  0
POLYLINE
  5
14F
  8
DEFAULT
 62
     5
 66
     1
 10
0.0
 20
0.0
 30
0.0
 70
     1
  0
VERTEX
  5
150
  8
DEFAULT
 62
     5
 10
40.3734197900753
 20
141.4990702360469
 30
0.0
 42
0.1931771868552604
  0
VERTEX
  5
151
  8
DEFAULT
 62
     5
 10
39.93408758892372
 20
142.7408720439584
 30
0.0
 42
0.2094545272840658
  0
VERTEX
  5
152
  8
DEFAULT
 62
     5
 10
38.91605133085031
 20
143.1657369027135
 30
0.0
 42
0.2175151257022409
  0
VERTEX
  5
153
  8
DEFAULT
 62
     5
 10
37.85605888500808
 20
142.7172422240619
 30
0.0
 42
0.1974850402976744
  0
VERTEX
  5
154
  8
DEFAULT
 62
     5
 10
37.44421505827145
 20
141.4990702360469
 30
0.0
  0
SEQEND
  5
155
  8
DEFAULT
 62
     5
  0
POLYLINE
  5
156
  8
DEFAULT
 62
     5
 66
     1
 10
0.0
 20
0.0
 30
0.0
 70
     1
  0
VERTEX
  5
157
  8
DEFAULT
 62
     5
 10
40.24996299995183
 20
139.5237615940716
 30
0.0
  0
VERTEX
  5
158
  8
DEFAULT
 62
     5
 10
42.16354324686539
 20
139.2768480138247
 30
0.0
 42
-0.1601948643917348
  0
VERTEX
  5
159
  8
DEFAULT
 62
     5
 10
41.00034894959517
 20
137.6227201187313
 30
0.0
 42
-0.1590209405814291
  0
VERTEX
  5
15A
  8
DEFAULT
 62
     5
 10
39.0105734361809
 20
137.0546257916024
 30
0.0
 42
-0.2510606897924244
  0
VERTEX
  5
15B
  8
DEFAULT
 62
     5
 10
36.21350524059791
 20
138.293051776398
 30
0.0
 42
-0.1603231689598318
  0
VERTEX
  5
15C
  8
DEFAULT
 62
     5
 10
35.49687658019875
 20
140.7959458100263
 30
0.0
 42
-0.1928988919450621
  0
VERTEX
  5
15D
  8
DEFAULT
 62
     5
 10
36.44161066348473
 20
143.6248422530729
 30
0.0
 42
-0.2186957110499489
  0
VERTEX
  5
15E
  8
DEFAULT
 62
     5
 10
38.83020991353209
 20
144.647218384195
 30
0.0
 42
-0.2248762650829799
  0
VERTEX
  5
15F
  8
DEFAULT
 62
     5
 10
41.39000973777075
 20
143.5838505861943
 30
0.0
 42
-0.1866850592647452
  0
VERTEX
  5
160
  8
DEFAULT
 62
     5
 10
42.28700003698886
 20
140.3262307298741
 30
0.0
  0
VERTEX
  5
161
  8
DEFAULT
 62
     5
 10
37.41045682711234
 20
140.3262307298741
 30
0.0
 42
0.1907233177561122
  0
VERTEX
  5
162
  8
DEFAULT
 62
     5
 10
37.88258320949026
 20
139.0072686636141
 30
0.0
 42
0.2135192120775638
  0
VERTEX
  5
163
  8
DEFAULT
 62
     5
 10
39.00767987351011
 20
138.5361072730839
 30
0.0
 42
0.1657236937100964
  0
VERTEX
  5
164
  8
DEFAULT
 62
     5
 10
39.77783755948887
 20
138.7700002922698
 30
0.0
 42
0.1589948514629556
  0
SEQEND
  5
165
  8
DEFAULT
 62
     5
  0
POLYLINE
  5
166
  8
DEFAULT
 62
     5
 66
     1
 10
0.0
 20
0.0
 30
0.0
 70
     1
  0
VERTEX
  5
167
  8
DEFAULT
 62
     5
 10
29.077123493779
 20
140.9849890787725
 30
0.0
 42
0.1276841436789331
  0
VERTEX
  5
168
  8
DEFAULT
 62
     5
 10
29.39155259442918
 20
139.2932448689591
 30
0.0
 42
0.2820756800878508
  0
VERTEX
  5
169
  8
DEFAULT
 62
     5
 10
30.66470133127419
 20
138.536107273084
 30
0.0
 42
0.2392668132723729
  0
VERTEX
  5
16A
  8
DEFAULT
 62
     5
 10
31.7700248460863
 20
139.1037193397677
 30
0.0
 42
0.1689742320291525
  0
VERTEX
  5
16B
  8
DEFAULT
 62
     5
 10
32.22527164192718
 20
140.7998038935873
 30
0.0
 42
0.1638068512632599
  0
VERTEX
  5
16C
  8
DEFAULT
 62
     5
 10
31.78304587810478
 20
142.6121103889385
 30
0.0
 42
0.2405029912267631
  0
VERTEX
  5
16D
  8
DEFAULT
 62
     5
 10
30.65119803881055
 20
143.1657369027135
 30
0.0
 42
0.2351273436094278
  0
VERTEX
  5
16E
  8
DEFAULT
 62
     5
 10
29.52947719790658
 20
142.6188620351703
 30
0.0
 42
0.1734205701458864
  0
SEQEND
  5
16F
  8
DEFAULT
 62
     5
  0
POLYLINE
  5
170
  8
DEFAULT
 62
     5
 66
     1
 10
0.0
 20
0.0
 30
0.0
 70
     1
  0
VERTEX
  5
171
  8
DEFAULT
 62
     5
 10
34.13885188884072
 20
137.2398109767876
 30
0.0
  0
VERTEX
  5
172
  8
DEFAULT
 62
     5
 10
32.34872843205059
 20
137.2398109767876
 30
0.0
  0
VERTEX
  5
173
  8
DEFAULT
 62
     5
 10
32.34872843205059
 20
138.293051776398
 30
0.0
 42
-0.1195257890911741
  0
VERTEX
  5
174
  8
DEFAULT
 62
     5
 10
31.32297694877005
 20
137.366643590027
 30
0.0
 42
-0.1234715217774395
  0
VERTEX
  5
175
  8
DEFAULT
 62
     5
 10
30.13036429338942
 20
137.0546257916024
 30
0.0
 42
-0.2283648896821052
  0
VERTEX
  5
176
  8
DEFAULT
 62
     5
 10
28.0354569448517
 20
138.0634995721758
 30
0.0
 42
-0.1826315182993452
  0
VERTEX
  5
177
  8
DEFAULT
 62
     5
 10
27.16354324686542
 20
140.8779291437835
 30
0.0
 42
-0.184291499815833
  0
VERTEX
  5
178
  8
DEFAULT
 62
     5
 10
28.01375569577829
 20
143.6860883876895
 30
0.0
 42
-0.2252478569575176
  0
VERTEX
  5
179
  8
DEFAULT
 62
     5
 10
30.16315800365828
 20
144.647218384195
 30
0.0
 42
-0.2270824258515571
  0
VERTEX
  5
17A
  8
DEFAULT
 62
     5
 10
32.22527164192716
 20
143.6479907544392
 30
0.0
  0
VERTEX
  5
17B
  8
DEFAULT
 62
     5
 10
32.22527164192715
 20
147.1780825817259
 30
0.0
  0
VERTEX
  5
17C
  8
DEFAULT
 62
     5
 10
34.13885188884072
 20
147.1780825817259
 30
0.0
  0
SEQEND
  5
17D
  8
DEFAULT
 62
     5
  0
POLYLINE
  5
17E
  8
DEFAULT
 62
     5
 66
     1
 10
0.0
 20
0.0
 30
0.0
 70
     1
  0
VERTEX
  5
17F
  8
DEFAULT
 62
     5
 10
24.20058028390244
 20
141.4990702360469
 30
0.0
 42
0.1931771868552692
  0
VERTEX
  5
180
  8
DEFAULT
 62
     5
 10
23.76124808275088
 20
142.7408720439584
 30
0.0
 42
0.2094545272840688
  0
VERTEX
  5
181
  8
DEFAULT
 62
     5
 10
22.74321182467747
 20
143.1657369027135
 30
0.0
 42
0.2175151257022352
  0
VERTEX
  5
182
  8
DEFAULT
 62
     5
 10
21.68321937883524
 20
142.7172422240619
 30
0.0
 42
0.1974850402976505
  0
VERTEX
  5
183
  8
DEFAULT
 62
     5
 10
21.27137555209859
 20
141.4990702360469
 30
0.0
  0
SEQEND
  5
184
  8
DEFAULT
 62
     5
  0
POLYLINE
  5
185
  8
DEFAULT
 62
     5
 66
     1
 10
0.0
 20
0.0
 30
0.0
 70
     1
  0
VERTEX
  5
186
  8
DEFAULT
 62
     5
 10
24.077123493779
 20
139.5237615940716
 30
0.0
  0
VERTEX
  5
187
  8
DEFAULT
 62
     5
 10
25.99070374069257
 20
139.2768480138247
 30
0.0
 42
-0.1601948643917289
  0
VERTEX
  5
188
  8
DEFAULT
 62
     5
 10
24.82750944342234
 20
137.6227201187314
 30
0.0
 42
-0.1590209405814305
  0
VERTEX
  5
189
  8
DEFAULT
 62
     5
 10
22.83773393000806
 20
137.0546257916024
 30
0.0
 42
-0.2510606897924279
  0
VERTEX
  5
18A
  8
DEFAULT
 62
     5
 10
20.04066573442505
 20
138.293051776398
 30
0.0
 42
-0.1603231689598251
  0
VERTEX
  5
18B
  8
DEFAULT
 62
     5
 10
19.32403707402588
 20
140.7959458100263
 30
0.0
 42
-0.1928988919450547
  0
VERTEX
  5
18C
  8
DEFAULT
 62
     5
 10
20.2687711573119
 20
143.6248422530729
 30
0.0
 42
-0.2186957110499483
  0
VERTEX
  5
18D
  8
DEFAULT
 62
     5
 10
22.65737040735925
 20
144.647218384195
 30
0.0
 42
-0.22487626508298
  0
VERTEX
  5
18E
  8
DEFAULT
 62
     5
 10
25.21717023159791
 20
143.5838505861943
 30
0.0
 42
-0.1866850592647323
  0
VERTEX
  5
18F
  8
DEFAULT
 62
     5
 10
26.11416053081604
 20
140.3262307298741
 30
0.0
  0
VERTEX
  5
190
  8
DEFAULT
 62
     5
 10
21.23761732093946
 20
140.3262307298741
 30
0.0
 42
0.1907233177560983
  0
VERTEX
  5
191
  8
DEFAULT
 62
     5
 10
21.70974370331739
 20
139.0072686636141
 30
0.0
 42
0.2135192120775512
  0
VERTEX
  5
192
  8
DEFAULT
 62
     5
 10
22.83484036733728
 20
138.5361072730839
 30
0.0
 42
0.1657236937100742
  0
VERTEX
  5
193
  8
DEFAULT
 62
     5
 10
23.60499805331602
 20
138.7700002922698
 30
0.0
 42
0.1589948514629553
  0
SEQEND
  5
194
  8
DEFAULT
 62
     5
  0
POLYLINE
  5
195
  8
DEFAULT
 62
     5
 66
     1
 10
0.0
 20
0.0
 30
0.0
 70
     1
  0
VERTEX
  5
196
  8
DEFAULT
 62
     5
 10
7.410456827112341
 20
144.4620331990099
 30
0.0
  0
VERTEX
  5
197
  8
DEFAULT
 62
     5
 10
9.138851888840719
 20
144.4620331990099
 30
0.0
  0
VERTEX
  5
198
  8
DEFAULT
 62
     5
 10
9.138851888840716
 20
143.4830595660346
 30
0.0
 42
-0.2373869490350228
  0
VERTEX
  5
199
  8
DEFAULT
 62
     5
 10
11.38518713331945
 20
144.647218384195
 30
0.0
 42
-0.1315120310734515
  0
VERTEX
  5
19A
  8
DEFAULT
 62
     5
 10
12.58551501390724
 20
144.3578668266916
 30
0.0
 42
-0.1393853272244988
  0
VERTEX
  5
19B
  8
DEFAULT
 62
     5
 10
13.42029512857595
 20
143.4830595660345
 30
0.0
 42
-0.1018343532165614
  0
VERTEX
  5
19C
  8
DEFAULT
 62
     5
 10
14.44170720976527
 20
144.3578668266916
 30
0.0
 42
-0.1239296679571174
  0
VERTEX
  5
19D
  8
DEFAULT
 62
     5
 10
15.6116536242248
 20
144.647218384195
 30
0.0
 42
-0.1355305589141879
  0
VERTEX
  5
19E
  8
DEFAULT
 62
     5
 10
16.95135241866789
 20
144.3231445455997
 30
0.0
 42
-0.1623661969580208
  0
VERTEX
  5
19F
  8
DEFAULT
 62
     5
 10
17.77021840960478
 20
143.3721415474845
 30
0.0
 42
-0.0915442810314413
  0
VERTEX
  5
1A0
  8
DEFAULT
 62
     5
 10
17.96601238266788
 20
141.8713696481978
 30
0.0
  0
VERTEX
  5
1A1
  8
DEFAULT
 62
     5
 10
17.96601238266788
 20
137.2398109767876
 30
0.0
  0
VERTEX
  5
1A2
  8
DEFAULT
 62
     5
 10
16.05243213575432
 20
137.2398109767876
 30
0.0
  0
VERTEX
  5
1A3
  8
DEFAULT
 62
     5
 10
16.05243213575433
 20
141.3698272624968
 30
0.0
 42
0.1141470137910679
  0
VERTEX
  5
1A4
  8
DEFAULT
 62
     5
 10
15.85760268358146
 20
142.7577511595379
 30
0.0
 42
0.2721000606534011
  0
VERTEX
  5
1A5
  8
DEFAULT
 62
     5
 10
15.05031094332767
 20
143.1657369027135
 30
0.0
 42
0.1575639071466459
  0
VERTEX
  5
1A6
  8
DEFAULT
 62
     5
 10
14.30426486673304
 20
142.9207523642472
 30
0.0
 42
0.1657627374474015
  0
VERTEX
  5
1A7
  8
DEFAULT
 62
     5
 10
13.79982797644635
 20
142.2031601248727
 30
0.0
 42
0.0723437487254976
  0
VERTEX
  5
1A8
  8
DEFAULT
 62
     5
 10
13.6450247283469
 20
140.710104392708
 30
0.0
  0
VERTEX
  5
1A9
  8
DEFAULT
 62
     5
 10
13.6450247283469
 20
137.2398109767876
 30
0.0
  0
VERTEX
  5
1AA
  8
DEFAULT
 62
     5
 10
11.73144448143333
 20
137.2398109767876
 30
0.0
  0
VERTEX
  5
1AB
  8
DEFAULT
 62
     5
 10
11.73144448143332
 20
141.1991089487506
 30
0.0
 42
0.0609892367975198
  0
VERTEX
  5
1AC
  8
DEFAULT
 62
     5
 10
11.63161845312125
 20
142.5605094632245
 30
0.0
 42
0.163393119698486
  0
VERTEX
  5
1AD
  8
DEFAULT
 62
     5
 10
11.32153016743467
 20
143.0162385195105
 30
0.0
 42
0.1561218014296574
  0
VERTEX
  5
1AE
  8
DEFAULT
 62
     5
 10
10.75150632756774
 20
143.1657369027135
 30
0.0
 42
0.1551837175468065
  0
VERTEX
  5
1AF
  8
DEFAULT
 62
     5
 10
9.970738911796138
 20
142.927504010479
 30
0.0
 42
0.1670025847935713
  0
VERTEX
  5
1B0
  8
DEFAULT
 62
     5
 10
9.474018188631522
 20
142.2402937081902
 30
0.0
 42
0.0722698594962492
  0
VERTEX
  5
1B1
  8
DEFAULT
 62
     5
 10
9.32403707402591
 20
140.750614270099
 30
0.0
  0
VERTEX
  5
1B2
  8
DEFAULT
 62
     5
 10
9.32403707402591
 20
137.2398109767876
 30
0.0
  0
VERTEX
  5
1B3
  8
DEFAULT
 62
     5
 10
7.410456827112341
 20
137.2398109767876
 30
0.0
  0
SEQEND
  5
1B4
  8
DEFAULT
 62
     5
  0
POLYLINE
  5
1B5
  8
DEFAULT
 62
     5
 66
     1
 10
0.0
 20
0.0
 30
0.0
 70
     1
  0
VERTEX
  5
1B6
  8
DEFAULT
 62
     5
 10
3.768481518470367
 20
137.2398109767876
 30
0.0
  0
VERTEX
  5
1B7
  8
DEFAULT
 62
     5
 10
3.768481518470367
 20
144.4620331990099
 30
0.0
  0
VERTEX
  5
1B8
  8
DEFAULT
 62
     5
 10
5.682061765383935
 20
144.4620331990099
 30
0.0
  0
VERTEX
  5
1B9
  8
DEFAULT
 62
     5
 10
5.682061765383935
 20
137.2398109767876
 30
0.0
  0
SEQEND
  5
1BA
  8
DEFAULT
 62
     5
  0
POLYLINE
  5
1BB
  8
DEFAULT
 62
     5
 66
     1
 10
0.0
 20
0.0
 30
0.0
 70
     1
  0
VERTEX
  5
1BC
  8
DEFAULT
 62
     5
 10
3.768481518470367
 20
145.5114159150592
 30
0.0
  0
VERTEX
  5
1BD
  8
DEFAULT
 62
     5
 10
3.768481518470367
 20
147.1780825817259
 30
0.0
  0
VERTEX
  5
1BE
  8
DEFAULT
 62
     5
 10
5.682061765383935
 20
147.1780825817259
 30
0.0
  0
VERTEX
  5
1BF
  8
DEFAULT
 62
     5
 10
5.682061765383935
 20
145.5114159150592
 30
0.0
  0
SEQEND
  5
1C0
  8
DEFAULT
 62
     5
  0
POLYLINE
  5
1C1
  8
DEFAULT
 62
     5
 66
     1
 10
0.0
 20
0.0
 30
0.0
 70
     1
  0
VERTEX
  5
1C2
  8
DEFAULT
 62
     5
 10
-2.774728358072849
 20
147.1780825817259
 30
0.0
  0
VERTEX
  5
1C3
  8
DEFAULT
 62
     5
 10
-2.774728358072857
 20
143.5737235878041
 30
0.0
 42
-0.2297604469665482
  0
VERTEX
  5
1C4
  8
DEFAULT
 62
     5
 10
-0.5814408206435074
 20
144.647218384195
 30
0.0
 42
-0.1105861482598975
  0
VERTEX
  5
1C5
  8
DEFAULT
 62
     5
 10
0.5995966421390854
 20
144.4017515852835
 30
0.0
 42
-0.13299901836279
  0
VERTEX
  5
1C6
  8
DEFAULT
 62
     5
 10
1.392421039996397
 20
143.774340636276
 30
0.0
 42
-0.1017582537502886
  0
VERTEX
  5
1C7
  8
DEFAULT
 62
     5
 10
1.757004285025195
 20
142.9284690023267
 30
0.0
 42
-0.0473229415075528
  0
VERTEX
  5
1C8
  8
DEFAULT
 62
     5
 10
1.854901271556773
 20
141.4894259690592
 30
0.0
  0
VERTEX
  5
1C9
  8
DEFAULT
 62
     5
 10
1.85490127155677
 20
137.2398109767876
 30
0.0
  0
VERTEX
  5
1CA
  8
DEFAULT
 62
     5
 10
-0.0586789753567984
 20
137.2398109767876
 30
0.0
  0
VERTEX
  5
1CB
  8
DEFAULT
 62
     5
 10
-0.0586789753568086
 20
141.0563626827368
 30
0.0
 42
0.0632012682017988
  0
VERTEX
  5
1CC
  8
DEFAULT
 62
     5
 10
-0.1657389103458223
 20
142.4987810681628
 30
0.0
 42
0.1681746719245522
  0
VERTEX
  5
1CD
  8
DEFAULT
 62
     5
 10
-0.5447894977710962
 20
142.9853743219797
 30
0.0
 42
0.1491915597585394
  0
VERTEX
  5
1CE
  8
DEFAULT
 62
     5
 10
-1.225731356188078
 20
143.1657369027135
 30
0.0
 42
0.1438663844543063
  0
VERTEX
  5
1CF
  8
DEFAULT
 62
     5
 10
-2.06388682301526
 20
142.9342556567108
 30
0.0
 42
0.170012895090206
  0
VERTEX
  5
1D0
  8
DEFAULT
 62
     5
 10
-2.603528254838988
 20
142.2369178850743
 30
0.0
 42
0.0829006645174988
  0
VERTEX
  5
1D1
  8
DEFAULT
 62
     5
 10
-2.774728358072839
 20
140.8596032468685
 30
0.0
  0
VERTEX
  5
1D2
  8
DEFAULT
 62
     5
 10
-2.774728358072849
 20
137.2398109767876
 30
0.0
  0
VERTEX
  5
1D3
  8
DEFAULT
 62
     5
 10
-4.688308604986432
 20
137.2398109767876
 30
0.0
  0
VERTEX
  5
1D4
  8
DEFAULT
 62
     5
 10
-4.688308604986432
 20
147.1780825817259
 30
0.0
  0
SEQEND
  5
1D5
  8
DEFAULT
 62
     5
  0
POLYLINE
  5
1D6
  8
DEFAULT
 62
     5
 66
     1
 10
0.0
 20
0.0
 30
0.0
 70
     1
  0
VERTEX
  5
1D7
  8
DEFAULT
 62
     5
 10
-6.169790086467913
 20
142.3632677669111
 30
0.0
  0
VERTEX
  5
1D8
  8
DEFAULT
 62
     5
 10
-8.083370333381492
 20
142.0546257916024
 30
0.0
 42
0.1809968098175337
  0
VERTEX
  5
1D9
  8
DEFAULT
 62
     5
 10
-8.510646023404833
 20
142.8865128145578
 30
0.0
 42
0.1804760167669842
  0
VERTEX
  5
1DA
  8
DEFAULT
 62
     5
 10
-9.374844025226496
 20
143.1657369027135
 30
0.0
 42
0.2329674834671012
  0
VERTEX
  5
1DB
  8
DEFAULT
 62
     5
 10
-10.50235152051455
 20
142.6641940460551
 30
0.0
 42
0.1695179555120548
  0
VERTEX
  5
1DC
  8
DEFAULT
 62
     5
 10
-10.922876506221
 20
140.9859535996628
 30
0.0
 42
0.1610966817175062
  0
VERTEX
  5
1DD
  8
DEFAULT
 62
     5
 10
-10.49222405116682
 20
139.1374770999694
 30
0.0
 42
0.2405540491094116
  0
VERTEX
  5
1DE
  8
DEFAULT
 62
     5
 10
-9.336263189616078
 20
138.5978356681457
 30
0.0
 42
0.1883458441869675
  0
VERTEX
  5
1DF
  8
DEFAULT
 62
     5
 10
-8.448435367897977
 20
138.903584551741
 30
0.0
 42
0.1622604489947918
  0
VERTEX
  5
1E0
  8
DEFAULT
 62
     5
 10
-7.959913543258048
 20
139.9558603595037
 30
0.0
  0
VERTEX
  5
1E1
  8
DEFAULT
 62
     5
 10
-6.046333296344441
 20
139.7089467792568
 30
0.0
 42
-0.1724509721436133
  0
VERTEX
  5
1E2
  8
DEFAULT
 62
     5
 10
-7.164195582729926
 20
137.7249579202266
 30
0.0
 42
-0.1746967243539286
  0
VERTEX
  5
1E3
  8
DEFAULT
 62
     5
 10
-9.380630208653114
 20
137.0546257916025
 30
0.0
 42
-0.216397690572435
  0
VERTEX
  5
1E4
  8
DEFAULT
 62
     5
 10
-11.89799205563527
 20
138.0601237490599
 30
0.0
 42
-0.1943870566321047
  0
VERTEX
  5
1E5
  8
DEFAULT
 62
     5
 10
-12.83645675313459
 20
140.8441709126244
 30
0.0
 42
-0.1945054615972547
  0
VERTEX
  5
1E6
  8
DEFAULT
 62
     5
 10
-11.89847431608039
 20
143.6450967208109
 30
0.0
 42
-0.2157801631579827
  0
VERTEX
  5
1E7
  8
DEFAULT
 62
     5
 10
-9.36134073276284
 20
144.6472183841951
 30
0.0
 42
-0.1599423076957893
  0
VERTEX
  5
1E8
  8
DEFAULT
 62
     5
 10
-7.2799362057313
 20
144.0829826115846
 30
0.0
 42
-0.168263569712632
  0
SEQEND
  5
1E9
  8
DEFAULT
 62
     5
  0
POLYLINE
  5
1EA
  8
DEFAULT
 62
     5
 66
     1
 10
0.0
 20
0.0
 30
0.0
 70
     1
  0
VERTEX
  5
1EB
  8
DEFAULT
 62
     5
 10
-15.86114811115927
 20
137.2398109767876
 30
0.0
  0
VERTEX
  5
1EC
  8
DEFAULT
 62
     5
 10
-17.77472835807285
 20
137.2398109767876
 30
0.0
  0
VERTEX
  5
1ED
  8
DEFAULT
 62
     5
 10
-17.77472835807285
 20
144.4620331990099
 30
0.0
  0
VERTEX
  5
1EE
  8
DEFAULT
 62
     5
 10
-15.98460490128274
 20
144.4620331990099
 30
0.0
  0
VERTEX
  5
1EF
  8
DEFAULT
 62
     5
 10
-15.98460490128274
 20
143.4425506305585
 30
0.0
 42
-0.0977550519460627
  0
VERTEX
  5
1F0
  8
DEFAULT
 62
     5
 10
-15.20046119143774
 20
144.4060919292897
 30
0.0
 42
-0.1561720185079177
  0
VERTEX
  5
1F1
  8
DEFAULT
 62
     5
 10
-14.41053035625119
 20
144.647218384195
 30
0.0
 42
-0.1438170981369972
  0
VERTEX
  5
1F2
  8
DEFAULT
 62
     5
 10
-13.20682712350495
 20
144.2835996600565
 30
0.0
  0
VERTEX
  5
1F3
  8
DEFAULT
 62
     5
 10
-13.79324640563391
 20
142.6082532472924
 30
0.0
 42
0.1496770151887512
  0
VERTEX
  5
1F4
  8
DEFAULT
 62
     5
 10
-14.64586968581499
 20
142.9188233224666
 30
0.0
 42
0.1810970994866492
  0
VERTEX
  5
1F5
  8
DEFAULT
 62
     5
 10
-15.29257105262773
 20
142.6974695458116
 30
0.0
 42
0.15013483964884
  0
VERTEX
  5
1F6
  8
DEFAULT
 62
     5
 10
-15.70923795477314
 20
141.8974117122348
 30
0.0
 42
0.0509111359642157
  0
VERTEX
  5
1F7
  8
DEFAULT
 62
     5
 10
-15.86114811115927
 20
139.473607449693
 30
0.0
  0
SEQEND
  5
1F8
  8
DEFAULT
 62
     5
  0
POLYLINE
  5
1F9
  8
DEFAULT
 62
     5
 66
     1
 10
0.0
 20
0.0
 30
0.0
 70
     1
  0
VERTEX
  5
1FA
  8
DEFAULT
 62
     5
 10
-22.56735919241169
 20
141.1904282607382
 30
0.0
  0
VERTEX
  5
1FB
  8
DEFAULT
 62
     5
 10
-23.91670319575736
 20
144.894131964442
 30
0.0
  0
VERTEX
  5
1FC
  8
DEFAULT
 62
     5
 10
-25.2072123667121
 20
141.1904282607382
 30
0.0
  0
SEQEND
  5
1FD
  8
DEFAULT
 62
     5
  0
POLYLINE
  5
1FE
  8
DEFAULT
 62
     5
 66
     1
 10
0.0
 20
0.0
 30
0.0
 70
     1
  0
VERTEX
  5
1FF
  8
DEFAULT
 62
     5
 10
-18.9475678642457
 20
137.2398109767876
 30
0.0
  0
VERTEX
  5
200
  8
DEFAULT
 62
     5
 10
-21.12735116729647
 20
137.2398109767876
 30
0.0
  0
VERTEX
  5
201
  8
DEFAULT
 62
     5
 10
-21.95972045069701
 20
139.5237615940716
 30
0.0
  0
VERTEX
  5
202
  8
DEFAULT
 62
     5
 10
-25.78688094452416
 20
139.5237615940716
 30
0.0
  0
VERTEX
  5
203
  8
DEFAULT
 62
     5
 10
-26.58259843409481
 20
137.2398109767876
 30
0.0
  0
VERTEX
  5
204
  8
DEFAULT
 62
     5
 10
-28.76238267906051
 20
137.2398109767876
 30
0.0
  0
VERTEX
  5
205
  8
DEFAULT
 62
     5
 10
-25.10497503617437
 20
147.1780825817259
 30
0.0
  0
VERTEX
  5
206
  8
DEFAULT
 62
     5
 10
-22.76604767006052
 20
147.1780825817259
 30
0.0
  0
SEQEND
  5
207
  8
DEFAULT
 62
     5
  0
POLYLINE
  5
208
  8
DEFAULT
 62
     5
 66
     1
 10
0.0
 20
0.0
 30
0.0
 70
     1
  0
VERTEX
  5
209
  8
DEFAULT
 62
     5
 10
-36.97225922227038
 20
144.4620331990099
 30
0.0
  0
VERTEX
  5
20A
  8
DEFAULT
 62
     5
 10
-35.98460490128272
 20
144.4620331990099
 30
0.0
  0
VERTEX
  5
20B
  8
DEFAULT
 62
     5
 10
-35.98460490128274
 20
145.0031218831264
 30
0.0
 42
-0.095050463992272
  0
VERTEX
  5
20C
  8
DEFAULT
 62
     5
 10
-35.79363259075598
 20
146.3553594491429
 30
0.0
 42
-0.1716707163023902
  0
VERTEX
  5
20D
  8
DEFAULT
 62
     5
 10
-35.09002496237534
 20
147.08259689742
 30
0.0
 42
-0.1257658996646354
  0
VERTEX
  5
20E
  8
DEFAULT
 62
     5
 10
-33.79324640563391
 20
147.3632677669111
 30
0.0
 42
-0.0781428993827189
  0
VERTEX
  5
20F
  8
DEFAULT
 62
     5
 10
-32.21917280251729
 20
147.1163541866642
 30
0.0
  0
VERTEX
  5
210
  8
DEFAULT
 62
     5
 10
-32.43522171427588
 20
145.7737618295503
 30
0.0
 42
0.0588660059482416
  0
VERTEX
  5
211
  8
DEFAULT
 62
     5
 10
-33.30327732870111
 20
145.8817862854296
 30
0.0
 42
0.2070684672812006
  0
VERTEX
  5
212
  8
DEFAULT
 62
     5
 10
-33.89259064445831
 20
145.6917789667505
 30
0.0
 42
0.1773524100531984
  0
VERTEX
  5
213
  8
DEFAULT
 62
     5
 10
-34.07102465436915
 20
144.9616474848452
 30
0.0
  0
VERTEX
  5
214
  8
DEFAULT
 62
     5
 10
-34.07102465436915
 20
144.4620331990099
 30
0.0
  0
VERTEX
  5
215
  8
DEFAULT
 62
     5
 10
-32.71299996301113
 20
144.4620331990099
 30
0.0
  0
VERTEX
  5
216
  8
DEFAULT
 62
     5
 10
-32.71299996301113
 20
142.9805517175284
 30
0.0
  0
VERTEX
  5
217
  8
DEFAULT
 62
     5
 10
-34.07102465436915
 20
142.9805517175284
 30
0.0
  0
VERTEX
  5
218
  8
DEFAULT
 62
     5
 10
-34.07102465436915
 20
137.2398109767876
 30
0.0
  0
VERTEX
  5
219
  8
DEFAULT
 62
     5
 10
-35.98460490128272
 20
137.2398109767876
 30
0.0
  0
VERTEX
  5
21A
  8
DEFAULT
 62
     5
 10
-35.98460490128272
 20
142.9805517175284
 30
0.0
  0
VERTEX
  5
21B
  8
DEFAULT
 62
     5
 10
-36.97225922227038
 20
142.9805517175284
 30
0.0
  0
SEQEND
  5
21C
  8
DEFAULT
 62
     5
  0
POLYLINE
  5
21D
  8
DEFAULT
 62
     5
 66
     1
 10
0.0
 20
0.0
 30
0.0
 70
     1
  0
VERTEX
  5
21E
  8
DEFAULT
 62
     5
 10
-43.20682712350495
 20
140.8509225588562
 30
0.0
 42
0.1807696907208247
  0
VERTEX
  5
21F
  8
DEFAULT
 62
     5
 10
-42.70721283766955
 20
139.178468766848
 30
0.0
 42
0.4777036397637727
  0
VERTEX
  5
220
  8
DEFAULT
 62
     5
 10
-40.24627499181017
 20
139.178468766848
 30
0.0
 42
0.1794408075869725
  0
VERTEX
  5
221
  8
DEFAULT
 62
     5
 10
-39.75003700004815
 20
140.8644258513199
 30
0.0
 42
0.1800932450793788
  0
VERTEX
  5
222
  8
DEFAULT
 62
     5
 10
-40.24627499181018
 20
142.5233758799069
 30
0.0
 42
0.4793729384846857
  0
VERTEX
  5
223
  8
DEFAULT
 62
     5
 10
-42.70721283766956
 20
142.5233758799069
 30
0.0
 42
0.1807697890868593
  0
SEQEND
  5
224
  8
DEFAULT
 62
     5
  0
POLYLINE
  5
225
  8
DEFAULT
 62
     5
 66
     1
 10
0.0
 20
0.0
 30
0.0
 70
     1
  0
VERTEX
  5
226
  8
DEFAULT
 62
     5
 10
-45.12040737041853
 20
140.9531598893939
 30
0.0
 42
-0.1222574291832649
  0
VERTEX
  5
227
  8
DEFAULT
 62
     5
 10
-44.65406858433964
 20
142.8069412539838
 30
0.0
 42
-0.1509199207836109
  0
VERTEX
  5
228
  8
DEFAULT
 62
     5
 10
-43.33269474489659
 20
144.1750929437321
 30
0.0
 42
-0.1287246067144152
  0
VERTEX
  5
229
  8
DEFAULT
 62
     5
 10
-41.42345437103172
 20
144.647218384195
 30
0.0
 42
-0.210927407912834
  0
VERTEX
  5
22A
  8
DEFAULT
 62
     5
 10
-38.7537019910482
 20
143.5766166795174
 30
0.0
 42
-0.202621263980175
  0
VERTEX
  5
22B
  8
DEFAULT
 62
     5
 10
-37.71299996301113
 20
140.8711774975517
 30
0.0
 42
-0.2022295973323093
  0
VERTEX
  5
22C
  8
DEFAULT
 62
     5
 10
-38.76382898943844
 20
138.1387307887437
 30
0.0
 42
-0.2115506096601052
  0
VERTEX
  5
22D
  8
DEFAULT
 62
     5
 10
-41.409952020483
 20
137.0546257916024
 30
0.0
 42
-0.1188796278362448
  0
VERTEX
  5
22E
  8
DEFAULT
 62
     5
 10
-43.29218580942058
 20
137.5060149748397
 30
0.0
 42
-0.1582355798320272
  0
VERTEX
  5
22F
  8
DEFAULT
 62
     5
 10
-44.65406858433966
 20
138.8298001165085
 30
0.0
 42
-0.1239053267140332
  0
SEQEND
  5
230
  8
DEFAULT
 62
     5
  0
POLYLINE
  5
231
  8
DEFAULT
 62
     5
 66
     1
 10
0.0
 20
0.0
 30
0.0
 70
     1
  0
VERTEX
  5
232
  8
DEFAULT
 62
     5
 10
-50.42904934572718
 20
137.2398109767876
 30
0.0
  0
VERTEX
  5
233
  8
DEFAULT
 62
     5
 10
-52.34262959264075
 20
137.2398109767876
 30
0.0
  0
VERTEX
  5
234
  8
DEFAULT
 62
     5
 10
-52.34262959264075
 20
140.9271187672718
 30
0.0
 42
0.0659043403441865
  0
VERTEX
  5
235
  8
DEFAULT
 62
     5
 10
-52.46319282009342
 20
142.4413934880647
 30
0.0
 42
0.160013069576516
  0
VERTEX
  5
236
  8
DEFAULT
 62
     5
 10
-52.85478217909207
 20
142.9752473235894
 30
0.0
 42
0.1575149176298537
  0
VERTEX
  5
237
  8
DEFAULT
 62
     5
 10
-53.50678841080125
 20
143.1657369027136
 30
0.0
 42
0.1576987046345017
  0
VERTEX
  5
238
  8
DEFAULT
 62
     5
 10
-54.38304198183621
 20
142.8937462502773
 30
0.0
 42
0.1684371822617588
  0
VERTEX
  5
239
  8
DEFAULT
 62
     5
 10
-54.91496724653788
 20
142.1727781877869
 30
0.0
 42
0.0659809918576603
  0
VERTEX
  5
23A
  8
DEFAULT
 62
     5
 10
-55.0586789753568
 20
140.5123804359495
 30
0.0
  0
VERTEX
  5
23B
  8
DEFAULT
 62
     5
 10
-55.0586789753568
 20
137.2398109767876
 30
0.0
  0
VERTEX
  5
23C
  8
DEFAULT
 62
     5
 10
-56.97225922227038
 20
137.2398109767876
 30
0.0
  0
VERTEX
  5
23D
  8
DEFAULT
 62
     5
 10
-56.97225922227038
 20
144.4620331990099
 30
0.0
  0
VERTEX
  5
23E
  8
DEFAULT
 62
     5
 10
-55.18213576548025
 20
144.4620331990099
 30
0.0
  0
VERTEX
  5
23F
  8
DEFAULT
 62
     5
 10
-55.18213576548025
 20
143.4087933413144
 30
0.0
 42
-0.2486296121988461
  0
VERTEX
  5
240
  8
DEFAULT
 62
     5
 10
-52.8287405860125
 20
144.647218384195
 30
0.0
 42
-0.1053164015608005
  0
VERTEX
  5
241
  8
DEFAULT
 62
     5
 10
-51.68628301692539
 20
144.4186307008631
 30
0.0
 42
-0.1292191717088635
  0
VERTEX
  5
242
  8
DEFAULT
 62
     5
 10
-50.90310382797065
 20
143.8355867708925
 30
0.0
 42
-0.1054932374262196
  0
VERTEX
  5
243
  8
DEFAULT
 62
     5
 10
-50.53321571804543
 20
143.0307063328644
 30
0.0
 42
-0.0533641385177107
  0
VERTEX
  5
244
  8
DEFAULT
 62
     5
 10
-50.42904934572718
 20
141.7411621537574
 30
0.0
  0
SEQEND
  5
245
  8
DEFAULT
 62
     5
  0
POLYLINE
  5
246
  8
DEFAULT
 62
     5
 66
     1
 10
0.0
 20
0.0
 30
0.0
 70
     1
  0
VERTEX
  5
247
  8
DEFAULT
 62
     5
 10
-63.94756786424568
 20
140.8509225588562
 30
0.0
 42
0.1807696907208262
  0
VERTEX
  5
248
  8
DEFAULT
 62
     5
 10
-63.44795357841031
 20
139.178468766848
 30
0.0
 42
0.4777036397637664
  0
VERTEX
  5
249
  8
DEFAULT
 62
     5
 10
-60.98701573255092
 20
139.178468766848
 30
0.0
 42
0.1794408075869734
  0
VERTEX
  5
24A
  8
DEFAULT
 62
     5
 10
-60.49077774078889
 20
140.8644258513199
 30
0.0
 42
0.1800932450793794
  0
VERTEX
  5
24B
  8
DEFAULT
 62
     5
 10
-60.98701573255093
 20
142.523375879907
 30
0.0
 42
0.4793729384846642
  0
VERTEX
  5
24C
  8
DEFAULT
 62
     5
 10
-63.44795357841031
 20
142.523375879907
 30
0.0
 42
0.1807697890868532
  0
SEQEND
  5
24D
  8
DEFAULT
 62
     5
  0
POLYLINE
  5
24E
  8
DEFAULT
 62
     5
 66
     1
 10
0.0
 20
0.0
 30
0.0
 70
     1
  0
VERTEX
  5
24F
  8
DEFAULT
 62
     5
 10
-65.86114811115928
 20
140.9531598893939
 30
0.0
 42
-0.1222574291832723
  0
VERTEX
  5
250
  8
DEFAULT
 62
     5
 10
-65.39480932508039
 20
142.8069412539838
 30
0.0
 42
-0.1509199207835997
  0
VERTEX
  5
251
  8
DEFAULT
 62
     5
 10
-64.07343548563733
 20
144.175092943732
 30
0.0
 42
-0.1287246067144225
  0
VERTEX
  5
252
  8
DEFAULT
 62
     5
 10
-62.16419511177246
 20
144.647218384195
 30
0.0
 42
-0.2109274079128371
  0
VERTEX
  5
253
  8
DEFAULT
 62
     5
 10
-59.49444273178891
 20
143.5766166795174
 30
0.0
 42
-0.2026212639801625
  0
VERTEX
  5
254
  8
DEFAULT
 62
     5
 10
-58.45374070375186
 20
140.8711774975517
 30
0.0
 42
-0.2022295973323093
  0
VERTEX
  5
255
  8
DEFAULT
 62
     5
 10
-59.50456973017917
 20
138.1387307887437
 30
0.0
 42
-0.2115506096600994
  0
VERTEX
  5
256
  8
DEFAULT
 62
     5
 10
-62.15069276122374
 20
137.0546257916024
 30
0.0
 42
-0.1188796278362371
  0
VERTEX
  5
257
  8
DEFAULT
 62
     5
 10
-64.03292655016133
 20
137.5060149748397
 30
0.0
 42
-0.1582355798320294
  0
VERTEX
  5
258
  8
DEFAULT
 62
     5
 10
-65.39480932508037
 20
138.8298001165085
 30
0.0
 42
-0.1239053267140403
  0
SEQEND
  5
259
  8
DEFAULT
 62
     5
  0
POLYLINE
  5
25A
  8
DEFAULT
 62
     5
 66
     1
 10
0.0
 20
0.0
 30
0.0
 70
     1
  0
VERTEX
  5
25B
  8
DEFAULT
 62
     5
 10
-69.25620983955433
 20
137.2398109767876
 30
0.0
  0
VERTEX
  5
25C
  8
DEFAULT
 62
     5
 10
-69.25620983955433
 20
144.4620331990099
 30
0.0
  0
VERTEX
  5
25D
  8
DEFAULT
 62
     5
 10
-67.34262959264075
 20
144.4620331990099
 30
0.0
  0
VERTEX
  5
25E
  8
DEFAULT
 62
     5
 10
-67.34262959264075
 20
137.2398109767876
 30
0.0
  0
SEQEND
  5
25F
  8
DEFAULT
 62
     5
  0
POLYLINE
  5
260
  8
DEFAULT
 62
     5
 66
     1
 10
0.0
 20
0.0
 30
0.0
 70
     1
  0
VERTEX
  5
261
  8
DEFAULT
 62
     5
 10
-69.25620983955433
 20
145.5114159150592
 30
0.0
  0
VERTEX
  5
262
  8
DEFAULT
 62
     5
 10
-69.25620983955433
 20
147.1780825817259
 30
0.0
  0
VERTEX
  5
263
  8
DEFAULT
 62
     5
 10
-67.34262959264075
 20
147.1780825817259
 30
0.0
  0
VERTEX
  5
264
  8
DEFAULT
 62
     5
 10
-67.34262959264075
 20
145.5114159150592
 30
0.0
  0
SEQEND
  5
265
  8
DEFAULT
 62
     5
  0
POLYLINE
  5
266
  8
DEFAULT
 62
     5
 66
     1
 10
0.0
 20
0.0
 30
0.0
 70
     1
  0
VERTEX
  5
267
  8
DEFAULT
 62
     5
 10
-75.79941971609753
 20
147.1780825817259
 30
0.0
  0
VERTEX
  5
268
  8
DEFAULT
 62
     5
 10
-75.79941971609753
 20
143.5737235878041
 30
0.0
 42
-0.2297604469665554
  0
VERTEX
  5
269
  8
DEFAULT
 62
     5
 10
-73.60613217866819
 20
144.647218384195
 30
0.0
 42
-0.1105861482598972
  0
VERTEX
  5
26A
  8
DEFAULT
 62
     5
 10
-72.4250947158856
 20
144.4017515852835
 30
0.0
 42
-0.132999018362791
  0
VERTEX
  5
26B
  8
DEFAULT
 62
     5
 10
-71.63227031802829
 20
143.774340636276
 30
0.0
 42
-0.1017582537502726
  0
VERTEX
  5
26C
  8
DEFAULT
 62
     5
 10
-71.26768707299948
 20
142.9284690023267
 30
0.0
 42
-0.047322941507554
  0
VERTEX
  5
26D
  8
DEFAULT
 62
     5
 10
-71.16979008646791
 20
141.4894259690592
 30
0.0
  0
VERTEX
  5
26E
  8
DEFAULT
 62
     5
 10
-71.16979008646791
 20
137.2398109767876
 30
0.0
  0
VERTEX
  5
26F
  8
DEFAULT
 62
     5
 10
-73.0833703333815
 20
137.2398109767876
 30
0.0
  0
VERTEX
  5
270
  8
DEFAULT
 62
     5
 10
-73.08337033338152
 20
141.0563626827368
 30
0.0
 42
0.0632012682017998
  0
VERTEX
  5
271
  8
DEFAULT
 62
     5
 10
-73.1904302683705
 20
142.4987810681628
 30
0.0
 42
0.1681746719245762
  0
VERTEX
  5
272
  8
DEFAULT
 62
     5
 10
-73.56948085579577
 20
142.9853743219797
 30
0.0
 42
0.1491915597585277
  0
VERTEX
  5
273
  8
DEFAULT
 62
     5
 10
-74.25042271421276
 20
143.1657369027135
 30
0.0
 42
0.143866384454306
  0
VERTEX
  5
274
  8
DEFAULT
 62
     5
 10
-75.08857818103995
 20
142.9342556567108
 30
0.0
 42
0.1700128950902026
  0
VERTEX
  5
275
  8
DEFAULT
 62
     5
 10
-75.62821961286369
 20
142.2369178850743
 30
0.0
 42
0.0829006645174681
  0
VERTEX
  5
276
  8
DEFAULT
 62
     5
 10
-75.79941971609753
 20
140.8596032468685
 30
0.0
  0
VERTEX
  5
277
  8
DEFAULT
 62
     5
 10
-75.79941971609753
 20
137.2398109767876
 30
0.0
  0
VERTEX
  5
278
  8
DEFAULT
 62
     5
 10
-77.71299996301113
 20
137.2398109767876
 30
0.0
  0
VERTEX
  5
279
  8
DEFAULT
 62
     5
 10
-77.71299996301113
 20
147.1780825817259
 30
0.0
  0
SEQEND
  5
27A
  8
DEFAULT
 62
     5
  0
POLYLINE
  5
27B
  8
DEFAULT
 62
     5
 66
     1
 10
0.0
 20
0.0
 30
0.0
 70
     1
  0
VERTEX
  5
27C
  8
DEFAULT
 62
     5
 10
-79.1944814444926
 20
142.3632677669111
 30
0.0
  0
VERTEX
  5
27D
  8
DEFAULT
 62
     5
 10
-81.10806169140619
 20
142.0546257916024
 30
0.0
 42
0.1809968098175481
  0
VERTEX
  5
27E
  8
DEFAULT
 62
     5
 10
-81.53533738142951
 20
142.8865128145579
 30
0.0
 42
0.1804760167669803
  0
VERTEX
  5
27F
  8
DEFAULT
 62
     5
 10
-82.39953538325118
 20
143.1657369027135
 30
0.0
 42
0.2329674834671239
  0
VERTEX
  5
280
  8
DEFAULT
 62
     5
 10
-83.52704287853923
 20
142.6641940460551
 30
0.0
 42
0.1695179555120539
  0
VERTEX
  5
281
  8
DEFAULT
 62
     5
 10
-83.94756786424568
 20
140.9859535996628
 30
0.0
 42
0.1610966817174901
  0
VERTEX
  5
282
  8
DEFAULT
 62
     5
 10
-83.51691540919151
 20
139.1374770999693
 30
0.0
 42
0.2405540491094137
  0
VERTEX
  5
283
  8
DEFAULT
 62
     5
 10
-82.36095454764077
 20
138.5978356681456
 30
0.0
 42
0.1883458441869471
  0
VERTEX
  5
284
  8
DEFAULT
 62
     5
 10
-81.47312672592267
 20
138.903584551741
 30
0.0
 42
0.1622604489948056
  0
VERTEX
  5
285
  8
DEFAULT
 62
     5
 10
-80.98460490128272
 20
139.9558603595037
 30
0.0
  0
VERTEX
  5
286
  8
DEFAULT
 62
     5
 10
-79.07102465436915
 20
139.7089467792568
 30
0.0
 42
-0.1724509721436181
  0
VERTEX
  5
287
  8
DEFAULT
 62
     5
 10
-80.18888694075463
 20
137.7249579202266
 30
0.0
 42
-0.174696724353933
  0
VERTEX
  5
288
  8
DEFAULT
 62
     5
 10
-82.4053215666778
 20
137.0546257916024
 30
0.0
 42
-0.2163976905724388
  0
VERTEX
  5
289
  8
DEFAULT
 62
     5
 10
-84.92268341365997
 20
138.0601237490599
 30
0.0
 42
-0.1943870566320925
  0
VERTEX
  5
28A
  8
DEFAULT
 62
     5
 10
-85.86114811115924
 20
140.8441709126244
 30
0.0
 42
-0.1945054615972581
  0
VERTEX
  5
28B
  8
DEFAULT
 62
     5
 10
-84.92316567410509
 20
143.6450967208109
 30
0.0
 42
-0.2157801631579814
  0
VERTEX
  5
28C
  8
DEFAULT
 62
     5
 10
-82.38603209078752
 20
144.6472183841951
 30
0.0
 42
-0.1599423076957803
  0
VERTEX
  5
28D
  8
DEFAULT
 62
     5
 10
-80.30462756375597
 20
144.0829826115846
 30
0.0
 42
-0.1682635697126199
  0
SEQEND
  5
28E
  8
DEFAULT
 62
     5
  0
POLYLINE
  5
28F
  8
DEFAULT
 62
     5
 66
     1
 10
0.0
 20
0.0
 30
0.0
 70
     1
  0
VERTEX
  5
290
  8
DEFAULT
 62
     5
 10
-89.31793823461607
 20
140.6966011002444
 30
0.0
  0
VERTEX
  5
291
  8
DEFAULT
 62
     5
 10
-90.43194243744048
 20
140.4043559800702
 30
0.0
 42
0.0811165779561501
  0
VERTEX
  5
292
  8
DEFAULT
 62
     5
 10
-91.42827697548303
 20
140.07160192442
 30
0.0
 42
0.2517191883485929
  0
VERTEX
  5
293
  8
DEFAULT
 62
     5
 10
-91.78707403708522
 20
139.3983767040825
 30
0.0
 42
0.4298150945544694
  0
VERTEX
  5
294
  8
DEFAULT
 62
     5
 10
-90.77048408938973
 20
138.4126504829605
 30
0.0
 42
0.1670482644846157
  0
VERTEX
  5
295
  8
DEFAULT
 62
     5
 10
-89.82623226654886
 20
138.7521571267574
 30
0.0
 42
0.165161245499093
  0
VERTEX
  5
296
  8
DEFAULT
 62
     5
 10
-89.38931089666545
 20
139.3848734116189
 30
0.0
 42
0.0593667948163529
  0
VERTEX
  5
297
  8
DEFAULT
 62
     5
 10
-89.31793823461605
 20
140.3156219419961
 30
0.0
  0
SEQEND
  5
298
  8
DEFAULT
 62
     5
  0
POLYLINE
  5
299
  8
DEFAULT
 62
     5
 66
     1
 10
0.0
 20
0.0
 30
0.0
 70
     1
  0
VERTEX
  5
29A
  8
DEFAULT
 62
     5
 10
-91.72534564202347
 20
142.2398109767876
 30
0.0
  0
VERTEX
  5
29B
  8
DEFAULT
 62
     5
 10
-93.45374070375186
 20
142.4867245570345
 30
0.0
 42
-0.1714833175990271
  0
VERTEX
  5
29C
  8
DEFAULT
 62
     5
 10
-92.46656817225187
 20
144.1177048926765
 30
0.0
 42
-0.1608829132837572
  0
VERTEX
  5
29D
  8
DEFAULT
 62
     5
 10
-90.38564590566546
 20
144.6472183841951
 30
0.0
 42
-0.1088364278881143
  0
VERTEX
  5
29E
  8
DEFAULT
 62
     5
 10
-88.51836219052693
 20
144.3438812737828
 30
0.0
 42
-0.158030364433546
  0
VERTEX
  5
29F
  8
DEFAULT
 62
     5
 10
-87.65464692010784
 20
143.5732408564015
 30
0.0
 42
-0.1088017057953549
  0
VERTEX
  5
2A0
  8
DEFAULT
 62
     5
 10
-87.40435798770248
 20
141.8578672976491
 30
0.0
  0
VERTEX
  5
2A1
  8
DEFAULT
 62
     5
 10
-87.40435798770248
 20
139.6202127411827
 30
0.0
 42
0.0514080219695321
  0
VERTEX
  5
2A2
  8
DEFAULT
 62
     5
 10
-87.30019114442675
 20
138.2115511740434
 30
0.0
 42
0.0692287864232767
  0
VERTEX
  5
2A3
  8
DEFAULT
 62
     5
 10
-86.91053082720865
 20
137.2398109767876
 30
0.0
  0
VERTEX
  5
2A4
  8
DEFAULT
 62
     5
 10
-88.82411107412223
 20
137.2398109767876
 30
0.0
  0
VERTEX
  5
2A5
  8
DEFAULT
 62
     5
 10
-89.0073672175269
 20
137.7992246159042
 30
0.0
  0
VERTEX
  5
2A6
  8
DEFAULT
 62
     5
 10
-89.07488179601525
 20
138.0220261158095
 30
0.0
 42
-0.0933244186738235
  0
VERTEX
  5
2A7
  8
DEFAULT
 62
     5
 10
-90.11944284952826
 20
137.2967172383555
 30
0.0
 42
-0.1040133466925745
  0
VERTEX
  5
2A8
  8
DEFAULT
 62
     5
 10
-91.30674922714007
 20
137.0546257916025
 30
0.0
 42
-0.1965430357596679
  0
VERTEX
  5
2A9
  8
DEFAULT
 62
     5
 10
-93.0597395715701
 20
137.6598537020489
 30
0.0
 42
-0.2154369487651372
  0
VERTEX
  5
2AA
  8
DEFAULT
 62
     5
 10
-93.70065428399877
 20
139.1900430175311
 30
0.0
 42
-0.1373780248024516
  0
VERTEX
  5
2AB
  8
DEFAULT
 62
     5
 10
-93.4151603390989
 20
140.281863710837
 30
0.0
 42
-0.1473783213971545
  0
VERTEX
  5
2AC
  8
DEFAULT
 62
     5
 10
-92.61510203456461
 20
141.016335065791
 30
0.0
 42
-0.0634404934847077
  0
VERTEX
  5
2AD
  8
DEFAULT
 62
     5
 10
-91.1312092508575
 20
141.4614548632417
 30
0.0
 42
0.0472009877729215
  0
VERTEX
  5
2AE
  8
DEFAULT
 62
     5
 10
-89.31793823461607
 20
141.931169001479
 30
0.0
  0
VERTEX
  5
2AF
  8
DEFAULT
 62
     5
 10
-89.31793823461605
 20
142.1250348746765
 30
0.0
 42
0.2070921599656482
  0
VERTEX
  5
2B0
  8
DEFAULT
 62
     5
 10
-89.574014292363
 20
142.9265394895887
 30
0.0
 42
0.1777887432707713
  0
VERTEX
  5
2B1
  8
DEFAULT
 62
     5
 10
-90.54093188516751
 20
143.1657369027135
 30
0.0
 42
0.1651091138039291
  0
VERTEX
  5
2B2
  8
DEFAULT
 62
     5
 10
-91.28987058251799
 20
142.9602972497904
 30
0.0
 42
0.1491587679877571
  0
SEQEND
  5
2B3
  8
DEFAULT
 62
     5
  0
POLYLINE
  5
2B4
  8
DEFAULT
 62
     5
 66
     1
 10
0.0
 20
0.0
 30
0.0
 70
     1
  0
VERTEX
  5
2B5
  8
DEFAULT
 62
     5
 10
-105.6142345309124
 20
144.4620331990099
 30
0.0
  0
VERTEX
  5
2B6
  8
DEFAULT
 62
     5
 10
-103.885839469184
 20
144.4620331990099
 30
0.0
  0
VERTEX
  5
2B7
  8
DEFAULT
 62
     5
 10
-103.885839469184
 20
143.4830595660346
 30
0.0
 42
-0.2373869490350239
  0
VERTEX
  5
2B8
  8
DEFAULT
 62
     5
 10
-101.6395042247052
 20
144.647218384195
 30
0.0
 42
-0.1315120310734532
  0
VERTEX
  5
2B9
  8
DEFAULT
 62
     5
 10
-100.4391763441174
 20
144.3578668266916
 30
0.0
 42
-0.1393853272245046
  0
VERTEX
  5
2BA
  8
DEFAULT
 62
     5
 10
-99.60439622944872
 20
143.4830595660345
 30
0.0
 42
-0.1018343532165524
  0
VERTEX
  5
2BB
  8
DEFAULT
 62
     5
 10
-98.58298414825941
 20
144.3578668266916
 30
0.0
 42
-0.1239296679571122
  0
VERTEX
  5
2BC
  8
DEFAULT
 62
     5
 10
-97.41303773379988
 20
144.647218384195
 30
0.0
 42
-0.1355305589141876
  0
VERTEX
  5
2BD
  8
DEFAULT
 62
     5
 10
-96.07333893935679
 20
144.3231445455997
 30
0.0
 42
-0.1623661969580349
  0
VERTEX
  5
2BE
  8
DEFAULT
 62
     5
 10
-95.25447294841992
 20
143.3721415474845
 30
0.0
 42
-0.091544281031442
  0
VERTEX
  5
2BF
  8
DEFAULT
 62
     5
 10
-95.0586789753568
 20
141.8713696481978
 30
0.0
  0
VERTEX
  5
2C0
  8
DEFAULT
 62
     5
 10
-95.0586789753568
 20
137.2398109767876
 30
0.0
  0
VERTEX
  5
2C1
  8
DEFAULT
 62
     5
 10
-96.97225922227038
 20
137.2398109767876
 30
0.0
  0
VERTEX
  5
2C2
  8
DEFAULT
 62
     5
 10
-96.97225922227037
 20
141.3698272624968
 30
0.0
 42
0.1141470137910442
  0
VERTEX
  5
2C3
  8
DEFAULT
 62
     5
 10
-97.16708867444325
 20
142.7577511595379
 30
0.0
 42
0.272100060653397
  0
VERTEX
  5
2C4
  8
DEFAULT
 62
     5
 10
-97.97438041469701
 20
143.1657369027135
 30
0.0
 42
0.157563907146644
  0
VERTEX
  5
2C5
  8
DEFAULT
 62
     5
 10
-98.72042649129165
 20
142.9207523642472
 30
0.0
 42
0.165762737447422
  0
VERTEX
  5
2C6
  8
DEFAULT
 62
     5
 10
-99.22486338157834
 20
142.2031601248727
 30
0.0
 42
0.0723437487254878
  0
VERTEX
  5
2C7
  8
DEFAULT
 62
     5
 10
-99.37966662967777
 20
140.710104392708
 30
0.0
  0
VERTEX
  5
2C8
  8
DEFAULT
 62
     5
 10
-99.37966662967779
 20
137.2398109767876
 30
0.0
  0
VERTEX
  5
2C9
  8
DEFAULT
 62
     5
 10
-101.2932468765914
 20
137.2398109767876
 30
0.0
  0
VERTEX
  5
2CA
  8
DEFAULT
 62
     5
 10
-101.2932468765914
 20
141.1991089487506
 30
0.0
 42
0.0609892367975114
  0
VERTEX
  5
2CB
  8
DEFAULT
 62
     5
 10
-101.3930729049034
 20
142.5605094632245
 30
0.0
 42
0.1633931196984993
  0
VERTEX
  5
2CC
  8
DEFAULT
 62
     5
 10
-101.70316119059
 20
143.0162385195106
 30
0.0
 42
0.1561218014296317
  0
VERTEX
  5
2CD
  8
DEFAULT
 62
     5
 10
-102.273185030457
 20
143.1657369027135
 30
0.0
 42
0.155183717546805
  0
VERTEX
  5
2CE
  8
DEFAULT
 62
     5
 10
-103.0539524462285
 20
142.9275040104789
 30
0.0
 42
0.1670025847935283
  0
VERTEX
  5
2CF
  8
DEFAULT
 62
     5
 10
-103.5506731693932
 20
142.2402937081902
 30
0.0
 42
0.0722698594962293
  0
VERTEX
  5
2D0
  8
DEFAULT
 62
     5
 10
-103.7006542839988
 20
140.750614270099
 30
0.0
  0
VERTEX
  5
2D1
  8
DEFAULT
 62
     5
 10
-103.7006542839988
 20
137.2398109767876
 30
0.0
  0
VERTEX
  5
2D2
  8
DEFAULT
 62
     5
 10
-105.6142345309124
 20
137.2398109767876
 30
0.0
  0
SEQEND
  5
2D3
  8
DEFAULT
 62
     5
  0
POLYLINE
  5
2D4
  8
DEFAULT
 62
     5
 66
     1
 10
0.0
 20
0.0
 30
0.0
 70
     1
  0
VERTEX
  5
2D5
  8
DEFAULT
 62
     5
 10
-112.4043579877025
 20
140.8509225588562
 30
0.0
 42
0.1807696907208163
  0
VERTEX
  5
2D6
  8
DEFAULT
 62
     5
 10
-111.9047437018671
 20
139.178468766848
 30
0.0
 42
0.4777036397637608
  0
VERTEX
  5
2D7
  8
DEFAULT
 62
     5
 10
-109.4438058560077
 20
139.178468766848
 30
0.0
 42
0.1794408075869644
  0
VERTEX
  5
2D8
  8
DEFAULT
 62
     5
 10
-108.9475678642457
 20
140.8644258513199
 30
0.0
 42
0.180093245079371
  0
VERTEX
  5
2D9
  8
DEFAULT
 62
     5
 10
-109.4438058560077
 20
142.523375879907
 30
0.0
 42
0.4793729384846607
  0
VERTEX
  5
2DA
  8
DEFAULT
 62
     5
 10
-111.9047437018671
 20
142.523375879907
 30
0.0
 42
0.18076978908684
  0
SEQEND
  5
2DB
  8
DEFAULT
 62
     5
  0
POLYLINE
  5
2DC
  8
DEFAULT
 62
     5
 66
     1
 10
0.0
 20
0.0
 30
0.0
 70
     1
  0
VERTEX
  5
2DD
  8
DEFAULT
 62
     5
 10
-114.3179382346161
 20
140.9531598893939
 30
0.0
 42
-0.1222574291832674
  0
VERTEX
  5
2DE
  8
DEFAULT
 62
     5
 10
-113.8515994485372
 20
142.8069412539838
 30
0.0
 42
-0.1509199207836175
  0
VERTEX
  5
2DF
  8
DEFAULT
 62
     5
 10
-112.5302256090941
 20
144.1750929437321
 30
0.0
 42
-0.128724606714415
  0
VERTEX
  5
2E0
  8
DEFAULT
 62
     5
 10
-110.6209852352292
 20
144.647218384195
 30
0.0
 42
-0.2109274079128389
  0
VERTEX
  5
2E1
  8
DEFAULT
 62
     5
 10
-107.9512328552457
 20
143.5766166795174
 30
0.0
 42
-0.2026212639801714
  0
VERTEX
  5
2E2
  8
DEFAULT
 62
     5
 10
-106.9105308272086
 20
140.8711774975517
 30
0.0
 42
-0.2022295973323071
  0
VERTEX
  5
2E3
  8
DEFAULT
 62
     5
 10
-107.961359853636
 20
138.1387307887437
 30
0.0
 42
-0.2115506096601034
  0
VERTEX
  5
2E4
  8
DEFAULT
 62
     5
 10
-110.6074828846805
 20
137.0546257916024
 30
0.0
 42
-0.1188796278362464
  0
VERTEX
  5
2E5
  8
DEFAULT
 62
     5
 10
-112.4897166736181
 20
137.5060149748397
 30
0.0
 42
-0.1582355798320371
  0
VERTEX
  5
2E6
  8
DEFAULT
 62
     5
 10
-113.8515994485372
 20
138.8298001165084
 30
0.0
 42
-0.123905326714038
  0
SEQEND
  5
2E7
  8
DEFAULT
 62
     5
  0
POLYLINE
  5
2E8
  8
DEFAULT
 62
     5
 66
     1
 10
0.0
 20
0.0
 30
0.0
 70
     1
  0
VERTEX
  5
2E9
  8
DEFAULT
 62
     5
 10
-115.1821357654803
 20
144.4620331990099
 30
0.0
  0
VERTEX
  5
2EA
  8
DEFAULT
 62
     5
 10
-115.1821357654803
 20
142.9805517175284
 30
0.0
  0
VERTEX
  5
2EB
  8
DEFAULT
 62
     5
 10
-116.4784320617765
 20
142.9805517175284
 30
0.0
  0
VERTEX
  5
2EC
  8
DEFAULT
 62
     5
 10
-116.4784320617765
 20
139.9982992786751
 30
0.0
  0
VERTEX
  5
2ED
  8
DEFAULT
 62
     5
 10
-116.4417807389041
 20
138.9426467058816
 30
0.0
 42
0.1777629698042274
  0
VERTEX
  5
2EE
  8
DEFAULT
 62
     5
 10
-116.2763677610118
 20
138.6952508651895
 30
0.0
 42
0.1671411134724508
  0
VERTEX
  5
2EF
  8
DEFAULT
 62
     5
 10
-115.9614563999165
 20
138.5978356681457
 30
0.0
 42
0.0818670423875534
  0
VERTEX
  5
2F0
  8
DEFAULT
 62
     5
 10
-115.2129994920537
 20
138.780128232575
 30
0.0
  0
VERTEX
  5
2F1
  8
DEFAULT
 62
     5
 10
-115.0586789753568
 20
137.3324040403377
 30
0.0
 42
-0.1009135694951065
  0
VERTEX
  5
2F2
  8
DEFAULT
 62
     5
 10
-116.5478756820454
 20
137.0546257916024
 30
0.0
 42
-0.1023112505794519
  0
VERTEX
  5
2F3
  8
DEFAULT
 62
     5
 10
-117.4665681722519
 20
137.2301662388425
 30
0.0
 42
-0.1427327602514039
  0
VERTEX
  5
2F4
  8
DEFAULT
 62
     5
 10
-118.0669734782471
 20
137.6839667243054
 30
0.0
 42
-0.1112474266807889
  0
VERTEX
  5
2F5
  8
DEFAULT
 62
     5
 10
-118.3312474926037
 20
138.436763505217
 30
0.0
  0
VERTEX
  5
2F6
  8
DEFAULT
 62
     5
 10
-118.3920123086901
 20
139.7976817592458
 30
0.0
  0
VERTEX
  5
2F7
  8
DEFAULT
 62
     5
 10
-118.3920123086901
 20
142.9805517175284
 30
0.0
  0
VERTEX
  5
2F8
  8
DEFAULT
 62
     5
 10
-119.3179382346161
 20
142.9805517175284
 30
0.0
  0
VERTEX
  5
2F9
  8
DEFAULT
 62
     5
 10
-119.3179382346161
 20
144.4620331990099
 30
0.0
  0
VERTEX
  5
2FA
  8
DEFAULT
 62
     5
 10
-118.3920123086901
 20
144.4620331990099
 30
0.0
  0
VERTEX
  5
2FB
  8
DEFAULT
 62
     5
 10
-118.3920123086901
 20
145.8200578903679
 30
0.0
  0
VERTEX
  5
2FC
  8
DEFAULT
 62
     5
 10
-116.4784320617765
 20
146.931169001479
 30
0.0
  0
VERTEX
  5
2FD
  8
DEFAULT
 62
     5
 10
-116.4784320617765
 20
144.4620331990099
 30
0.0
  0
SEQEND
  5
2FE
  8
DEFAULT
 62
     5
  0
POLYLINE
  5
2FF
  8
DEFAULT
 62
     5
 66
     1
 10
0.0
 20
0.0
 30
0.0
 70
     1
  0
VERTEX
  5
300
  8
DEFAULT
 62
     5
 10
-128.206827123505
 20
140.4496875199975
 30
0.0
  0
VERTEX
  5
301
  8
DEFAULT
 62
     5
 10
-126.2932468765914
 20
140.6348727051827
 30
0.0
 42
0.1757987259282319
  0
VERTEX
  5
302
  8
DEFAULT
 62
     5
 10
-125.5862634250948
 20
139.2310342134522
 30
0.0
 42
0.1798176440028617
  0
VERTEX
  5
303
  8
DEFAULT
 62
     5
 10
-124.1491489626504
 20
138.7830208533308
 30
0.0
 42
0.1732845404634091
  0
VERTEX
  5
304
  8
DEFAULT
 62
     5
 10
-122.7048015354439
 20
139.1837736317444
 30
0.0
 42
0.2343690771093416
  0
VERTEX
  5
305
  8
DEFAULT
 62
     5
 10
-122.2191728025172
 20
140.1217560687986
 30
0.0
 42
0.1816333378887108
  0
VERTEX
  5
306
  8
DEFAULT
 62
     5
 10
-122.4222011532149
 20
140.7081753509275
 30
0.0
 42
0.1294276486643825
  0
VERTEX
  5
307
  8
DEFAULT
 62
     5
 10
-123.1315954359796
 20
141.1286998656765
 30
0.0
  0
VERTEX
  5
308
  8
DEFAULT
 62
     5
 10
-124.7114561644377
 20
141.5617631519989
 30
0.0
 42
-0.1173611745411419
  0
VERTEX
  5
309
  8
DEFAULT
 62
     5
 10
-126.9365719493308
 20
142.5494174729865
 30
0.0
 42
-0.2194381154320257
  0
VERTEX
  5
30A
  8
DEFAULT
 62
     5
 10
-127.8364567531346
 20
144.566200513243
 30
0.0
 42
-0.1458362056362055
  0
VERTEX
  5
30B
  8
DEFAULT
 62
     5
 10
-127.4111091629768
 20
145.9989741607238
 30
0.0
 42
-0.1522117373762235
  0
VERTEX
  5
30C
  8
DEFAULT
 62
     5
 10
-126.1857037392423
 20
147.0145991165716
 30
0.0
 42
-0.102868688148416
  0
VERTEX
  5
30D
  8
DEFAULT
 62
     5
 10
-124.2542807977738
 20
147.3632677669111
 30
0.0
 42
-0.1861118845193823
  0
VERTEX
  5
30E
  8
DEFAULT
 62
     5
 10
-121.4721622050324
 20
146.5222187374131
 30
0.0
 42
-0.2120595473349458
  0
VERTEX
  5
30F
  8
DEFAULT
 62
     5
 10
-120.4907777407889
 20
144.2768480138247
 30
0.0
  0
VERTEX
  5
310
  8
DEFAULT
 62
     5
 10
-122.4660863827642
 20
144.2151196187629
 30
0.0
 42
0.1870324440294714
  0
VERTEX
  5
311
  8
DEFAULT
 62
     5
 10
-123.009584956234
 20
145.3035649599104
 30
0.0
 42
0.1673980338206474
  0
VERTEX
  5
312
  8
DEFAULT
 62
     5
 10
-124.2610315020907
 20
145.6348727051827
 30
0.0
 42
0.1590859720640553
  0
VERTEX
  5
313
  8
DEFAULT
 62
     5
 10
-125.609411926461
 20
145.2789701481662
 30
0.0
 42
0.2541960773784174
  0
VERTEX
  5
314
  8
DEFAULT
 62
     5
 10
-125.922876506221
 20
144.6684378437808
 30
0.0
 42
0.2319281523700466
  0
VERTEX
  5
315
  8
DEFAULT
 62
     5
 10
-125.6277368814611
 20
144.0704443109687
 30
0.0
 42
0.0933887089371365
  0
VERTEX
  5
316
  8
DEFAULT
 62
     5
 10
-123.8038556644693
 20
143.4097573912472
 30
0.0
 42
-0.0589888642510258
  0
VERTEX
  5
317
  8
DEFAULT
 62
     5
 10
-121.6612054737786
 20
142.6965050249214
 30
0.0
 42
-0.1360839882457356
  0
VERTEX
  5
318
  8
DEFAULT
 62
     5
 10
-120.5746896453691
 20
141.6905252779762
 30
0.0
 42
-0.1400796130821266
  0
VERTEX
  5
319
  8
DEFAULT
 62
     5
 10
-120.1821357654803
 20
140.1140399016765
 30
0.0
 42
-0.1451940046734344
  0
VERTEX
  5
31A
  8
DEFAULT
 62
     5
 10
-120.653296685053
 20
138.5197113598644
 30
0.0
 42
-0.1569002318560369
  0
VERTEX
  5
31B
  8
DEFAULT
 62
     5
 10
-121.9862438332642
 20
137.4158336844728
 30
0.0
 42
-0.0985913091522394
  0
VERTEX
  5
31C
  8
DEFAULT
 62
     5
 10
-124.1337166284062
 20
137.0546257916024
 30
0.0
 42
-0.1816431449270681
  0
VERTEX
  5
31D
  8
DEFAULT
 62
     5
 10
-127.0089100741853
 20
137.9217168851374
 30
0.0
 42
-0.1921190031286087
  0
SEQEND
  5
31E
  8
DEFAULT
 62
     5
  0
POLYLINE
  5
31F
  8
DEFAULT
 62
     5
 66
     1
 10
0.0
 20
0.0
 30
0.0
 70
     1
  0
VERTEX
  5
320
  8
DEFAULT
 62
     5
 10
60.53964946716607
 20
166.0163269833396
 30
0.0
  0
VERTEX
  5
321
  8
DEFAULT
 62
     5
 10
62.26804452889448
 20
166.0163269833396
 30
0.0
  0
VERTEX
  5
322
  8
DEFAULT
 62
     5
 10
62.26804452889449
 20
165.0373533503643
 30
0.0
 42
-0.2373869490350208
  0
VERTEX
  5
323
  8
DEFAULT
 62
     5
 10
64.51437977337321
 20
166.2015121685248
 30
0.0
 42
-0.1315120310734531
  0
VERTEX
  5
324
  8
DEFAULT
 62
     5
 10
65.714707653961
 20
165.9121606110213
 30
0.0
 42
-0.139385327224502
  0
VERTEX
  5
325
  8
DEFAULT
 62
     5
 10
66.54948776862972
 20
165.0373533503643
 30
0.0
 42
-0.1018343532165576
  0
VERTEX
  5
326
  8
DEFAULT
 62
     5
 10
67.57089984981903
 20
165.9121606110213
 30
0.0
 42
-0.1239296679571137
  0
VERTEX
  5
327
  8
DEFAULT
 62
     5
 10
68.74084626427853
 20
166.2015121685248
 30
0.0
 42
-0.1355305589141846
  0
VERTEX
  5
328
  8
DEFAULT
 62
     5
 10
70.08054505872163
 20
165.8774383299294
 30
0.0
 42
-0.1623661969580464
  0
VERTEX
  5
329
  8
DEFAULT
 62
     5
 10
70.89941104965853
 20
164.9264353318142
 30
0.0
 42
-0.0915442810314502
  0
VERTEX
  5
32A
  8
DEFAULT
 62
     5
 10
71.09520502272164
 20
163.4256634325275
 30
0.0
  0
VERTEX
  5
32B
  8
DEFAULT
 62
     5
 10
71.09520502272164
 20
158.7941047611174
 30
0.0
  0
VERTEX
  5
32C
  8
DEFAULT
 62
     5
 10
69.18162477580805
 20
158.7941047611174
 30
0.0
  0
VERTEX
  5
32D
  8
DEFAULT
 62
     5
 10
69.18162477580803
 20
162.9241210468265
 30
0.0
 42
0.1141470137910797
  0
VERTEX
  5
32E
  8
DEFAULT
 62
     5
 10
68.9867953236352
 20
164.3120449438677
 30
0.0
 42
0.2721000606533733
  0
VERTEX
  5
32F
  8
DEFAULT
 62
     5
 10
68.17950358338143
 20
164.7200306870433
 30
0.0
 42
0.1575639071466621
  0
VERTEX
  5
330
  8
DEFAULT
 62
     5
 10
67.43345750678682
 20
164.4750461485769
 30
0.0
 42
0.1657627374474208
  0
VERTEX
  5
331
  8
DEFAULT
 62
     5
 10
66.92902061650007
 20
163.7574539092024
 30
0.0
 42
0.072343748725478
  0
VERTEX
  5
332
  8
DEFAULT
 62
     5
 10
66.77421736840066
 20
162.2643981770378
 30
0.0
  0
VERTEX
  5
333
  8
DEFAULT
 62
     5
 10
66.77421736840066
 20
158.7941047611174
 30
0.0
  0
VERTEX
  5
334
  8
DEFAULT
 62
     5
 10
64.86063712148706
 20
158.7941047611174
 30
0.0
  0
VERTEX
  5
335
  8
DEFAULT
 62
     5
 10
64.86063712148707
 20
162.7534027330803
 30
0.0
 42
0.0609892367974999
  0
VERTEX
  5
336
  8
DEFAULT
 62
     5
 10
64.76081109317501
 20
164.1148032475542
 30
0.0
 42
0.1633931196984605
  0
VERTEX
  5
337
  8
DEFAULT
 62
     5
 10
64.45072280748843
 20
164.5705323038403
 30
0.0
 42
0.156121801429639
  0
VERTEX
  5
338
  8
DEFAULT
 62
     5
 10
63.8806989676215
 20
164.7200306870433
 30
0.0
 42
0.155183717546827
  0
VERTEX
  5
339
  8
DEFAULT
 62
     5
 10
63.0999315518499
 20
164.4817977948087
 30
0.0
 42
0.1670025847935713
  0
VERTEX
  5
33A
  8
DEFAULT
 62
     5
 10
62.60321082868524
 20
163.79458749252
 30
0.0
 42
0.0722698594962395
  0
VERTEX
  5
33B
  8
DEFAULT
 62
     5
 10
62.45322971407966
 20
162.3049080544287
 30
0.0
  0
VERTEX
  5
33C
  8
DEFAULT
 62
     5
 10
62.45322971407967
 20
158.7941047611174
 30
0.0
  0
VERTEX
  5
33D
  8
DEFAULT
 62
     5
 10
60.53964946716607
 20
158.7941047611174
 30
0.0
  0
SEQEND
  5
33E
  8
DEFAULT
 62
     5
  0
POLYLINE
  5
33F
  8
DEFAULT
 62
     5
 66
     1
 10
0.0
 20
0.0
 30
0.0
 70
     1
  0
VERTEX
  5
340
  8
DEFAULT
 62
     5
 10
53.74952601037594
 20
162.4052163431859
 30
0.0
 42
0.1807696907208241
  0
VERTEX
  5
341
  8
DEFAULT
 62
     5
 10
54.24914029621135
 20
160.7327625511777
 30
0.0
 42
0.4777036397637899
  0
VERTEX
  5
342
  8
DEFAULT
 62
     5
 10
56.71007814207076
 20
160.7327625511777
 30
0.0
 42
0.1794408075869716
  0
VERTEX
  5
343
  8
DEFAULT
 62
     5
 10
57.20631613383277
 20
162.4187196356496
 30
0.0
 42
0.1800932450793863
  0
VERTEX
  5
344
  8
DEFAULT
 62
     5
 10
56.71007814207072
 20
164.0776696642367
 30
0.0
 42
0.479372938484652
  0
VERTEX
  5
345
  8
DEFAULT
 62
     5
 10
54.24914029621136
 20
164.0776696642367
 30
0.0
 42
0.1807697890868567
  0
SEQEND
  5
346
  8
DEFAULT
 62
     5
  0
POLYLINE
  5
347
  8
DEFAULT
 62
     5
 66
     1
 10
0.0
 20
0.0
 30
0.0
 70
     1
  0
VERTEX
  5
348
  8
DEFAULT
 62
     5
 10
51.83594576346238
 20
162.5074536737237
 30
0.0
 42
-0.1222574291832688
  0
VERTEX
  5
349
  8
DEFAULT
 62
     5
 10
52.30228454954126
 20
164.3612350383135
 30
0.0
 42
-0.1509199207836026
  0
VERTEX
  5
34A
  8
DEFAULT
 62
     5
 10
53.62365838898432
 20
165.7293867280618
 30
0.0
 42
-0.1287246067144142
  0
VERTEX
  5
34B
  8
DEFAULT
 62
     5
 10
55.53289876284919
 20
166.2015121685248
 30
0.0
 42
-0.2109274079128389
  0
VERTEX
  5
34C
  8
DEFAULT
 62
     5
 10
58.20265114283275
 20
165.1309104638472
 30
0.0
 42
-0.2026212639801716
  0
VERTEX
  5
34D
  8
DEFAULT
 62
     5
 10
59.24335317086978
 20
162.4254712818814
 30
0.0
 42
-0.2022295973323177
  0
VERTEX
  5
34E
  8
DEFAULT
 62
     5
 10
58.19252414444247
 20
159.6930245730734
 30
0.0
 42
-0.2115506096601011
  0
VERTEX
  5
34F
  8
DEFAULT
 62
     5
 10
55.54640111339791
 20
158.6089195759322
 30
0.0
 42
-0.1188796278362464
  0
VERTEX
  5
350
  8
DEFAULT
 62
     5
 10
53.66416732446033
 20
159.0603087591695
 30
0.0
 42
-0.1582355798320195
  0
VERTEX
  5
351
  8
DEFAULT
 62
     5
 10
52.30228454954125
 20
160.3840939008382
 30
0.0
 42
-0.1239053267140402
  0
SEQEND
  5
352
  8
DEFAULT
 62
     5
  0
POLYLINE
  5
353
  8
DEFAULT
 62
     5
 66
     1
 10
0.0
 20
0.0
 30
0.0
 70
     1
  0
VERTEX
  5
354
  8
DEFAULT
 62
     5
 10
50.78656304741298
 20
163.9175615512408
 30
0.0
  0
VERTEX
  5
355
  8
DEFAULT
 62
     5
 10
48.87298280049941
 20
163.6089195759322
 30
0.0
 42
0.1809968098175486
  0
VERTEX
  5
356
  8
DEFAULT
 62
     5
 10
48.4457071104761
 20
164.4408065988876
 30
0.0
 42
0.1804760167669842
  0
VERTEX
  5
357
  8
DEFAULT
 62
     5
 10
47.58150910865442
 20
164.7200306870433
 30
0.0
 42
0.2329674834671021
  0
VERTEX
  5
358
  8
DEFAULT
 62
     5
 10
46.45400161336636
 20
164.2184878303848
 30
0.0
 42
0.1695179555120547
  0
VERTEX
  5
359
  8
DEFAULT
 62
     5
 10
46.03347662765989
 20
162.5402473839925
 30
0.0
 42
0.1610966817174993
  0
VERTEX
  5
35A
  8
DEFAULT
 62
     5
 10
46.4641290827141
 20
160.6917708842991
 30
0.0
 42
0.2405540491094138
  0
VERTEX
  5
35B
  8
DEFAULT
 62
     5
 10
47.62008994426483
 20
160.1521294524754
 30
0.0
 42
0.188345844186951
  0
VERTEX
  5
35C
  8
DEFAULT
 62
     5
 10
48.50791776598294
 20
160.4578783360707
 30
0.0
 42
0.1622604489948036
  0
VERTEX
  5
35D
  8
DEFAULT
 62
     5
 10
48.9964395906229
 20
161.5101541438334
 30
0.0
  0
VERTEX
  5
35E
  8
DEFAULT
 62
     5
 10
50.91001983753646
 20
161.2632405635865
 30
0.0
 42
-0.1724509721436208
  0
VERTEX
  5
35F
  8
DEFAULT
 62
     5
 10
49.79215755115098
 20
159.2792517045563
 30
0.0
 42
-0.1746967243539234
  0
VERTEX
  5
360
  8
DEFAULT
 62
     5
 10
47.57572292522778
 20
158.6089195759322
 30
0.0
 42
-0.2163976905724349
  0
VERTEX
  5
361
  8
DEFAULT
 62
     5
 10
45.05836107824565
 20
159.6144175333897
 30
0.0
 42
-0.1943870566321083
  0
VERTEX
  5
362
  8
DEFAULT
 62
     5
 10
44.11989638074634
 20
162.3984646969541
 30
0.0
 42
-0.1945054615972603
  0
VERTEX
  5
363
  8
DEFAULT
 62
     5
 10
45.05787881780051
 20
165.1993905051407
 30
0.0
 42
-0.2157801631579896
  0
VERTEX
  5
364
  8
DEFAULT
 62
     5
 10
47.59501240111805
 20
166.2015121685248
 30
0.0
 42
-0.159942307695781
  0
VERTEX
  5
365
  8
DEFAULT
 62
     5
 10
49.67641692814962
 20
165.6372763959143
 30
0.0
 42
-0.1682635697126293
  0
SEQEND
  5
366
  8
DEFAULT
 62
     5
  0
POLYLINE
  5
367
  8
DEFAULT
 62
     5
 66
     1
 10
0.0
 20
0.0
 30
0.0
 70
     1
  0
VERTEX
  5
368
  8
DEFAULT
 62
     5
 10
40.66310625728954
 20
158.7941047611174
 30
0.0
  0
VERTEX
  5
369
  8
DEFAULT
 62
     5
 10
40.66310625728954
 20
160.7076850080309
 30
0.0
  0
VERTEX
  5
36A
  8
DEFAULT
 62
     5
 10
42.57668650420311
 20
160.7076850080309
 30
0.0
  0
VERTEX
  5
36B
  8
DEFAULT
 62
     5
 10
42.57668650420311
 20
158.7941047611174
 30
0.0
  0
SEQEND
  5
36C
  8
DEFAULT
 62
     5
  0
POLYLINE
  5
36D
  8
DEFAULT
 62
     5
 66
     1
 10
0.0
 20
0.0
 30
0.0
 70
     1
  0
VERTEX
  5
36E
  8
DEFAULT
 62
     5
 10
37.3297729239562
 20
163.0533640203766
 30
0.0
 42
0.1931771868552573
  0
VERTEX
  5
36F
  8
DEFAULT
 62
     5
 10
36.89044072280461
 20
164.2951658282881
 30
0.0
 42
0.2094545272840862
  0
VERTEX
  5
370
  8
DEFAULT
 62
     5
 10
35.87240446473123
 20
164.7200306870433
 30
0.0
 42
0.2175151257022326
  0
VERTEX
  5
371
  8
DEFAULT
 62
     5
 10
34.81241201888897
 20
164.2715360083917
 30
0.0
 42
0.1974850402976488
  0
VERTEX
  5
372
  8
DEFAULT
 62
     5
 10
34.40056819215236
 20
163.0533640203766
 30
0.0
  0
SEQEND
  5
373
  8
DEFAULT
 62
     5
  0
POLYLINE
  5
374
  8
DEFAULT
 62
     5
 66
     1
 10
0.0
 20
0.0
 30
0.0
 70
     1
  0
VERTEX
  5
375
  8
DEFAULT
 62
     5
 10
37.20631613383276
 20
161.0780553784013
 30
0.0
  0
VERTEX
  5
376
  8
DEFAULT
 62
     5
 10
39.11989638074634
 20
160.8311417981544
 30
0.0
 42
-0.1601948643917295
  0
VERTEX
  5
377
  8
DEFAULT
 62
     5
 10
37.9567020834761
 20
159.1770139030611
 30
0.0
 42
-0.1590209405814309
  0
VERTEX
  5
378
  8
DEFAULT
 62
     5
 10
35.96692657006182
 20
158.6089195759322
 30
0.0
 42
-0.2510606897924313
  0
VERTEX
  5
379
  8
DEFAULT
 62
     5
 10
33.16985837447881
 20
159.8473455607277
 30
0.0
 42
-0.1603231689598233
  0
VERTEX
  5
37A
  8
DEFAULT
 62
     5
 10
32.45322971407965
 20
162.350239594356
 30
0.0
 42
-0.1928988919450615
  0
VERTEX
  5
37B
  8
DEFAULT
 62
     5
 10
33.39796379736566
 20
165.1791360374027
 30
0.0
 42
-0.2186957110499579
  0
VERTEX
  5
37C
  8
DEFAULT
 62
     5
 10
35.78656304741298
 20
166.2015121685248
 30
0.0
 42
-0.2248762650829717
  0
VERTEX
  5
37D
  8
DEFAULT
 62
     5
 10
38.34636287165169
 20
165.1381443705241
 30
0.0
 42
-0.1866850592647347
  0
VERTEX
  5
37E
  8
DEFAULT
 62
     5
 10
39.2433531708698
 20
161.8805245142038
 30
0.0
  0
VERTEX
  5
37F
  8
DEFAULT
 62
     5
 10
34.36680996099323
 20
161.8805245142038
 30
0.0
 42
0.1907233177561202
  0
VERTEX
  5
380
  8
DEFAULT
 62
     5
 10
34.83893634337113
 20
160.5615624479438
 30
0.0
 42
0.2135192120775374
  0
VERTEX
  5
381
  8
DEFAULT
 62
     5
 10
35.96403300739104
 20
160.0904010574137
 30
0.0
 42
0.1657236937100997
  0
VERTEX
  5
382
  8
DEFAULT
 62
     5
 10
36.73419069336978
 20
160.3242940765995
 30
0.0
 42
0.1589948514629194
  0
SEQEND
  5
383
  8
DEFAULT
 62
     5
  0
POLYLINE
  5
384
  8
DEFAULT
 62
     5
 66
     1
 10
0.0
 20
0.0
 30
0.0
 70
     1
  0
VERTEX
  5
385
  8
DEFAULT
 62
     5
 10
31.52730378815374
 20
163.9175615512408
 30
0.0
  0
VERTEX
  5
386
  8
DEFAULT
 62
     5
 10
29.61372354124015
 20
163.6089195759322
 30
0.0
 42
0.1809968098175651
  0
VERTEX
  5
387
  8
DEFAULT
 62
     5
 10
29.18644785121683
 20
164.4408065988876
 30
0.0
 42
0.1804760167669805
  0
VERTEX
  5
388
  8
DEFAULT
 62
     5
 10
28.32224984939515
 20
164.7200306870433
 30
0.0
 42
0.2329674834671082
  0
VERTEX
  5
389
  8
DEFAULT
 62
     5
 10
27.1947423541071
 20
164.2184878303848
 30
0.0
 42
0.169517955512037
  0
VERTEX
  5
38A
  8
DEFAULT
 62
     5
 10
26.77421736840065
 20
162.5402473839925
 30
0.0
 42
0.1610966817174987
  0
VERTEX
  5
38B
  8
DEFAULT
 62
     5
 10
27.20486982345483
 20
160.6917708842991
 30
0.0
 42
0.240554049109414
  0
VERTEX
  5
38C
  8
DEFAULT
 62
     5
 10
28.36083068500557
 20
160.1521294524754
 30
0.0
 42
0.1883458441869595
  0
VERTEX
  5
38D
  8
DEFAULT
 62
     5
 10
29.24865850672369
 20
160.4578783360707
 30
0.0
 42
0.1622604489948042
  0
VERTEX
  5
38E
  8
DEFAULT
 62
     5
 10
29.73718033136362
 20
161.5101541438334
 30
0.0
  0
VERTEX
  5
38F
  8
DEFAULT
 62
     5
 10
31.6507605782772
 20
161.2632405635865
 30
0.0
 42
-0.1724509721436207
  0
VERTEX
  5
390
  8
DEFAULT
 62
     5
 10
30.53289829189172
 20
159.2792517045563
 30
0.0
 42
-0.1746967243539383
  0
VERTEX
  5
391
  8
DEFAULT
 62
     5
 10
28.31646366596854
 20
158.6089195759321
 30
0.0
 42
-0.2163976905724268
  0
VERTEX
  5
392
  8
DEFAULT
 62
     5
 10
25.79910181898639
 20
159.6144175333896
 30
0.0
 42
-0.1943870566321051
  0
VERTEX
  5
393
  8
DEFAULT
 62
     5
 10
24.86063712148707
 20
162.3984646969541
 30
0.0
 42
-0.1945054615972496
  0
VERTEX
  5
394
  8
DEFAULT
 62
     5
 10
25.79861955854127
 20
165.1993905051406
 30
0.0
 42
-0.2157801631579895
  0
VERTEX
  5
395
  8
DEFAULT
 62
     5
 10
28.33575314185882
 20
166.2015121685248
 30
0.0
 42
-0.1599423076957884
  0
VERTEX
  5
396
  8
DEFAULT
 62
     5
 10
30.41715766889036
 20
165.6372763959144
 30
0.0
 42
-0.1682635697126249
  0
SEQEND
  5
397
  8
DEFAULT
 62
     5
  0
POLYLINE
  5
398
  8
DEFAULT
 62
     5
 66
     1
 10
0.0
 20
0.0
 30
0.0
 70
     1
  0
VERTEX
  5
399
  8
DEFAULT
 62
     5
 10
21.40384699803028
 20
162.2508948845741
 30
0.0
  0
VERTEX
  5
39A
  8
DEFAULT
 62
     5
 10
20.28984279520586
 20
161.9586497643999
 30
0.0
 42
0.0811165779561558
  0
VERTEX
  5
39B
  8
DEFAULT
 62
     5
 10
19.29350825716331
 20
161.6258957087497
 30
0.0
 42
0.2517191883485961
  0
VERTEX
  5
39C
  8
DEFAULT
 62
     5
 10
18.93471119556114
 20
160.9526704884123
 30
0.0
 42
0.4298150945545061
  0
VERTEX
  5
39D
  8
DEFAULT
 62
     5
 10
19.9513011432566
 20
159.9669442672902
 30
0.0
 42
0.1670482644846359
  0
VERTEX
  5
39E
  8
DEFAULT
 62
     5
 10
20.89555296609747
 20
160.3064509110872
 30
0.0
 42
0.16516124549912
  0
VERTEX
  5
39F
  8
DEFAULT
 62
     5
 10
21.33247433598087
 20
160.9391671959486
 30
0.0
 42
0.0593667948163829
  0
VERTEX
  5
3A0
  8
DEFAULT
 62
     5
 10
21.40384699803028
 20
161.8699157263258
 30
0.0
  0
SEQEND
  5
3A1
  8
DEFAULT
 62
     5
  0
POLYLINE
  5
3A2
  8
DEFAULT
 62
     5
 66
     1
 10
0.0
 20
0.0
 30
0.0
 70
     1
  0
VERTEX
  5
3A3
  8
DEFAULT
 62
     5
 10
18.99643959062287
 20
163.7941047611174
 30
0.0
  0
VERTEX
  5
3A4
  8
DEFAULT
 62
     5
 10
17.26804452889448
 20
164.0410183413643
 30
0.0
 42
-0.1714833175990269
  0
VERTEX
  5
3A5
  8
DEFAULT
 62
     5
 10
18.25521706039448
 20
165.6719986770062
 30
0.0
 42
-0.1608829132837639
  0
VERTEX
  5
3A6
  8
DEFAULT
 62
     5
 10
20.33613932698088
 20
166.2015121685248
 30
0.0
 42
-0.108836427888107
  0
VERTEX
  5
3A7
  8
DEFAULT
 62
     5
 10
22.20342304211944
 20
165.8981750581125
 30
0.0
 42
-0.1580303644335465
  0
VERTEX
  5
3A8
  8
DEFAULT
 62
     5
 10
23.06713831253851
 20
165.1275346407312
 30
0.0
 42
-0.1088017057953376
  0
VERTEX
  5
3A9
  8
DEFAULT
 62
     5
 10
23.31742724494387
 20
163.4121610819788
 30
0.0
  0
VERTEX
  5
3AA
  8
DEFAULT
 62
     5
 10
23.31742724494385
 20
161.1745065255124
 30
0.0
 42
0.0514080219695319
  0
VERTEX
  5
3AB
  8
DEFAULT
 62
     5
 10
23.42159408821959
 20
159.7658449583732
 30
0.0
 42
0.0692287864232513
  0
VERTEX
  5
3AC
  8
DEFAULT
 62
     5
 10
23.81125440543768
 20
158.7941047611174
 30
0.0
  0
VERTEX
  5
3AD
  8
DEFAULT
 62
     5
 10
21.89767415852411
 20
158.7941047611174
 30
0.0
  0
VERTEX
  5
3AE
  8
DEFAULT
 62
     5
 10
21.71441801511945
 20
159.353518400234
 30
0.0
  0
VERTEX
  5
3AF
  8
DEFAULT
 62
     5
 10
21.64690343663107
 20
159.5763199001393
 30
0.0
 42
-0.0933244186738202
  0
VERTEX
  5
3B0
  8
DEFAULT
 62
     5
 10
20.60234238311807
 20
158.8510110226853
 30
0.0
 42
-0.1040133466925807
  0
VERTEX
  5
3B1
  8
DEFAULT
 62
     5
 10
19.41503600550625
 20
158.6089195759322
 30
0.0
 42
-0.1965430357596551
  0
VERTEX
  5
3B2
  8
DEFAULT
 62
     5
 10
17.66204566107621
 20
159.2141474863786
 30
0.0
 42
-0.215436948765116
  0
VERTEX
  5
3B3
  8
DEFAULT
 62
     5
 10
17.02113094864756
 20
160.7443368018608
 30
0.0
 42
-0.1373780248024276
  0
VERTEX
  5
3B4
  8
DEFAULT
 62
     5
 10
17.30662489354743
 20
161.8361574951667
 30
0.0
 42
-0.1473783213971595
  0
VERTEX
  5
3B5
  8
DEFAULT
 62
     5
 10
18.10668319808171
 20
162.5706288501208
 30
0.0
 42
-0.0634404934846849
  0
VERTEX
  5
3B6
  8
DEFAULT
 62
     5
 10
19.59057598178885
 20
163.0157486475714
 30
0.0
 42
0.0472009877729202
  0
VERTEX
  5
3B7
  8
DEFAULT
 62
     5
 10
21.40384699803028
 20
163.4854627858087
 30
0.0
  0
VERTEX
  5
3B8
  8
DEFAULT
 62
     5
 10
21.40384699803029
 20
163.6793286590062
 30
0.0
 42
0.2070921599655993
  0
VERTEX
  5
3B9
  8
DEFAULT
 62
     5
 10
21.14777094028336
 20
164.4808332739184
 30
0.0
 42
0.1777887432707642
  0
VERTEX
  5
3BA
  8
DEFAULT
 62
     5
 10
20.18085334747883
 20
164.7200306870433
 30
0.0
 42
0.1651091138039308
  0
VERTEX
  5
3BB
  8
DEFAULT
 62
     5
 10
19.43191465012836
 20
164.5145910341201
 30
0.0
 42
0.1491587679877579
  0
SEQEND
  5
3BC
  8
DEFAULT
 62
     5
  0
POLYLINE
  5
3BD
  8
DEFAULT
 62
     5
 66
     1
 10
0.0
 20
0.0
 30
0.0
 70
     1
  0
VERTEX
  5
3BE
  8
DEFAULT
 62
     5
 10
11.03347662765991
 20
162.5267440915289
 30
0.0
 42
0.166212785212069
  0
VERTEX
  5
3BF
  8
DEFAULT
 62
     5
 10
11.50704932041573
 20
160.6855014985124
 30
0.0
 42
0.2404461653497519
  0
VERTEX
  5
3C0
  8
DEFAULT
 62
     5
 10
12.66059887974083
 20
160.0904010574137
 30
0.0
 42
0.2413239634427077
  0
VERTEX
  5
3C1
  8
DEFAULT
 62
     5
 10
13.74807969999804
 20
160.6367941354692
 30
0.0
 42
0.1627449374921728
  0
VERTEX
  5
3C2
  8
DEFAULT
 62
     5
 10
14.18162477580804
 20
162.4293293654424
 30
0.0
 42
0.1661976731382164
  0
VERTEX
  5
3C3
  8
DEFAULT
 62
     5
 10
13.7345764075344
 20
164.156277174878
 30
0.0
 42
0.2412377667960575
  0
VERTEX
  5
3C4
  8
DEFAULT
 62
     5
 10
12.62780611138692
 20
164.7200306870433
 30
0.0
 42
0.2367422129321828
  0
VERTEX
  5
3C5
  8
DEFAULT
 62
     5
 10
11.48679485267772
 20
164.1664041732683
 30
0.0
 42
0.1723447809988965
  0
SEQEND
  5
3C6
  8
DEFAULT
 62
     5
  0
POLYLINE
  5
3C7
  8
DEFAULT
 62
     5
 66
     1
 10
0.0
 20
0.0
 30
0.0
 70
     1
  0
VERTEX
  5
3C8
  8
DEFAULT
 62
     5
 10
9.119896380746326
 20
166.0163269833396
 30
0.0
  0
VERTEX
  5
3C9
  8
DEFAULT
 62
     5
 10
10.91001983753645
 20
166.0163269833396
 30
0.0
  0
VERTEX
  5
3CA
  8
DEFAULT
 62
     5
 10
10.91001983753645
 20
164.9630871256441
 30
0.0
 42
-0.1189653659007449
  0
VERTEX
  5
3CB
  8
DEFAULT
 62
     5
 10
11.83449945308445
 20
165.8523612577401
 30
0.0
 42
-0.1382105598910078
  0
VERTEX
  5
3CC
  8
DEFAULT
 62
     5
 10
13.12742039722231
 20
166.2015121685248
 30
0.0
 42
-0.2273648758850189
  0
VERTEX
  5
3CD
  8
DEFAULT
 62
     5
 10
15.23100749185744
 20
165.2095179744884
 30
0.0
 42
-0.1838682188936204
  0
VERTEX
  5
3CE
  8
DEFAULT
 62
     5
 10
16.09520502272164
 20
162.4466897995522
 30
0.0
 42
-0.1823656645300174
  0
VERTEX
  5
3CF
  8
DEFAULT
 62
     5
 10
15.22377405613796
 20
159.6177933565056
 30
0.0
 42
-0.2285594541574804
  0
VERTEX
  5
3D0
  8
DEFAULT
 62
     5
 10
13.11198806297814
 20
158.6089195759321
 30
0.0
 42
-0.1163198006807948
  0
VERTEX
  5
3D1
  8
DEFAULT
 62
     5
 10
12.04235040823329
 20
158.8452238973437
 30
0.0
 42
-0.0904152380777466
  0
VERTEX
  5
3D2
  8
DEFAULT
 62
     5
 10
11.03347662765991
 20
159.6554096712257
 30
0.0
  0
VERTEX
  5
3D3
  8
DEFAULT
 62
     5
 10
11.03347662765991
 20
156.0163269833396
 30
0.0
  0
VERTEX
  5
3D4
  8
DEFAULT
 62
     5
 10
9.119896380746326
 20
156.0163269833396
 30
0.0
  0
SEQEND
  5
3D5
  8
DEFAULT
 62
     5
  0
POLYLINE
  5
3D6
  8
DEFAULT
 62
     5
 66
     1
 10
0.0
 20
0.0
 30
0.0
 70
     1
  0
VERTEX
  5
3D7
  8
DEFAULT
 62
     5
 10
0.7248346523512623
 20
160.8311417981544
 30
0.0
  0
VERTEX
  5
3D8
  8
DEFAULT
 62
     5
 10
2.638414899264852
 20
161.0780553784013
 30
0.0
 42
0.1817134537413006
  0
VERTEX
  5
3D9
  8
DEFAULT
 62
     5
 10
3.133689312051535
 20
160.2495446495193
 30
0.0
 42
0.1637490318832523
  0
VERTEX
  5
3DA
  8
DEFAULT
 62
     5
 10
4.176803113271689
 20
159.9669442672902
 30
0.0
 42
0.158154859031634
  0
VERTEX
  5
3DB
  8
DEFAULT
 62
     5
 10
5.288878745273049
 20
160.2437579951352
 30
0.0
 42
0.245417362875301
  0
VERTEX
  5
3DC
  8
DEFAULT
 62
     5
 10
5.539649467166108
 20
160.7626626987758
 30
0.0
 42
0.1967133408659126
  0
VERTEX
  5
3DD
  8
DEFAULT
 62
     5
 10
5.403654847384179
 20
161.1291749855851
 30
0.0
 42
0.1152480441761866
  0
VERTEX
  5
3DE
  8
DEFAULT
 62
     5
 10
4.763222395400648
 20
161.3847692538444
 30
0.0
 42
-0.0750101977649268
  0
VERTEX
  5
3DF
  8
DEFAULT
 62
     5
 10
1.829195059145491
 20
162.3290201347703
 30
0.0
 42
-0.2630575377237314
  0
VERTEX
  5
3E0
  8
DEFAULT
 62
     5
 10
0.9717482325982152
 20
163.9667521166441
 30
0.0
 42
-0.2278055359033987
  0
VERTEX
  5
3E1
  8
DEFAULT
 62
     5
 10
1.71297123378406
 20
165.5572221039376
 30
0.0
 42
-0.1789409577799081
  0
VERTEX
  5
3E2
  8
DEFAULT
 62
     5
 10
4.010907403976773
 20
166.2015121685248
 30
0.0
 42
-0.1478680227512759
  0
VERTEX
  5
3E3
  8
DEFAULT
 62
     5
 10
6.213839679351259
 20
165.702380614092
 30
0.0
 42
-0.1798681362132166
  0
VERTEX
  5
3E4
  8
DEFAULT
 62
     5
 10
7.206316133832741
 20
164.2262035265495
 30
0.0
  0
VERTEX
  5
3E5
  8
DEFAULT
 62
     5
 10
5.416192677042608
 20
163.9175615512408
 30
0.0
 42
0.1762609448244158
  0
VERTEX
  5
3E6
  8
DEFAULT
 62
     5
 10
4.978307257226439
 20
164.604772324487
 30
0.0
 42
0.1598214678236447
  0
VERTEX
  5
3E7
  8
DEFAULT
 62
     5
 10
4.058167985684605
 20
164.8434874771667
 30
0.0
 42
0.1371855487857243
  0
VERTEX
  5
3E8
  8
DEFAULT
 62
     5
 10
2.978886063952065
 20
164.6293676071887
 30
0.0
 42
0.2593740206710623
  0
VERTEX
  5
3E9
  8
DEFAULT
 62
     5
 10
2.761871689388321
 20
164.2348842145618
 30
0.0
 42
0.2456185528240619
  0
VERTEX
  5
3EA
  8
DEFAULT
 62
     5
 10
2.95187947902479
 20
163.8818752202161
 30
0.0
 42
0.0664798749578872
  0
VERTEX
  5
3EB
  8
DEFAULT
 62
     5
 10
4.731393676979522
 20
163.335482613118
 30
0.0
 42
-0.1095214193377389
  0
VERTEX
  5
3EC
  8
DEFAULT
 62
     5
 10
6.856200702157848
 20
162.4765899471503
 30
0.0
 42
-0.2284114958797638
  0
VERTEX
  5
3ED
  8
DEFAULT
 62
     5
 10
7.453229714079647
 20
161.0462271309377
 30
0.0
 42
-0.2276229810651017
  0
VERTEX
  5
3EE
  8
DEFAULT
 62
     5
 10
6.625683506087904
 20
159.3274768071544
 30
0.0
 42
-0.1809722242825327
  0
VERTEX
  5
3EF
  8
DEFAULT
 62
     5
 10
4.176803113271687
 20
158.6089195759322
 30
0.0
 42
-0.1534212868272014
  0
VERTEX
  5
3F0
  8
DEFAULT
 62
     5
 10
1.847037753700378
 20
159.2069135797017
 30
0.0
 42
-0.1853542620166034
  0
SEQEND
  5
3F1
  8
DEFAULT
 62
     5
  0
POLYLINE
  5
3F2
  8
DEFAULT
 62
     5
 66
     1
 10
0.0
 20
0.0
 30
0.0
 70
     1
  0
VERTEX
  5
3F3
  8
DEFAULT
 62
     5
 10
-0.5097332488832933
 20
158.7941047611174
 30
0.0
  0
VERTEX
  5
3F4
  8
DEFAULT
 62
     5
 10
-2.423313495796876
 20
158.7941047611174
 30
0.0
  0
VERTEX
  5
3F5
  8
DEFAULT
 62
     5
 10
-2.423313495796861
 20
162.4814125516016
 30
0.0
 42
0.0659043403441942
  0
VERTEX
  5
3F6
  8
DEFAULT
 62
     5
 10
-2.543876723249561
 20
163.9956872723944
 30
0.0
 42
0.1600130695765403
  0
VERTEX
  5
3F7
  8
DEFAULT
 62
     5
 10
-2.93546608224819
 20
164.5295411079191
 30
0.0
 42
0.1575149176298616
  0
VERTEX
  5
3F8
  8
DEFAULT
 62
     5
 10
-3.587472313957378
 20
164.7200306870432
 30
0.0
 42
0.1576987046345059
  0
VERTEX
  5
3F9
  8
DEFAULT
 62
     5
 10
-4.463725884992359
 20
164.4480400346071
 30
0.0
 42
0.168437182261732
  0
VERTEX
  5
3FA
  8
DEFAULT
 62
     5
 10
-4.995651149694045
 20
163.7270719721167
 30
0.0
 42
0.0659809918576492
  0
VERTEX
  5
3FB
  8
DEFAULT
 62
     5
 10
-5.139362878512923
 20
162.0666742202792
 30
0.0
  0
VERTEX
  5
3FC
  8
DEFAULT
 62
     5
 10
-5.139362878512927
 20
158.7941047611174
 30
0.0
  0
VERTEX
  5
3FD
  8
DEFAULT
 62
     5
 10
-7.052943125426509
 20
158.7941047611174
 30
0.0
  0
VERTEX
  5
3FE
  8
DEFAULT
 62
     5
 10
-7.052943125426509
 20
166.0163269833396
 30
0.0
  0
VERTEX
  5
3FF
  8
DEFAULT
 62
     5
 10
-5.262819668636382
 20
166.0163269833396
 30
0.0
  0
VERTEX
  5
400
  8
DEFAULT
 62
     5
 10
-5.26281966863638
 20
164.9630871256441
 30
0.0
 42
-0.2486296121988425
  0
VERTEX
  5
401
  8
DEFAULT
 62
     5
 10
-2.909424489168629
 20
166.2015121685248
 30
0.0
 42
-0.1053164015607993
  0
VERTEX
  5
402
  8
DEFAULT
 62
     5
 10
-1.766966920081522
 20
165.9729244851928
 30
0.0
 42
-0.1292191717088619
  0
VERTEX
  5
403
  8
DEFAULT
 62
     5
 10
-0.9837877311267957
 20
165.3898805552223
 30
0.0
 42
-0.105493237426218
  0
VERTEX
  5
404
  8
DEFAULT
 62
     5
 10
-0.6138996212015477
 20
164.5850001171942
 30
0.0
 42
-0.0533641385177127
  0
VERTEX
  5
405
  8
DEFAULT
 62
     5
 10
-0.5097332488832977
 20
163.2954559380871
 30
0.0
  0
SEQEND
  5
406
  8
DEFAULT
 62
     5
  0
POLYLINE
  5
407
  8
DEFAULT
 62
     5
 66
     1
 10
0.0
 20
0.0
 30
0.0
 70
     1
  0
VERTEX
  5
408
  8
DEFAULT
 62
     5
 10
-10.94183201431539
 20
162.2508948845741
 30
0.0
  0
VERTEX
  5
409
  8
DEFAULT
 62
     5
 10
-12.05583621713983
 20
161.9586497643999
 30
0.0
 42
0.0811165779561517
  0
VERTEX
  5
40A
  8
DEFAULT
 62
     5
 10
-13.05217075518237
 20
161.6258957087497
 30
0.0
 42
0.2517191883485966
  0
VERTEX
  5
40B
  8
DEFAULT
 62
     5
 10
-13.41096781678455
 20
160.9526704884123
 30
0.0
 42
0.4298150945544962
  0
VERTEX
  5
40C
  8
DEFAULT
 62
     5
 10
-12.39437786908907
 20
159.9669442672902
 30
0.0
 42
0.167048264484613
  0
VERTEX
  5
40D
  8
DEFAULT
 62
     5
 10
-11.45012604624819
 20
160.3064509110871
 30
0.0
 42
0.165161245499133
  0
VERTEX
  5
40E
  8
DEFAULT
 62
     5
 10
-11.0132046763648
 20
160.9391671959486
 30
0.0
 42
0.0593667948163824
  0
VERTEX
  5
40F
  8
DEFAULT
 62
     5
 10
-10.94183201431539
 20
161.8699157263258
 30
0.0
  0
SEQEND
  5
410
  8
DEFAULT
 62
     5
  0
POLYLINE
  5
411
  8
DEFAULT
 62
     5
 66
     1
 10
0.0
 20
0.0
 30
0.0
 70
     1
  0
VERTEX
  5
412
  8
DEFAULT
 62
     5
 10
-13.3492394217228
 20
163.7941047611174
 30
0.0
  0
VERTEX
  5
413
  8
DEFAULT
 62
     5
 10
-15.07763448345122
 20
164.0410183413643
 30
0.0
 42
-0.1714833175990224
  0
VERTEX
  5
414
  8
DEFAULT
 62
     5
 10
-14.09046195195122
 20
165.6719986770062
 30
0.0
 42
-0.160882913283763
  0
VERTEX
  5
415
  8
DEFAULT
 62
     5
 10
-12.0095396853648
 20
166.2015121685248
 30
0.0
 42
-0.1088364278881059
  0
VERTEX
  5
416
  8
DEFAULT
 62
     5
 10
-10.14225597022625
 20
165.8981750581125
 30
0.0
 42
-0.1580303644335606
  0
VERTEX
  5
417
  8
DEFAULT
 62
     5
 10
-9.278540699807156
 20
165.1275346407312
 30
0.0
 42
-0.1088017057953375
  0
VERTEX
  5
418
  8
DEFAULT
 62
     5
 10
-9.028251767401802
 20
163.4121610819788
 30
0.0
  0
VERTEX
  5
419
  8
DEFAULT
 62
     5
 10
-9.028251767401791
 20
161.1745065255124
 30
0.0
 42
0.0514080219695313
  0
VERTEX
  5
41A
  8
DEFAULT
 62
     5
 10
-8.924084924126133
 20
159.7658449583732
 30
0.0
 42
0.0692287864232533
  0
VERTEX
  5
41B
  8
DEFAULT
 62
     5
 10
-8.534424606907992
 20
158.7941047611173
 30
0.0
  0
VERTEX
  5
41C
  8
DEFAULT
 62
     5
 10
-10.44800485382157
 20
158.7941047611174
 30
0.0
  0
VERTEX
  5
41D
  8
DEFAULT
 62
     5
 10
-10.63126099722624
 20
159.353518400234
 30
0.0
  0
VERTEX
  5
41E
  8
DEFAULT
 62
     5
 10
-10.69877557571459
 20
159.5763199001393
 30
0.0
 42
-0.0933244186738104
  0
VERTEX
  5
41F
  8
DEFAULT
 62
     5
 10
-11.74333662922761
 20
158.8510110226852
 30
0.0
 42
-0.1040133466925802
  0
VERTEX
  5
420
  8
DEFAULT
 62
     5
 10
-12.93064300683942
 20
158.6089195759322
 30
0.0
 42
-0.1965430357596678
  0
VERTEX
  5
421
  8
DEFAULT
 62
     5
 10
-14.68363335126946
 20
159.2141474863787
 30
0.0
 42
-0.2154369487651187
  0
VERTEX
  5
422
  8
DEFAULT
 62
     5
 10
-15.32454806369814
 20
160.7443368018608
 30
0.0
 42
-0.1373780248024269
  0
VERTEX
  5
423
  8
DEFAULT
 62
     5
 10
-15.03905411879826
 20
161.8361574951667
 30
0.0
 42
-0.1473783213971385
  0
VERTEX
  5
424
  8
DEFAULT
 62
     5
 10
-14.23899581426398
 20
162.5706288501208
 30
0.0
 42
-0.0634404934846917
  0
VERTEX
  5
425
  8
DEFAULT
 62
     5
 10
-12.75510303055684
 20
163.0157486475714
 30
0.0
 42
0.047200987772919
  0
VERTEX
  5
426
  8
DEFAULT
 62
     5
 10
-10.94183201431539
 20
163.4854627858087
 30
0.0
  0
VERTEX
  5
427
  8
DEFAULT
 62
     5
 10
-10.94183201431539
 20
163.6793286590062
 30
0.0
 42
0.2070921599656178
  0
VERTEX
  5
428
  8
DEFAULT
 62
     5
 10
-11.19790807206232
 20
164.4808332739184
 30
0.0
 42
0.1777887432707449
  0
VERTEX
  5
429
  8
DEFAULT
 62
     5
 10
-12.16482566486684
 20
164.7200306870432
 30
0.0
 42
0.1651091138039313
  0
VERTEX
  5
42A
  8
DEFAULT
 62
     5
 10
-12.91376436221734
 20
164.5145910341201
 30
0.0
 42
0.149158767987778
  0
SEQEND
  5
42B
  8
DEFAULT
 62
     5
  0
POLYLINE
  5
42C
  8
DEFAULT
 62
     5
 66
     1
 10
0.0
 20
0.0
 30
0.0
 70
     1
  0
VERTEX
  5
42D
  8
DEFAULT
 62
     5
 10
-27.2381283106117
 20
166.0163269833396
 30
0.0
  0
VERTEX
  5
42E
  8
DEFAULT
 62
     5
 10
-25.50973324888329
 20
166.0163269833396
 30
0.0
  0
VERTEX
  5
42F
  8
DEFAULT
 62
     5
 10
-25.50973324888329
 20
165.0373533503643
 30
0.0
 42
-0.2373869490350211
  0
VERTEX
  5
430
  8
DEFAULT
 62
     5
 10
-23.26339800440456
 20
166.2015121685247
 30
0.0
 42
-0.1315120310734617
  0
VERTEX
  5
431
  8
DEFAULT
 62
     5
 10
-22.06307012381677
 20
165.9121606110213
 30
0.0
 42
-0.1393853272245036
  0
VERTEX
  5
432
  8
DEFAULT
 62
     5
 10
-21.22829000914806
 20
165.0373533503643
 30
0.0
 42
-0.1018343532165654
  0
VERTEX
  5
433
  8
DEFAULT
 62
     5
 10
-20.20687792795875
 20
165.9121606110213
 30
0.0
 42
-0.1239296679571121
  0
VERTEX
  5
434
  8
DEFAULT
 62
     5
 10
-19.03693151349923
 20
166.2015121685248
 30
0.0
 42
-0.1355305589141899
  0
VERTEX
  5
435
  8
DEFAULT
 62
     5
 10
-17.69723271905615
 20
165.8774383299294
 30
0.0
 42
-0.1623661969580495
  0
VERTEX
  5
436
  8
DEFAULT
 62
     5
 10
-16.87836672811927
 20
164.9264353318142
 30
0.0
 42
-0.0915442810314506
  0
VERTEX
  5
437
  8
DEFAULT
 62
     5
 10
-16.68257275505614
 20
163.4256634325275
 30
0.0
  0
VERTEX
  5
438
  8
DEFAULT
 62
     5
 10
-16.68257275505614
 20
158.7941047611174
 30
0.0
  0
VERTEX
  5
439
  8
DEFAULT
 62
     5
 10
-18.59615300196972
 20
158.7941047611174
 30
0.0
  0
VERTEX
  5
43A
  8
DEFAULT
 62
     5
 10
-18.5961530019697
 20
162.9241210468265
 30
0.0
 42
0.114147013791068
  0
VERTEX
  5
43B
  8
DEFAULT
 62
     5
 10
-18.79098245414258
 20
164.3120449438677
 30
0.0
 42
0.2721000606533955
  0
VERTEX
  5
43C
  8
DEFAULT
 62
     5
 10
-19.59827419439634
 20
164.7200306870432
 30
0.0
 42
0.1575639071466662
  0
VERTEX
  5
43D
  8
DEFAULT
 62
     5
 10
-20.34432027099097
 20
164.4750461485769
 30
0.0
 42
0.1657627374474183
  0
VERTEX
  5
43E
  8
DEFAULT
 62
     5
 10
-20.84875716127768
 20
163.7574539092024
 30
0.0
 42
0.0723437487254975
  0
VERTEX
  5
43F
  8
DEFAULT
 62
     5
 10
-21.00356040937713
 20
162.2643981770378
 30
0.0
  0
VERTEX
  5
440
  8
DEFAULT
 62
     5
 10
-21.00356040937713
 20
158.7941047611174
 30
0.0
  0
VERTEX
  5
441
  8
DEFAULT
 62
     5
 10
-22.91714065629071
 20
158.7941047611174
 30
0.0
  0
VERTEX
  5
442
  8
DEFAULT
 62
     5
 10
-22.91714065629073
 20
162.7534027330803
 30
0.0
 42
0.0609892367975003
  0
VERTEX
  5
443
  8
DEFAULT
 62
     5
 10
-23.01696668460277
 20
164.1148032475542
 30
0.0
 42
0.163393119698513
  0
VERTEX
  5
444
  8
DEFAULT
 62
     5
 10
-23.32705497028935
 20
164.5705323038403
 30
0.0
 42
0.1561218014296609
  0
VERTEX
  5
445
  8
DEFAULT
 62
     5
 10
-23.89707881015627
 20
164.7200306870433
 30
0.0
 42
0.1551837175468219
  0
VERTEX
  5
446
  8
DEFAULT
 62
     5
 10
-24.6778462259279
 20
164.4817977948087
 30
0.0
 42
0.1670025847935409
  0
VERTEX
  5
447
  8
DEFAULT
 62
     5
 10
-25.1745669490925
 20
163.79458749252
 30
0.0
 42
0.0722698594962493
  0
VERTEX
  5
448
  8
DEFAULT
 62
     5
 10
-25.32454806369812
 20
162.3049080544287
 30
0.0
  0
VERTEX
  5
449
  8
DEFAULT
 62
     5
 10
-25.32454806369812
 20
158.7941047611174
 30
0.0
  0
VERTEX
  5
44A
  8
DEFAULT
 62
     5
 10
-27.2381283106117
 20
158.7941047611174
 30
0.0
  0
SEQEND
  5
44B
  8
DEFAULT
 62
     5
  0
POLYLINE
  5
44C
  8
DEFAULT
 62
     5
 66
     1
 10
0.0
 20
0.0
 30
0.0
 70
     1
  0
VERTEX
  5
44D
  8
DEFAULT
 62
     5
 10
-35.44800485382157
 20
160.8311417981544
 30
0.0
  0
VERTEX
  5
44E
  8
DEFAULT
 62
     5
 10
-33.53442460690799
 20
161.0780553784013
 30
0.0
 42
0.1817134537413039
  0
VERTEX
  5
44F
  8
DEFAULT
 62
     5
 10
-33.03915019412131
 20
160.2495446495193
 30
0.0
 42
0.1637490318832531
  0
VERTEX
  5
450
  8
DEFAULT
 62
     5
 10
-31.99603639290115
 20
159.9669442672902
 30
0.0
 42
0.158154859031635
  0
VERTEX
  5
451
  8
DEFAULT
 62
     5
 10
-30.88396076089977
 20
160.2437579951352
 30
0.0
 42
0.2454173628753215
  0
VERTEX
  5
452
  8
DEFAULT
 62
     5
 10
-30.63319003900677
 20
160.7626626987758
 30
0.0
 42
0.1967133408659328
  0
VERTEX
  5
453
  8
DEFAULT
 62
     5
 10
-30.76918465878867
 20
161.1291749855851
 30
0.0
 42
0.1152480441762237
  0
VERTEX
  5
454
  8
DEFAULT
 62
     5
 10
-31.40961711077219
 20
161.3847692538444
 30
0.0
 42
-0.0750101977649268
  0
VERTEX
  5
455
  8
DEFAULT
 62
     5
 10
-34.34364444702734
 20
162.3290201347703
 30
0.0
 42
-0.2630575377237315
  0
VERTEX
  5
456
  8
DEFAULT
 62
     5
 10
-35.20109127357466
 20
163.9667521166441
 30
0.0
 42
-0.2278055359034072
  0
VERTEX
  5
457
  8
DEFAULT
 62
     5
 10
-34.45986827238877
 20
165.5572221039376
 30
0.0
 42
-0.178940957779908
  0
VERTEX
  5
458
  8
DEFAULT
 62
     5
 10
-32.16193210219606
 20
166.2015121685248
 30
0.0
 42
-0.1478680227512771
  0
VERTEX
  5
459
  8
DEFAULT
 62
     5
 10
-29.95899982682159
 20
165.702380614092
 30
0.0
 42
-0.1798681362132248
  0
VERTEX
  5
45A
  8
DEFAULT
 62
     5
 10
-28.96652337234009
 20
164.2262035265495
 30
0.0
  0
VERTEX
  5
45B
  8
DEFAULT
 62
     5
 10
-30.75664682913024
 20
163.9175615512408
 30
0.0
 42
0.1762609448243994
  0
VERTEX
  5
45C
  8
DEFAULT
 62
     5
 10
-31.19453224894639
 20
164.604772324487
 30
0.0
 42
0.1598214678236395
  0
VERTEX
  5
45D
  8
DEFAULT
 62
     5
 10
-32.11467152048823
 20
164.8434874771667
 30
0.0
 42
0.1371855487857235
  0
VERTEX
  5
45E
  8
DEFAULT
 62
     5
 10
-33.19395344222077
 20
164.6293676071887
 30
0.0
 42
0.2593740206710697
  0
VERTEX
  5
45F
  8
DEFAULT
 62
     5
 10
-33.41096781678453
 20
164.2348842145618
 30
0.0
 42
0.2456185528240301
  0
VERTEX
  5
460
  8
DEFAULT
 62
     5
 10
-33.22096002714807
 20
163.8818752202161
 30
0.0
 42
0.066479874957882
  0
VERTEX
  5
461
  8
DEFAULT
 62
     5
 10
-31.44144582919331
 20
163.335482613118
 30
0.0
 42
-0.1095214193377391
  0
VERTEX
  5
462
  8
DEFAULT
 62
     5
 10
-29.316638804015
 20
162.4765899471502
 30
0.0
 42
-0.2284114958797715
  0
VERTEX
  5
463
  8
DEFAULT
 62
     5
 10
-28.71960979209321
 20
161.0462271309376
 30
0.0
 42
-0.2276229810650929
  0
VERTEX
  5
464
  8
DEFAULT
 62
     5
 10
-29.54715600008494
 20
159.3274768071544
 30
0.0
 42
-0.1809722242825351
  0
VERTEX
  5
465
  8
DEFAULT
 62
     5
 10
-31.99603639290115
 20
158.6089195759322
 30
0.0
 42
-0.153421286827206
  0
VERTEX
  5
466
  8
DEFAULT
 62
     5
 10
-34.32580175247246
 20
159.2069135797017
 30
0.0
 42
-0.1853542620165979
  0
SEQEND
  5
467
  8
DEFAULT
 62
     5
  0
POLYLINE
  5
468
  8
DEFAULT
 62
     5
 66
     1
 10
0.0
 20
0.0
 30
0.0
 70
     1
  0
VERTEX
  5
469
  8
DEFAULT
 62
     5
 10
-36.06528880443885
 20
166.0163269833396
 30
0.0
  0
VERTEX
  5
46A
  8
DEFAULT
 62
     5
 10
-36.06528880443885
 20
164.5348455018581
 30
0.0
  0
VERTEX
  5
46B
  8
DEFAULT
 62
     5
 10
-37.36158510073516
 20
164.5348455018581
 30
0.0
  0
VERTEX
  5
46C
  8
DEFAULT
 62
     5
 10
-37.36158510073516
 20
161.5525930630048
 30
0.0
  0
VERTEX
  5
46D
  8
DEFAULT
 62
     5
 10
-37.32493377786272
 20
160.4969404902113
 30
0.0
 42
0.177762969804209
  0
VERTEX
  5
46E
  8
DEFAULT
 62
     5
 10
-37.15952079997041
 20
160.2495446495193
 30
0.0
 42
0.1671411134724592
  0
VERTEX
  5
46F
  8
DEFAULT
 62
     5
 10
-36.84460943887507
 20
160.1521294524754
 30
0.0
 42
0.0818670423875299
  0
VERTEX
  5
470
  8
DEFAULT
 62
     5
 10
-36.09615253101225
 20
160.3344220169047
 30
0.0
  0
VERTEX
  5
471
  8
DEFAULT
 62
     5
 10
-35.94183201431539
 20
158.8866978246674
 30
0.0
 42
-0.1009135694951073
  0
VERTEX
  5
472
  8
DEFAULT
 62
     5
 10
-37.43102872100403
 20
158.6089195759322
 30
0.0
 42
-0.1023112505794482
  0
VERTEX
  5
473
  8
DEFAULT
 62
     5
 10
-38.34972121121046
 20
158.7844600231722
 30
0.0
 42
-0.1427327602514011
  0
VERTEX
  5
474
  8
DEFAULT
 62
     5
 10
-38.95012651720567
 20
159.2382605086352
 30
0.0
 42
-0.111247426680754
  0
VERTEX
  5
475
  8
DEFAULT
 62
     5
 10
-39.21440053156233
 20
159.9910572895467
 30
0.0
  0
VERTEX
  5
476
  8
DEFAULT
 62
     5
 10
-39.27516534764873
 20
161.3519755435755
 30
0.0
  0
VERTEX
  5
477
  8
DEFAULT
 62
     5
 10
-39.27516534764873
 20
164.5348455018581
 30
0.0
  0
VERTEX
  5
478
  8
DEFAULT
 62
     5
 10
-40.20109127357465
 20
164.5348455018581
 30
0.0
  0
VERTEX
  5
479
  8
DEFAULT
 62
     5
 10
-40.20109127357465
 20
166.0163269833396
 30
0.0
  0
VERTEX
  5
47A
  8
DEFAULT
 62
     5
 10
-39.27516534764873
 20
166.0163269833396
 30
0.0
  0
VERTEX
  5
47B
  8
DEFAULT
 62
     5
 10
-39.27516534764873
 20
167.3743516746976
 30
0.0
  0
VERTEX
  5
47C
  8
DEFAULT
 62
     5
 10
-37.36158510073516
 20
168.4854627858087
 30
0.0
  0
VERTEX
  5
47D
  8
DEFAULT
 62
     5
 10
-37.36158510073516
 20
166.0163269833396
 30
0.0
  0
SEQEND
  5
47E
  8
DEFAULT
 62
     5
  0
POLYLINE
  5
47F
  8
DEFAULT
 62
     5
 66
     1
 10
0.0
 20
0.0
 30
0.0
 70
     1
  0
VERTEX
  5
480
  8
DEFAULT
 62
     5
 10
-44.76899250814256
 20
166.0163269833396
 30
0.0
  0
VERTEX
  5
481
  8
DEFAULT
 62
     5
 10
-43.7813381871549
 20
166.0163269833396
 30
0.0
  0
VERTEX
  5
482
  8
DEFAULT
 62
     5
 10
-43.7813381871549
 20
166.5574156674562
 30
0.0
 42
-0.0950504639922821
  0
VERTEX
  5
483
  8
DEFAULT
 62
     5
 10
-43.59036587662814
 20
167.9096532334726
 30
0.0
 42
-0.1716707163023972
  0
VERTEX
  5
484
  8
DEFAULT
 62
     5
 10
-42.8867582482475
 20
168.6368906817497
 30
0.0
 42
-0.1257658996646352
  0
VERTEX
  5
485
  8
DEFAULT
 62
     5
 10
-41.58997969150608
 20
168.9175615512408
 30
0.0
 42
-0.0781428993827171
  0
VERTEX
  5
486
  8
DEFAULT
 62
     5
 10
-40.01590608838947
 20
168.6706479709939
 30
0.0
  0
VERTEX
  5
487
  8
DEFAULT
 62
     5
 10
-40.23195500014806
 20
167.32805561388
 30
0.0
 42
0.0588660059482426
  0
VERTEX
  5
488
  8
DEFAULT
 62
     5
 10
-41.10001061457329
 20
167.4360800697593
 30
0.0
 42
0.2070684672812224
  0
VERTEX
  5
489
  8
DEFAULT
 62
     5
 10
-41.68932393033048
 20
167.2460727510803
 30
0.0
 42
0.1773524100531973
  0
VERTEX
  5
48A
  8
DEFAULT
 62
     5
 10
-41.86775794024132
 20
166.515941269175
 30
0.0
  0
VERTEX
  5
48B
  8
DEFAULT
 62
     5
 10
-41.86775794024132
 20
166.0163269833396
 30
0.0
  0
VERTEX
  5
48C
  8
DEFAULT
 62
     5
 10
-40.5097332488833
 20
166.0163269833396
 30
0.0
  0
VERTEX
  5
48D
  8
DEFAULT
 62
     5
 10
-40.5097332488833
 20
164.5348455018581
 30
0.0
  0
VERTEX
  5
48E
  8
DEFAULT
 62
     5
 10
-41.86775794024132
 20
164.5348455018581
 30
0.0
  0
VERTEX
  5
48F
  8
DEFAULT
 62
     5
 10
-41.86775794024132
 20
158.7941047611174
 30
0.0
  0
VERTEX
  5
490
  8
DEFAULT
 62
     5
 10
-43.7813381871549
 20
158.7941047611174
 30
0.0
  0
VERTEX
  5
491
  8
DEFAULT
 62
     5
 10
-43.7813381871549
 20
164.5348455018581
 30
0.0
  0
VERTEX
  5
492
  8
DEFAULT
 62
     5
 10
-44.76899250814256
 20
164.5348455018581
 30
0.0
  0
SEQEND
  5
493
  8
DEFAULT
 62
     5
  0
POLYLINE
  5
494
  8
DEFAULT
 62
     5
 66
     1
 10
0.0
 20
0.0
 30
0.0
 70
     1
  0
VERTEX
  5
495
  8
DEFAULT
 62
     5
 10
-47.91714065629071
 20
162.2508948845741
 30
0.0
  0
VERTEX
  5
496
  8
DEFAULT
 62
     5
 10
-49.03114485911513
 20
161.9586497643999
 30
0.0
 42
0.0811165779561589
  0
VERTEX
  5
497
  8
DEFAULT
 62
     5
 10
-50.02747939715768
 20
161.6258957087497
 30
0.0
 42
0.2517191883486093
  0
VERTEX
  5
498
  8
DEFAULT
 62
     5
 10
-50.38627645875981
 20
160.9526704884123
 30
0.0
 42
0.4298150945544631
  0
VERTEX
  5
499
  8
DEFAULT
 62
     5
 10
-49.36968651106438
 20
159.9669442672901
 30
0.0
 42
0.1670482644845915
  0
VERTEX
  5
49A
  8
DEFAULT
 62
     5
 10
-48.4254346882235
 20
160.3064509110872
 30
0.0
 42
0.165161245499102
  0
VERTEX
  5
49B
  8
DEFAULT
 62
     5
 10
-47.9885133183401
 20
160.9391671959486
 30
0.0
 42
0.0593667948163672
  0
VERTEX
  5
49C
  8
DEFAULT
 62
     5
 10
-47.91714065629071
 20
161.8699157263258
 30
0.0
  0
SEQEND
  5
49D
  8
DEFAULT
 62
     5
  0
POLYLINE
  5
49E
  8
DEFAULT
 62
     5
 66
     1
 10
0.0
 20
0.0
 30
0.0
 70
     1
  0
VERTEX
  5
49F
  8
DEFAULT
 62
     5
 10
-50.32454806369811
 20
163.7941047611174
 30
0.0
  0
VERTEX
  5
4A0
  8
DEFAULT
 62
     5
 10
-52.05294312542652
 20
164.0410183413643
 30
0.0
 42
-0.1714833175990263
  0
VERTEX
  5
4A1
  8
DEFAULT
 62
     5
 10
-51.06577059392652
 20
165.6719986770062
 30
0.0
 42
-0.1608829132837612
  0
VERTEX
  5
4A2
  8
DEFAULT
 62
     5
 10
-48.9848483273401
 20
166.2015121685248
 30
0.0
 42
-0.1088364278881038
  0
VERTEX
  5
4A3
  8
DEFAULT
 62
     5
 10
-47.11756461220155
 20
165.8981750581125
 30
0.0
 42
-0.1580303644335597
  0
VERTEX
  5
4A4
  8
DEFAULT
 62
     5
 10
-46.2538493417825
 20
165.1275346407312
 30
0.0
 42
-0.108801705795343
  0
VERTEX
  5
4A5
  8
DEFAULT
 62
     5
 10
-46.0035604093771
 20
163.4121610819788
 30
0.0
  0
VERTEX
  5
4A6
  8
DEFAULT
 62
     5
 10
-46.00356040937714
 20
161.1745065255124
 30
0.0
 42
0.051408021969541
  0
VERTEX
  5
4A7
  8
DEFAULT
 62
     5
 10
-45.89939356610139
 20
159.7658449583732
 30
0.0
 42
0.0692287864232643
  0
VERTEX
  5
4A8
  8
DEFAULT
 62
     5
 10
-45.50973324888329
 20
158.7941047611174
 30
0.0
  0
VERTEX
  5
4A9
  8
DEFAULT
 62
     5
 10
-47.42331349579688
 20
158.7941047611174
 30
0.0
  0
VERTEX
  5
4AA
  8
DEFAULT
 62
     5
 10
-47.60656963920154
 20
159.353518400234
 30
0.0
  0
VERTEX
  5
4AB
  8
DEFAULT
 62
     5
 10
-47.6740842176899
 20
159.5763199001393
 30
0.0
 42
-0.0933244186738101
  0
VERTEX
  5
4AC
  8
DEFAULT
 62
     5
 10
-48.71864527120292
 20
158.8510110226852
 30
0.0
 42
-0.1040133466925839
  0
VERTEX
  5
4AD
  8
DEFAULT
 62
     5
 10
-49.90595164881473
 20
158.6089195759322
 30
0.0
 42
-0.196543035759655
  0
VERTEX
  5
4AE
  8
DEFAULT
 62
     5
 10
-51.65894199324477
 20
159.2141474863786
 30
0.0
 42
-0.2154369487651161
  0
VERTEX
  5
4AF
  8
DEFAULT
 62
     5
 10
-52.29985670567343
 20
160.7443368018608
 30
0.0
 42
-0.1373780248024383
  0
VERTEX
  5
4B0
  8
DEFAULT
 62
     5
 10
-52.01436276077357
 20
161.8361574951667
 30
0.0
 42
-0.1473783213971377
  0
VERTEX
  5
4B1
  8
DEFAULT
 62
     5
 10
-51.21430445623929
 20
162.5706288501208
 30
0.0
 42
-0.0634404934846918
  0
VERTEX
  5
4B2
  8
DEFAULT
 62
     5
 10
-49.73041167253214
 20
163.0157486475714
 30
0.0
 42
0.0472009877729199
  0
VERTEX
  5
4B3
  8
DEFAULT
 62
     5
 10
-47.91714065629071
 20
163.4854627858087
 30
0.0
  0
VERTEX
  5
4B4
  8
DEFAULT
 62
     5
 10
-47.91714065629068
 20
163.6793286590062
 30
0.0
 42
0.2070921599656279
  0
VERTEX
  5
4B5
  8
DEFAULT
 62
     5
 10
-48.17321671403762
 20
164.4808332739184
 30
0.0
 42
0.1777887432707542
  0
VERTEX
  5
4B6
  8
DEFAULT
 62
     5
 10
-49.14013430684215
 20
164.7200306870433
 30
0.0
 42
0.1651091138039162
  0
VERTEX
  5
4B7
  8
DEFAULT
 62
     5
 10
-49.88907300419265
 20
164.5145910341201
 30
0.0
 42
0.1491587679877667
  0
SEQEND
  5
4B8
  8
DEFAULT
 62
     5
  0
POLYLINE
  5
4B9
  8
DEFAULT
 62
     5
 66
     1
 10
0.0
 20
0.0
 30
0.0
 70
     1
  0
VERTEX
  5
4BA
  8
DEFAULT
 62
     5
 10
-55.20109127357465
 20
158.7941047611174
 30
0.0
  0
VERTEX
  5
4BB
  8
DEFAULT
 62
     5
 10
-57.11467152048824
 20
158.7941047611174
 30
0.0
  0
VERTEX
  5
4BC
  8
DEFAULT
 62
     5
 10
-57.11467152048824
 20
166.0163269833396
 30
0.0
  0
VERTEX
  5
4BD
  8
DEFAULT
 62
     5
 10
-55.32454806369811
 20
166.0163269833396
 30
0.0
  0
VERTEX
  5
4BE
  8
DEFAULT
 62
     5
 10
-55.32454806369812
 20
164.9968444148883
 30
0.0
 42
-0.0977550519460767
  0
VERTEX
  5
4BF
  8
DEFAULT
 62
     5
 10
-54.54040435385313
 20
165.9603857136194
 30
0.0
 42
-0.1561720185078989
  0
VERTEX
  5
4C0
  8
DEFAULT
 62
     5
 10
-53.75047351866658
 20
166.2015121685247
 30
0.0
 42
-0.1438170981369962
  0
VERTEX
  5
4C1
  8
DEFAULT
 62
     5
 10
-52.54677028592033
 20
165.8378934443862
 30
0.0
  0
VERTEX
  5
4C2
  8
DEFAULT
 62
     5
 10
-53.13318956804929
 20
164.1625470316221
 30
0.0
 42
0.14967701518875
  0
VERTEX
  5
4C3
  8
DEFAULT
 62
     5
 10
-53.98581284823036
 20
164.4731171067964
 30
0.0
 42
0.1810970994866342
  0
VERTEX
  5
4C4
  8
DEFAULT
 62
     5
 10
-54.63251421504312
 20
164.2517633301414
 30
0.0
 42
0.1501348396488052
  0
VERTEX
  5
4C5
  8
DEFAULT
 62
     5
 10
-55.04918111718854
 20
163.4517054965645
 30
0.0
 42
0.0509111359642097
  0
VERTEX
  5
4C6
  8
DEFAULT
 62
     5
 10
-55.20109127357465
 20
161.0279012340227
 30
0.0
  0
SEQEND
  5
4C7
  8
DEFAULT
 62
     5
  0
POLYLINE
  5
4C8
  8
DEFAULT
 62
     5
 66
     1
 10
0.0
 20
0.0
 30
0.0
 70
     1
  0
VERTEX
  5
4C9
  8
DEFAULT
 62
     5
 10
-58.59615300196972
 20
163.9175615512408
 30
0.0
  0
VERTEX
  5
4CA
  8
DEFAULT
 62
     5
 10
-60.50973324888327
 20
163.6089195759322
 30
0.0
 42
0.1809968098175582
  0
VERTEX
  5
4CB
  8
DEFAULT
 62
     5
 10
-60.93700893890664
 20
164.4408065988876
 30
0.0
 42
0.1804760167669958
  0
VERTEX
  5
4CC
  8
DEFAULT
 62
     5
 10
-61.80120694072829
 20
164.7200306870433
 30
0.0
 42
0.2329674834670999
  0
VERTEX
  5
4CD
  8
DEFAULT
 62
     5
 10
-62.92871443601634
 20
164.2184878303848
 30
0.0
 42
0.1695179555120545
  0
VERTEX
  5
4CE
  8
DEFAULT
 62
     5
 10
-63.34923942172279
 20
162.5402473839925
 30
0.0
 42
0.161096681717505
  0
VERTEX
  5
4CF
  8
DEFAULT
 62
     5
 10
-62.91858696666863
 20
160.6917708842991
 30
0.0
 42
0.2405540491094245
  0
VERTEX
  5
4D0
  8
DEFAULT
 62
     5
 10
-61.76262610511788
 20
160.1521294524754
 30
0.0
 42
0.1883458441869447
  0
VERTEX
  5
4D1
  8
DEFAULT
 62
     5
 10
-60.87479828339978
 20
160.4578783360707
 30
0.0
 42
0.1622604489947926
  0
VERTEX
  5
4D2
  8
DEFAULT
 62
     5
 10
-60.38627645875983
 20
161.5101541438334
 30
0.0
  0
VERTEX
  5
4D3
  8
DEFAULT
 62
     5
 10
-58.47269621184626
 20
161.2632405635865
 30
0.0
 42
-0.1724509721436147
  0
VERTEX
  5
4D4
  8
DEFAULT
 62
     5
 10
-59.59055849823174
 20
159.2792517045563
 30
0.0
 42
-0.1746967243539311
  0
VERTEX
  5
4D5
  8
DEFAULT
 62
     5
 10
-61.80699312415493
 20
158.6089195759322
 30
0.0
 42
-0.2163976905724318
  0
VERTEX
  5
4D6
  8
DEFAULT
 62
     5
 10
-64.32435497113705
 20
159.6144175333897
 30
0.0
 42
-0.194387056632113
  0
VERTEX
  5
4D7
  8
DEFAULT
 62
     5
 10
-65.26281966863637
 20
162.3984646969541
 30
0.0
 42
-0.1945054615972582
  0
VERTEX
  5
4D8
  8
DEFAULT
 62
     5
 10
-64.32483723158221
 20
165.1993905051407
 30
0.0
 42
-0.2157801631579818
  0
VERTEX
  5
4D9
  8
DEFAULT
 62
     5
 10
-61.78770364826464
 20
166.2015121685248
 30
0.0
 42
-0.159942307695794
  0
VERTEX
  5
4DA
  8
DEFAULT
 62
     5
 10
-59.70629912123308
 20
165.6372763959144
 30
0.0
 42
-0.1682635697126322
  0
SEQEND
  5
4DB
  8
DEFAULT
 62
     5
  0
POLYLINE
  5
4DC
  8
DEFAULT
 62
     5
 66
     1
 10
0.0
 20
0.0
 30
0.0
 70
     1
  0
VERTEX
  5
4DD
  8
DEFAULT
 62
     5
 10
-68.71960979209317
 20
158.7941047611174
 30
0.0
  0
VERTEX
  5
4DE
  8
DEFAULT
 62
     5
 10
-68.71960979209317
 20
160.7076850080309
 30
0.0
  0
VERTEX
  5
4DF
  8
DEFAULT
 62
     5
 10
-66.8060295451796
 20
160.7076850080309
 30
0.0
  0
VERTEX
  5
4E0
  8
DEFAULT
 62
     5
 10
-66.8060295451796
 20
158.7941047611174
 30
0.0
  0
SEQEND
  5
4E1
  8
DEFAULT
 62
     5
  0
POLYLINE
  5
4E2
  8
DEFAULT
 62
     5
 66
     1
 10
0.0
 20
0.0
 30
0.0
 70
     1
  0
VERTEX
  5
4E3
  8
DEFAULT
 62
     5
 10
-78.01744894504792
 20
158.7941047611174
 30
0.0
  0
VERTEX
  5
4E4
  8
DEFAULT
 62
     5
 10
-80.3245480636981
 20
166.0163269833396
 30
0.0
  0
VERTEX
  5
4E5
  8
DEFAULT
 62
     5
 10
-78.45051223137027
 20
166.0163269833396
 30
0.0
  0
VERTEX
  5
4E6
  8
DEFAULT
 62
     5
 10
-77.0838068519999
 20
161.283495502282
 30
0.0
  0
VERTEX
  5
4E7
  8
DEFAULT
 62
     5
 10
-75.80101384816726
 20
166.0163269833396
 30
0.0
  0
VERTEX
  5
4E8
  8
DEFAULT
 62
     5
 10
-73.94626843364462
 20
166.0163269833396
 30
0.0
  0
VERTEX
  5
4E9
  8
DEFAULT
 62
     5
 10
-72.76281919767891
 20
161.283495502282
 30
0.0
  0
VERTEX
  5
4EA
  8
DEFAULT
 62
     5
 10
-71.39225573474751
 20
166.0163269833396
 30
0.0
  0
VERTEX
  5
4EB
  8
DEFAULT
 62
     5
 10
-69.52207892789565
 20
166.0163269833396
 30
0.0
  0
VERTEX
  5
4EC
  8
DEFAULT
 62
     5
 10
-71.82435450017961
 20
158.7941047611174
 30
0.0
  0
VERTEX
  5
4ED
  8
DEFAULT
 62
     5
 10
-73.63859097922624
 20
158.7941047611174
 30
0.0
  0
VERTEX
  5
4EE
  8
DEFAULT
 62
     5
 10
-74.86158462977768
 20
163.4391667249911
 30
0.0
  0
VERTEX
  5
4EF
  8
DEFAULT
 62
     5
 10
-76.12315911593953
 20
158.7941047611174
 30
0.0
  0
SEQEND
  5
4F0
  8
DEFAULT
 62
     5
  0
POLYLINE
  5
4F1
  8
DEFAULT
 62
     5
 66
     1
 10
0.0
 20
0.0
 30
0.0
 70
     1
  0
VERTEX
  5
4F2
  8
DEFAULT
 62
     5
 10
-88.75818968578865
 20
158.7941047611174
 30
0.0
  0
VERTEX
  5
4F3
  8
DEFAULT
 62
     5
 10
-91.06528880443885
 20
166.0163269833396
 30
0.0
  0
VERTEX
  5
4F4
  8
DEFAULT
 62
     5
 10
-89.19125297211102
 20
166.0163269833396
 30
0.0
  0
VERTEX
  5
4F5
  8
DEFAULT
 62
     5
 10
-87.82454759274064
 20
161.283495502282
 30
0.0
  0
VERTEX
  5
4F6
  8
DEFAULT
 62
     5
 10
-86.54175458890799
 20
166.0163269833396
 30
0.0
  0
VERTEX
  5
4F7
  8
DEFAULT
 62
     5
 10
-84.68700917438537
 20
166.0163269833396
 30
0.0
  0
VERTEX
  5
4F8
  8
DEFAULT
 62
     5
 10
-83.50355993841966
 20
161.283495502282
 30
0.0
  0
VERTEX
  5
4F9
  8
DEFAULT
 62
     5
 10
-82.13299647548826
 20
166.0163269833396
 30
0.0
  0
VERTEX
  5
4FA
  8
DEFAULT
 62
     5
 10
-80.26281966863638
 20
166.0163269833396
 30
0.0
  0
VERTEX
  5
4FB
  8
DEFAULT
 62
     5
 10
-82.56509524092034
 20
158.7941047611174
 30
0.0
  0
VERTEX
  5
4FC
  8
DEFAULT
 62
     5
 10
-84.37933171996698
 20
158.7941047611174
 30
0.0
  0
VERTEX
  5
4FD
  8
DEFAULT
 62
     5
 10
-85.60232537051843
 20
163.4391667249911
 30
0.0
  0
VERTEX
  5
4FE
  8
DEFAULT
 62
     5
 10
-86.86389985668028
 20
158.7941047611174
 30
0.0
  0
SEQEND
  5
4FF
  8
DEFAULT
 62
     5
  0
POLYLINE
  5
500
  8
DEFAULT
 62
     5
 66
     1
 10
0.0
 20
0.0
 30
0.0
 70
     1
  0
VERTEX
  5
501
  8
DEFAULT
 62
     5
 10
-99.4989304265294
 20
158.7941047611174
 30
0.0
  0
VERTEX
  5
502
  8
DEFAULT
 62
     5
 10
-101.8060295451796
 20
166.0163269833396
 30
0.0
  0
VERTEX
  5
503
  8
DEFAULT
 62
     5
 10
-99.93199371285175
 20
166.0163269833396
 30
0.0
  0
VERTEX
  5
504
  8
DEFAULT
 62
     5
 10
-98.56528833348139
 20
161.283495502282
 30
0.0
  0
VERTEX
  5
505
  8
DEFAULT
 62
     5
 10
-97.28249532964873
 20
166.0163269833396
 30
0.0
  0
VERTEX
  5
506
  8
DEFAULT
 62
     5
 10
-95.4277499151261
 20
166.0163269833396
 30
0.0
  0
VERTEX
  5
507
  8
DEFAULT
 62
     5
 10
-94.2443006791604
 20
161.283495502282
 30
0.0
  0
VERTEX
  5
508
  8
DEFAULT
 62
     5
 10
-92.87373721622899
 20
166.0163269833396
 30
0.0
  0
VERTEX
  5
509
  8
DEFAULT
 62
     5
 10
-91.00356040937712
 20
166.0163269833396
 30
0.0
  0
VERTEX
  5
50A
  8
DEFAULT
 62
     5
 10
-93.30583598166109
 20
158.7941047611174
 30
0.0
  0
VERTEX
  5
50B
  8
DEFAULT
 62
     5
 10
-95.12007246070772
 20
158.7941047611174
 30
0.0
  0
VERTEX
  5
50C
  8
DEFAULT
 62
     5
 10
-96.34306611125916
 20
163.4391667249911
 30
0.0
  0
VERTEX
  5
50D
  8
DEFAULT
 62
     5
 10
-97.60464059742102
 20
158.7941047611174
 30
0.0
  0
SEQEND
  5
50E
  8
DEFAULT
 62
     5
  0
LINE
  5
510
  8
14
  6
CONTINUOUS
 62
     5
 10
28.64337886633962
 20
-33.88874814097537
 30
0.0
 11
66.64337886633962
 21
42.11125185902466
 31
0.0
  0
LINE
  5
511
  8
14
  6
CONTINUOUS
 62
     5
 10
-47.35662113366038
 20
42.11125185902466
 30
0.0
 11
28.64337886633962
 21
-33.88874814097537
 31
0.0
  0
LINE
  5
512
  8
14
  6
CONTINUOUS
 62
     5
 10
66.64337886633962
 20
42.11125185902466
 30
0.0
 11
-47.35662113366038
 21
42.11125185902466
 31
0.0
  0
LINE
  5
514
  8
13
  6
CONTINUOUS
 62
     5
 10
-47.35662113366038
 20
42.11125185902466
 30
0.0
 11
-85.35662113366038
 21
80.11125185902466
 31
0.0
  0
LINE
  5
515
  8
13
  6
CONTINUOUS
 62
     5
 10
66.64337886633962
 20
42.11125185902466
 30
0.0
 11
-47.35662113366038
 21
42.11125185902466
 31
0.0
  0
LINE
  5
516
  8
13
  6
CONTINUOUS
 62
     5
 10
-47.35662113366038
 20
99.11125185902466
 30
0.0
 11
66.64337886633962
 21
42.11125185902466
 31
0.0
  0
LINE
  5
517
  8
13
  6
CONTINUOUS
 62
     5
 10
-85.35662113366038
 20
80.11125185902466
 30
0.0
 11
-47.35662113366038
 21
99.11125185902466
 31
0.0
  0
LINE
  5
519
  8
12
  6
CONTINUOUS
 62
     5
 10
-123.3566211336604
 20
-109.8887481409754
 30
0.0
 11
-85.35662113366038
 21
-33.88874814097537
 31
0.0
  0
LINE
  5
51A
  8
12
  6
CONTINUOUS
 62
     5
 10
-66.35662113366038
 20
-109.8887481409754
 30
0.0
 11
-123.3566211336604
 21
-109.8887481409754
 31
0.0
  0
LINE
  5
51B
  8
12
  6
CONTINUOUS
 62
     5
 10
-85.35662113366038
 20
-33.88874814097537
 30
0.0
 11
-66.35662113366038
 21
-109.8887481409754
 31
0.0
  0
LINE
  5
51D
  8
11
  6
CONTINUOUS
 62
     5
 10
-85.35662113366038
 20
-33.88874814097537
 30
0.0
 11
-66.35662113366038
 21
4.111251859024634
 31
0.0
  0
LINE
  5
51E
  8
11
  6
CONTINUOUS
 62
     5
 10
-66.35662113366038
 20
-109.8887481409754
 30
0.0
 11
-85.35662113366038
 21
-33.88874814097537
 31
0.0
  0
LINE
  5
51F
  8
11
  6
CONTINUOUS
 62
     5
 10
-66.35662113366038
 20
4.111251859024634
 30
0.0
 11
-66.35662113366038
 21
-109.8887481409754
 31
0.0
  0
LINE
  5
521
  8
10
  6
CONTINUOUS
 62
     5
 10
-66.35662113366038
 20
-109.8887481409754
 30
0.0
 11
-9.356621133660383
 21
-109.8887481409754
 31
0.0
  0
LINE
  5
522
  8
10
  6
CONTINUOUS
 62
     5
 10
-66.35662113366038
 20
4.111251859024634
 30
0.0
 11
-66.35662113366038
 21
-109.8887481409754
 31
0.0
  0
LINE
  5
523
  8
10
  6
CONTINUOUS
 62
     5
 10
-47.35662113366038
 20
42.11125185902466
 30
0.0
 11
-66.35662113366038
 21
4.111251859024634
 31
0.0
  0
LINE
  5
524
  8
10
  6
CONTINUOUS
 62
     5
 10
-9.356621133660383
 20
4.111251859024634
 30
0.0
 11
-47.35662113366038
 21
42.11125185902466
 31
0.0
  0
LINE
  5
525
  8
10
  6
CONTINUOUS
 62
     5
 10
-9.356621133660383
 20
-109.8887481409754
 30
0.0
 11
-9.356621133660383
 21
4.111251859024634
 31
0.0
  0
LINE
  5
527
  8
9
  6
CONTINUOUS
 62
     5
 10
-9.356621133660383
 20
4.111251859024634
 30
0.0
 11
-9.356621133660383
 21
-109.8887481409754
 31
0.0
  0
LINE
  5
528
  8
9
  6
CONTINUOUS
 62
     5
 10
28.64337886633962
 20
-33.88874814097537
 30
0.0
 11
-9.356621133660383
 21
4.111251859024634
 31
0.0
  0
LINE
  5
529
  8
9
  6
CONTINUOUS
 62
     5
 10
-9.356621133660383
 20
-109.8887481409754
 30
0.0
 11
28.64337886633962
 21
-33.88874814097537
 31
0.0
  0
LINE
  5
52B
  8
8
  6
CONTINUOUS
 62
     5
 10
-9.356621133660383
 20
-109.8887481409754
 30
0.0
 11
47.64337886633962
 21
4.111251859024634
 31
0.0
  0
LINE
  5
52C
  8
8
  6
CONTINUOUS
 62
     5
 10
104.6433788663396
 20
-109.8887481409754
 30
0.0
 11
-9.356621133660383
 21
-109.8887481409754
 31
0.0
  0
LINE
  5
52D
  8
8
  6
CONTINUOUS
 62
     5
 10
104.6433788663396
 20
-33.88874814097537
 30
0.0
 11
104.6433788663396
 21
-109.8887481409754
 31
0.0
  0
LINE
  5
52E
  8
8
  6
CONTINUOUS
 62
     5
 10
47.64337886633962
 20
4.111251859024634
 30
0.0
 11
104.6433788663396
 21
-33.88874814097537
 31
0.0
  0
LINE
  5
530
  8
7
  6
CONTINUOUS
 62
     5
 10
104.6433788663396
 20
-33.88874814097537
 30
0.0
 11
104.6433788663396
 21
4.111251859024634
 31
0.0
  0
LINE
  5
531
  8
7
  6
CONTINUOUS
 62
     5
 10
47.64337886633962
 20
4.111251859024634
 30
0.0
 11
104.6433788663396
 21
-33.88874814097537
 31
0.0
  0
LINE
  5
532
  8
7
  6
CONTINUOUS
 62
     5
 10
104.6433788663396
 20
4.111251859024634
 30
0.0
 11
47.64337886633962
 21
4.111251859024634
 31
0.0
  0
LINE
  5
534
  8
6
  6
CONTINUOUS
 62
     5
 10
104.6433788663396
 20
4.111251859024634
 30
0.0
 11
47.64337886633962
 21
4.111251859024634
 31
0.0
  0
LINE
  5
535
  8
6
  6
CONTINUOUS
 62
     5
 10
104.6433788663396
 20
118.1112518590247
 30
0.0
 11
104.6433788663396
 21
4.111251859024634
 31
0.0
  0
LINE
  5
536
  8
6
  6
CONTINUOUS
 62
     5
 10
47.64337886633962
 20
4.111251859024634
 30
0.0
 11
104.6433788663396
 21
118.1112518590247
 31
0.0
  0
LINE
  5
538
  8
5
  6
CONTINUOUS
 62
     5
 10
104.6433788663396
 20
118.1112518590247
 30
0.0
 11
66.64337886633962
 21
42.11125185902466
 31
0.0
  0
LINE
  5
539
  8
5
  6
CONTINUOUS
 62
     5
 10
-9.356621133660383
 20
118.1112518590247
 30
0.0
 11
104.6433788663396
 21
118.1112518590247
 31
0.0
  0
LINE
  5
53A
  8
5
  6
CONTINUOUS
 62
     5
 10
66.64337886633962
 20
42.11125185902466
 30
0.0
 11
-9.356621133660383
 21
118.1112518590247
 31
0.0
  0
LINE
  5
53C
  8
4
  6
CONTINUOUS
 62
     5
 10
66.64337886633962
 20
42.11125185902466
 30
0.0
 11
-9.356621133660383
 21
118.1112518590247
 31
0.0
  0
LINE
  5
53D
  8
4
  6
CONTINUOUS
 62
     5
 10
-47.35662113366038
 20
99.11125185902466
 30
0.0
 11
66.64337886633962
 21
42.11125185902466
 31
0.0
  0
LINE
  5
53E
  8
4
  6
CONTINUOUS
 62
     5
 10
-9.356621133660383
 20
118.1112518590247
 30
0.0
 11
-47.35662113366038
 21
99.11125185902466
 31
0.0
  0
LINE
  5
540
  8
3
  6
CONTINUOUS
 62
     5
 10
-9.356621133660383
 20
118.1112518590247
 30
0.0
 11
-123.3566211336604
 21
118.1112518590247
 31
0.0
  0
LINE
  5
541
  8
3
  6
CONTINUOUS
 62
     5
 10
-85.35662113366038
 20
80.11125185902466
 30
0.0
 11
-9.356621133660383
 21
118.1112518590247
 31
0.0
  0
LINE
  5
542
  8
3
  6
CONTINUOUS
 62
     5
 10
-123.3566211336604
 20
118.1112518590247
 30
0.0
 11
-85.35662113366038
 21
80.11125185902466
 31
0.0
  0
LINE
  5
544
  8
2
  6
CONTINUOUS
 62
     5
 10
-47.35662113366038
 20
42.11125185902466
 30
0.0
 11
-85.35662113366038
 21
80.11125185902466
 31
0.0
  0
LINE
  5
545
  8
2
  6
CONTINUOUS
 62
     5
 10
-123.3566211336604
 20
-109.8887481409754
 30
0.0
 11
-47.35662113366038
 21
42.11125185902466
 31
0.0
  0
LINE
  5
546
  8
2
  6
CONTINUOUS
 62
     5
 10
-85.35662113366038
 20
80.11125185902466
 30
0.0
 11
-123.3566211336604
 21
-109.8887481409754
 31
0.0
  0
LINE
  5
548
  8
1
  6
CONTINUOUS
 62
     5
 10
-85.35662113366038
 20
80.11125185902466
 30
0.0
 11
-123.3566211336604
 21
118.1112518590247
 31
0.0
  0
LINE
  5
549
  8
1
  6
CONTINUOUS
 62
     5
 10
-123.3566211336604
 20
-109.8887481409754
 30
0.0
 11
-85.35662113366038
 21
80.11125185902466
 31
0.0
  0
LINE
  5
54A
  8
1
  6
CONTINUOUS
 62
     5
 10
-123.3566211336604
 20
118.1112518590247
 30
0.0
 11
-123.3566211336604
 21
-109.8887481409754
 31
0.0
  0
ENDSEC
  0
EOF
