  0
SECTION
  2
HEADER
  9
$ACADVER
  1
AC1009
  9
$DWGCODEPAGE
  3
ansi_1252
  9
$INSBASE
 10
0.0
 20
0.0
 30
0.0
  9
$EXTMIN
 10
-102.6275257460306
 20
-109.6525975871719
 30
0.0
  9
$EXTMAX
 10
108.7364352846694
 20
144.6495381236981
 30
0.0
  9
$LIMMIN
 10
0.0
 20
0.0
  9
$LIMMAX
 10
12.0
 20
9.0
  9
$ORTHOMODE
 70
     0
  9
$REGENMODE
 70
     1
  9
$FILLMODE
 70
     1
  9
$QTEXTMODE
 70
     0
  9
$MIRRTEXT
 70
     1
  9
$DRAGMODE
 70
     2
  9
$LTSCALE
 40
1.0
  9
$OSMODE
 70
    37
  9
$ATTMODE
 70
     1
  9
$TEXTSIZE
 40
0.2
  9
$TRACEWID
 40
0.05
  9
$TEXTSTYLE
  7
STANDARD
  9
$CLAYER
  8
DEFAULT
  9
$CELTYPE
  6
BYLAYER
  9
$CECOLOR
 62
   256
  9
$DIMSCALE
 40
1.0
  9
$DIMASZ
 40
0.18
  9
$DIMEXO
 40
0.0625
  9
$DIMDLI
 40
0.38
  9
$DIMRND
 40
0.0
  9
$DIMDLE
 40
0.0
  9
$DIMEXE
 40
0.18
  9
$DIMTP
 40
0.0
  9
$DIMTM
 40
0.0
  9
$DIMTXT
 40
0.18
  9
$DIMCEN
 40
0.09
  9
$DIMTSZ
 40
0.0
  9
$DIMTOL
 70
     0
  9
$DIMLIM
 70
     0
  9
$DIMTIH
 70
     1
  9
$DIMTOH
 70
     1
  9
$DIMSE1
 70
     0
  9
$DIMSE2
 70
     0
  9
$DIMTAD
 70
     0
  9
$DIMZIN
 70
     0
  9
$DIMBLK
  1

  9
$DIMASO
 70
     1
  9
$DIMSHO
 70
     1
  9
$DIMPOST
  1

  9
$DIMAPOST
  1

  9
$DIMALT
 70
     0
  9
$DIMALTD
 70
     2
  9
$DIMALTF
 40
25.4
  9
$DIMLFAC
 40
1.0
  9
$DIMTOFL
 70
     0
  9
$DIMTVP
 40
0.0
  9
$DIMTIX
 70
     0
  9
$DIMSOXD
 70
     0
  9
$DIMSAH
 70
     0
  9
$DIMBLK1
  1

  9
$DIMBLK2
  1

  9
$DIMSTYLE
  2
STANDARD
  9
$DIMCLRD
 70
     0
  9
$DIMCLRE
 70
     0
  9
$DIMCLRT
 70
     0
  9
$DIMTFAC
 40
1.0
  9
$DIMGAP
 40
0.09
  9
$LUNITS
 70
     2
  9
$LUPREC
 70
     4
  9
$SKETCHINC
 40
0.1
  9
$FILLETRAD
 40
0.5
  9
$AUNITS
 70
     0
  9
$AUPREC
 70
     0
  9
$MENU
  1
.
  9
$ELEVATION
 40
0.0
  9
$PELEVATION
 40
0.0
  9
$THICKNESS
 40
0.0
  9
$LIMCHECK
 70
     0
  9
$CHAMFERA
 40
0.0
  9
$CHAMFERB
 40
0.0
  9
$SKPOLY
 70
     0
  9
$TDCREATE
 40
2458791.44477037
  9
$TDUPDATE
 40
2458791.444784514
  9
$TDINDWG
 40
0.0000000116
  9
$TDUSRTIMER
 40
0.0000000116
  9
$USRTIMER
 70
     1
  9
$ANGBASE
 50
0.0
  9
$ANGDIR
 70
     0
  9
$PDMODE
 70
     0
  9
$PDSIZE
 40
0.0
  9
$PLINEWID
 40
0.0
  9
$COORDS
 70
     1
  9
$SPLFRAME
 70
     0
  9
$SPLINETYPE
 70
     6
  9
$SPLINESEGS
 70
     8
  9
$ATTDIA
 70
     0
  9
$ATTREQ
 70
     1
  9
$HANDLING
 70
     1
  9
$HANDSEED
  5
441
  9
$SURFTAB1
 70
     6
  9
$SURFTAB2
 70
     6
  9
$SURFTYPE
 70
     6
  9
$SURFU
 70
     6
  9
$SURFV
 70
     6
  9
$UCSNAME
  2

  9
$UCSORG
 10
0.0
 20
0.0
 30
0.0
  9
$UCSXDIR
 10
1.0
 20
0.0
 30
0.0
  9
$UCSYDIR
 10
0.0
 20
1.0
 30
0.0
  9
$PUCSNAME
  2

  9
$PUCSORG
 10
0.0
 20
0.0
 30
0.0
  9
$PUCSXDIR
 10
1.0
 20
0.0
 30
0.0
  9
$PUCSYDIR
 10
0.0
 20
1.0
 30
0.0
  9
$USERI1
 70
     0
  9
$USERI2
 70
     0
  9
$USERI3
 70
     0
  9
$USERI4
 70
     0
  9
$USERI5
 70
     0
  9
$USERR1
 40
0.0
  9
$USERR2
 40
0.0
  9
$USERR3
 40
0.0
  9
$USERR4
 40
0.0
  9
$USERR5
 40
0.0
  9
$WORLDVIEW
 70
     1
  9
$SHADEDGE
 70
     3
  9
$SHADEDIF
 70
    70
  9
$TILEMODE
 70
     1
  9
$MAXACTVP
 70
    64
  9
$PLIMCHECK
 70
     0
  9
$PEXTMIN
 10
1.000000000000000E+20
 20
1.000000000000000E+20
 30
1.000000000000000E+20
  9
$PEXTMAX
 10
-1.000000000000000E+20
 20
-1.000000000000000E+20
 30
-1.000000000000000E+20
  9
$PLIMMIN
 10
0.0
 20
0.0
  9
$PLIMMAX
 10
12.0
 20
9.0
  9
$UNITMODE
 70
     0
  9
$VISRETAIN
 70
     1
  9
$PLINEGEN
 70
     0
  9
$PSLTSCALE
 70
     1
  0
ENDSEC
  0
SECTION
  2
TABLES
  0
TABLE
  2
VPORT
 70
     1
  0
VPORT
  2
*ACTIVE
 70
     0
 10
0.0
 20
0.0
 11
1.0
 21
1.0
 12
3.054454769319364
 22
17.49847026826309
 13
0.0
 23
0.0
 14
0.5
 24
0.5
 15
0.5
 25
0.5
 16
0.0
 26
0.0
 36
1.0
 17
0.0
 27
0.0
 37
0.0
 40
259.3881784250874
 41
0.8311529135996375
 42
50.0
 43
0.0
 44
0.0
 50
0.0
 51
0.0
 71
     0
 72
   100
 73
     1
 74
     3
 75
     0
 76
     0
 77
     0
 78
     0
  0
ENDTAB
  0
TABLE
  2
LTYPE
 70
     1
  0
LTYPE
  2
CONTINUOUS
 70
     0
  3
Solid line
 72
    65
 73
     0
 40
0.0
  0
ENDTAB
  0
TABLE
  2
LAYER
 70
     7
  0
LAYER
  2
0
 70
     0
 62
     7
  6
CONTINUOUS
  0
LAYER
  2
DEFAULT
 70
     0
 62
     7
  6
CONTINUOUS
  0
LAYER
  2
1
 70
     0
 62
     7
  6
CONTINUOUS
  0
LAYER
  2
2
 70
     0
 62
     7
  6
CONTINUOUS
  0
LAYER
  2
5
 70
     0
 62
     7
  6
CONTINUOUS
  0
LAYER
  2
4
 70
     0
 62
     7
  6
CONTINUOUS
  0
LAYER
  2
3
 70
     0
 62
     7
  6
CONTINUOUS
  0
ENDTAB
  0
TABLE
  2
STYLE
 70
     1
  0
STYLE
  2
STANDARD
 70
     0
 40
0.0
 41
1.0
 50
0.0
 71
     0
 42
0.2
  3
txt
  4

  0
ENDTAB
  0
TABLE
  2
VIEW
 70
     0
  0
ENDTAB
  0
TABLE
  2
UCS
 70
     0
  0
ENDTAB
  0
TABLE
  2
APPID
 70
     1
  0
APPID
  2
ACAD
 70
     0
  0
ENDTAB
  0
TABLE
  2
DIMSTYLE
 70
     1
  0
DIMSTYLE
  2
STANDARD
 70
     0
  3

  4

  5

  6

  7

 40
1.0
 41
0.18
 42
0.0625
 43
0.38
 44
0.18
 45
0.0
 46
0.0
 47
0.0
 48
0.0
140
0.18
141
0.09
142
0.0
143
25.4
144
1.0
145
0.0
146
1.0
147
0.09
 71
     0
 72
     0
 73
     1
 74
     1
 75
     0
 76
     0
 77
     0
 78
     0
170
     0
171
     2
172
     0
173
     0
174
     0
175
     0
176
     0
177
     0
178
     0
  0
ENDTAB
  0
ENDSEC
  0
SECTION
  2
BLOCKS
  0
BLOCK
  8
0
  2
$MODEL_SPACE
 70
     0
 10
0.0
 20
0.0
 30
0.0
  3
$MODEL_SPACE
  1

  0
ENDBLK
  5
21
  8
0
  0
BLOCK
 67
     1
  8
0
  2
$PAPER_SPACE
 70
     0
 10
0.0
 20
0.0
 30
0.0
  3
$PAPER_SPACE
  1

  0
ENDBLK
  5
1D
 67
     1
  8
0
  0
BLOCK
  8
0
  2
SE
 70
     0
 10
0.0
 20
0.0
 30
0.0
  3
SE
  1

  0
LINE
  5
40E
  8
1
  6
CONTINUOUS
 62
     7
 10
148.4636301623
 20
313.6127418943
 30
0.0
 11
346.0494165999
 21
313.6127418943
 31
0.0
  0
ARC
  5
40F
  8
1
  6
CONTINUOUS
 62
     7
 10
148.4636301623
 20
313.1127418943
 30
0.0
 40
0.5000000000000178
 50
90.0
 51
225.0
  0
LINE
  5
410
  8
1
  6
CONTINUOUS
 62
     7
 10
346.4029699905
 20
312.7591885037
 30
0.0
 11
247.6100767717
 21
213.9662952849
 31
0.0
  0
ARC
  5
411
  8
1
  6
CONTINUOUS
 62
     7
 10
346.0494165999
 20
313.1127418943
 30
0.0
 40
0.4999999999999983
 50
315.0
 51
90.0
  0
LINE
  5
412
  8
1
  6
CONTINUOUS
 62
     7
 10
246.9029699905
 20
213.9662952849
 30
0.0
 11
148.1100767717
 21
312.7591885037
 31
0.0
  0
ARC
  5
413
  8
1
  6
CONTINUOUS
 62
     7
 10
247.2565233811
 20
214.3198486755
 30
0.0
 40
0.5000000000000024
 50
225.0
 51
315.0
  0
LINE
  5
414
  8
1
  6
CONTINUOUS
 62
     7
 10
350.792057287
 20
308.8701012072
 30
0.0
 11
350.792057287
 21
111.2843147696
 31
0.0
  0
ARC
  5
415
  8
1
  6
CONTINUOUS
 62
     7
 10
350.292057287
 20
308.8701012072
 30
0.0
 40
0.5000000000000178
 50
0.0
 51
135.0
  0
LINE
  5
416
  8
1
  6
CONTINUOUS
 62
     7
 10
349.9385038964
 20
110.930761379
 30
0.0
 11
251.1456106776
 21
209.7236545978
 31
0.0
  0
ARC
  5
417
  8
1
  6
CONTINUOUS
 62
     7
 10
350.292057287
 20
111.2843147696
 30
0.0
 40
0.4999999999999983
 50
225.0
 51
0.0
  0
LINE
  5
418
  8
1
  6
CONTINUOUS
 62
     7
 10
251.1456106776
 20
210.430761379
 30
0.0
 11
349.9385038964
 21
309.2236545978
 31
0.0
  0
ARC
  5
419
  8
1
  6
CONTINUOUS
 62
     7
 10
251.4991640682
 20
210.0772079884
 30
0.0
 40
0.5000000000000026
 50
135.0
 51
225.0
  0
LINE
  5
41A
  8
2
  6
CONTINUOUS
 62
     7
 10
142.2565233811
 20
311.5416740825
 30
0.0
 11
142.2565233811
 21
211.5416740825
 31
0.0
  0
LINE
  5
41B
  8
2
  6
CONTINUOUS
 62
     7
 10
142.2565233811
 20
311.5416740825
 30
0.0
 11
192.2565233811
 21
261.5416740825
 31
0.0
  0
LINE
  5
41C
  8
2
  6
CONTINUOUS
 62
     7
 10
192.2565233811
 20
261.5416740825
 30
0.0
 11
192.2565233811
 21
161.5416740825
 31
0.0
  0
LINE
  5
41D
  8
2
  6
CONTINUOUS
 62
     7
 10
192.2565233811
 20
161.5416740825
 30
0.0
 11
142.2565233811
 21
211.5416740825
 31
0.0
  0
LINE
  5
41E
  8
5
  6
CONTINUOUS
 62
     7
 10
197.2565233811
 20
157.7487808636
 30
0.0
 11
197.2565233811
 21
255.3345673013
 31
0.0
  0
ARC
  5
41F
  8
5
  6
CONTINUOUS
 62
     7
 10
197.7565233811
 20
157.7487808636
 30
0.0
 40
0.5000000000000004
 50
180.0
 51
315.0
  0
LINE
  5
420
  8
5
  6
CONTINUOUS
 62
     7
 10
198.1100767717
 20
255.6881206919
 30
0.0
 11
246.9029699905
 21
206.895227473
 31
0.0
  0
ARC
  5
421
  8
5
  6
CONTINUOUS
 62
     7
 10
197.7565233811
 20
255.3345673013
 30
0.0
 40
0.5000000000000031
 50
45.0
 51
180.0
  0
LINE
  5
422
  8
5
  6
CONTINUOUS
 62
     7
 10
246.9029699905
 20
206.1881206919
 30
0.0
 11
198.1100767717
 21
157.395227473
 31
0.0
  0
ARC
  5
423
  8
5
  6
CONTINUOUS
 62
     7
 10
246.5494165999
 20
206.5416740825
 30
0.0
 40
0.4999999999999983
 50
315.0
 51
45.0
  0
LINE
  5
424
  8
4
  6
CONTINUOUS
 62
     7
 10
300.4385038964
 20
152.6525867859
 30
0.0
 11
251.1456106776
 21
103.3596935671
 31
0.0
  0
ARC
  5
425
  8
4
  6
CONTINUOUS
 62
     7
 10
300.0849505058
 20
153.0061401765
 30
0.0
 40
0.4999999999999884
 50
315.0
 51
45.0
  0
LINE
  5
426
  8
4
  6
CONTINUOUS
 62
     7
 10
201.1456106776
 20
153.3596935671
 30
0.0
 11
250.4385038964
 21
202.6525867859
 31
0.0
  0
ARC
  5
427
  8
4
  6
CONTINUOUS
 62
     7
 10
201.4991640682
 20
153.0061401765
 30
0.0
 40
0.4999999999999884
 50
135.0
 51
225.0
  0
LINE
  5
428
  8
4
  6
CONTINUOUS
 62
     7
 10
250.4385038964
 20
103.3596935671
 30
0.0
 11
201.1456106776
 21
152.6525867859
 31
0.0
  0
ARC
  5
429
  8
4
  6
CONTINUOUS
 62
     7
 10
250.792057287
 20
103.7132469577
 30
0.0
 40
0.5000000000000043
 50
225.0
 51
315.0
  0
LINE
  5
42A
  8
4
  6
CONTINUOUS
 62
     7
 10
251.1456106776
 20
202.6525867859
 30
0.0
 11
300.4385038964
 21
153.3596935671
 31
0.0
  0
ARC
  5
42B
  8
4
  6
CONTINUOUS
 62
     7
 10
250.792057287
 20
202.2990333953
 30
0.0
 40
0.4999999999999964
 50
45.0
 51
135.0
  0
LINE
  5
42C
  8
5
  6
CONTINUOUS
 62
     7
 10
353.1204844118
 20
99.4706062706
 30
0.0
 11
255.5346979741
 21
99.4706062706
 31
0.0
  0
ARC
  5
42D
  8
5
  6
CONTINUOUS
 62
     7
 10
353.1204844118
 20
99.9706062706
 30
0.0
 40
0.5000000000000004
 50
270.0
 51
45.0
  0
LINE
  5
42E
  8
5
  6
CONTINUOUS
 62
     7
 10
255.1811445835
 20
100.3241596612
 30
0.0
 11
303.9740378023
 21
149.11705288
 31
0.0
  0
ARC
  5
42F
  8
5
  6
CONTINUOUS
 62
     7
 10
255.5346979741
 20
99.9706062706
 30
0.0
 40
0.5000000000000043
 50
135.0
 51
270.0
  0
LINE
  5
430
  8
5
  6
CONTINUOUS
 62
     7
 10
304.6811445835
 20
149.11705288
 30
0.0
 11
353.4740378023
 21
100.3241596612
 31
0.0
  0
ARC
  5
431
  8
5
  6
CONTINUOUS
 62
     7
 10
304.3275911929
 20
148.7634994894
 30
0.0
 40
0.4999999999999884
 50
45.0
 51
135.0
  0
LINE
  5
432
  8
3
  6
CONTINUOUS
 62
     7
 10
148.1100767717
 20
198.61705288
 30
0.0
 11
246.4029699905
 21
100.3241596612
 31
0.0
  0
ARC
  5
433
  8
3
  6
CONTINUOUS
 62
     7
 10
147.7565233811
 20
198.2634994894
 30
0.0
 40
0.4999999999999994
 50
45.0
 51
180.0
  0
LINE
  5
434
  8
3
  6
CONTINUOUS
 62
     7
 10
246.0494165999
 20
99.4706062706
 30
0.0
 11
147.7565233811
 21
99.4706062706
 31
0.0
  0
ARC
  5
435
  8
3
  6
CONTINUOUS
 62
     7
 10
246.0494165999
 20
99.9706062706
 30
0.0
 40
0.5000000000000037
 50
270.0
 51
45.0
  0
LINE
  5
436
  8
3
  6
CONTINUOUS
 62
     7
 10
147.2565233811
 20
99.9706062706
 30
0.0
 11
147.2565233811
 21
198.2634994894
 31
0.0
  0
ARC
  5
437
  8
3
  6
CONTINUOUS
 62
     7
 10
147.7565233811
 20
99.9706062706
 30
0.0
 40
0.5000000000000004
 50
180.0
 51
270.0
  0
ENDBLK
  5
439
  8
0
  0
ENDSEC
  0
SECTION
  2
ENTITIES
  0
POLYLINE
  5
6F
  8
DEFAULT
 62
     5
 66
     1
 10
0.0
 20
0.0
 30
0.0
 70
     1
  0
VERTEX
  5
70
  8
DEFAULT
 62
     5
 10
65.79890751922906
 20
141.746463050043
 30
0.0
  0
VERTEX
  5
71
  8
DEFAULT
 62
     5
 10
67.52730258095747
 20
141.746463050043
 30
0.0
  0
VERTEX
  5
72
  8
DEFAULT
 62
     5
 10
67.52730258095745
 20
140.7674894170677
 30
0.0
 42
-0.2373869490350003
  0
VERTEX
  5
73
  8
DEFAULT
 62
     5
 10
69.7736378254362
 20
141.9316482352282
 30
0.0
 42
-0.131512031073458
  0
VERTEX
  5
74
  8
DEFAULT
 62
     5
 10
70.97396570602399
 20
141.6422966777247
 30
0.0
 42
-0.1393853272245245
  0
VERTEX
  5
75
  8
DEFAULT
 62
     5
 10
71.8087458206927
 20
140.7674894170677
 30
0.0
 42
-0.1018343532165888
  0
VERTEX
  5
76
  8
DEFAULT
 62
     5
 10
72.83015790188202
 20
141.6422966777247
 30
0.0
 42
-0.1239296679571068
  0
VERTEX
  5
77
  8
DEFAULT
 62
     5
 10
74.00010431634152
 20
141.9316482352282
 30
0.0
 42
-0.1355305589141967
  0
VERTEX
  5
78
  8
DEFAULT
 62
     5
 10
75.3398031107846
 20
141.6075743966328
 30
0.0
 42
-0.1623661969580791
  0
VERTEX
  5
79
  8
DEFAULT
 62
     5
 10
76.1586691017215
 20
140.6565713985176
 30
0.0
 42
-0.0915442810314503
  0
VERTEX
  5
7A
  8
DEFAULT
 62
     5
 10
76.35446307478463
 20
139.1557994992309
 30
0.0
  0
VERTEX
  5
7B
  8
DEFAULT
 62
     5
 10
76.35446307478463
 20
134.5242408278208
 30
0.0
  0
VERTEX
  5
7C
  8
DEFAULT
 62
     5
 10
74.44088282787104
 20
134.5242408278208
 30
0.0
  0
VERTEX
  5
7D
  8
DEFAULT
 62
     5
 10
74.44088282787105
 20
138.6542571135299
 30
0.0
 42
0.1141470137910846
  0
VERTEX
  5
7E
  8
DEFAULT
 62
     5
 10
74.24605337569818
 20
140.0421810105711
 30
0.0
 42
0.2721000606534033
  0
VERTEX
  5
7F
  8
DEFAULT
 62
     5
 10
73.43876163544442
 20
140.4501667537467
 30
0.0
 42
0.1575639071466558
  0
VERTEX
  5
80
  8
DEFAULT
 62
     5
 10
72.6927155588498
 20
140.2051822152803
 30
0.0
 42
0.1657627374474282
  0
VERTEX
  5
81
  8
DEFAULT
 62
     5
 10
72.18827866856311
 20
139.4875899759058
 30
0.0
 42
0.0723437487255001
  0
VERTEX
  5
82
  8
DEFAULT
 62
     5
 10
72.03347542046363
 20
137.9945342437412
 30
0.0
  0
VERTEX
  5
83
  8
DEFAULT
 62
     5
 10
72.03347542046365
 20
134.5242408278208
 30
0.0
  0
VERTEX
  5
84
  8
DEFAULT
 62
     5
 10
70.11989517355005
 20
134.5242408278208
 30
0.0
  0
VERTEX
  5
85
  8
DEFAULT
 62
     5
 10
70.11989517355003
 20
138.4835387997837
 30
0.0
 42
0.0609892367975103
  0
VERTEX
  5
86
  8
DEFAULT
 62
     5
 10
70.020069145238
 20
139.8449393142577
 30
0.0
 42
0.163393119698469
  0
VERTEX
  5
87
  8
DEFAULT
 62
     5
 10
69.70998085955142
 20
140.3006683705437
 30
0.0
 42
0.1561218014297253
  0
VERTEX
  5
88
  8
DEFAULT
 62
     5
 10
69.13995701968449
 20
140.4501667537467
 30
0.0
 42
0.1551837175468194
  0
VERTEX
  5
89
  8
DEFAULT
 62
     5
 10
68.35918960391288
 20
140.2119338615121
 30
0.0
 42
0.1670025847935726
  0
VERTEX
  5
8A
  8
DEFAULT
 62
     5
 10
67.86246888074825
 20
139.5247235592234
 30
0.0
 42
0.0722698594962486
  0
VERTEX
  5
8B
  8
DEFAULT
 62
     5
 10
67.71248776614266
 20
138.0350441211321
 30
0.0
  0
VERTEX
  5
8C
  8
DEFAULT
 62
     5
 10
67.71248776614266
 20
134.5242408278208
 30
0.0
  0
VERTEX
  5
8D
  8
DEFAULT
 62
     5
 10
65.79890751922906
 20
134.5242408278208
 30
0.0
  0
SEQEND
  5
8E
  8
DEFAULT
 62
     5
  0
POLYLINE
  5
8F
  8
DEFAULT
 62
     5
 66
     1
 10
0.0
 20
0.0
 30
0.0
 70
     1
  0
VERTEX
  5
90
  8
DEFAULT
 62
     5
 10
59.00878406243893
 20
138.1353524098894
 30
0.0
 42
0.180769690720828
  0
VERTEX
  5
91
  8
DEFAULT
 62
     5
 10
59.50839834827435
 20
136.4628986178811
 30
0.0
 42
0.4777036397637512
  0
VERTEX
  5
92
  8
DEFAULT
 62
     5
 10
61.9693361941337
 20
136.4628986178811
 30
0.0
 42
0.1794408075869883
  0
VERTEX
  5
93
  8
DEFAULT
 62
     5
 10
62.46557418589575
 20
138.148855702353
 30
0.0
 42
0.1800932450794011
  0
VERTEX
  5
94
  8
DEFAULT
 62
     5
 10
61.96933619413372
 20
139.8078057309401
 30
0.0
 42
0.4793729384846468
  0
VERTEX
  5
95
  8
DEFAULT
 62
     5
 10
59.50839834827435
 20
139.8078057309401
 30
0.0
 42
0.1807697890868669
  0
SEQEND
  5
96
  8
DEFAULT
 62
     5
  0
POLYLINE
  5
97
  8
DEFAULT
 62
     5
 66
     1
 10
0.0
 20
0.0
 30
0.0
 70
     1
  0
VERTEX
  5
98
  8
DEFAULT
 62
     5
 10
57.09520381552537
 20
138.2375897404271
 30
0.0
 42
-0.1222574291832676
  0
VERTEX
  5
99
  8
DEFAULT
 62
     5
 10
57.56154260160422
 20
140.0913711050169
 30
0.0
 42
-0.150919920783584
  0
VERTEX
  5
9A
  8
DEFAULT
 62
     5
 10
58.88291644104731
 20
141.4595227947652
 30
0.0
 42
-0.1287246067144142
  0
VERTEX
  5
9B
  8
DEFAULT
 62
     5
 10
60.79215681491218
 20
141.9316482352282
 30
0.0
 42
-0.2109274079128389
  0
VERTEX
  5
9C
  8
DEFAULT
 62
     5
 10
63.46190919489571
 20
140.8610465305505
 30
0.0
 42
-0.2026212639801779
  0
VERTEX
  5
9D
  8
DEFAULT
 62
     5
 10
64.50261122293277
 20
138.1556073485848
 30
0.0
 42
-0.2022295973323248
  0
VERTEX
  5
9E
  8
DEFAULT
 62
     5
 10
63.45178219650546
 20
135.4231606397769
 30
0.0
 42
-0.211550609660102
  0
VERTEX
  5
9F
  8
DEFAULT
 62
     5
 10
60.8056591654609
 20
134.3390556426356
 30
0.0
 42
-0.1188796278362158
  0
VERTEX
  5
A0
  8
DEFAULT
 62
     5
 10
58.92342537652331
 20
134.7904448258729
 30
0.0
 42
-0.1582355798320195
  0
VERTEX
  5
A1
  8
DEFAULT
 62
     5
 10
57.56154260160422
 20
136.1142299675416
 30
0.0
 42
-0.1239053267140401
  0
SEQEND
  5
A2
  8
DEFAULT
 62
     5
  0
POLYLINE
  5
A3
  8
DEFAULT
 62
     5
 66
     1
 10
0.0
 20
0.0
 30
0.0
 70
     1
  0
VERTEX
  5
A4
  8
DEFAULT
 62
     5
 10
56.04582109947597
 20
139.6476976179442
 30
0.0
  0
VERTEX
  5
A5
  8
DEFAULT
 62
     5
 10
54.1322408525624
 20
139.3390556426356
 30
0.0
 42
0.180996809817535
  0
VERTEX
  5
A6
  8
DEFAULT
 62
     5
 10
53.70496516253908
 20
140.170942665591
 30
0.0
 42
0.1804760167669773
  0
VERTEX
  5
A7
  8
DEFAULT
 62
     5
 10
52.84076716071741
 20
140.4501667537467
 30
0.0
 42
0.2329674834671512
  0
VERTEX
  5
A8
  8
DEFAULT
 62
     5
 10
51.71325966542934
 20
139.9486238970883
 30
0.0
 42
0.1695179555120511
  0
VERTEX
  5
A9
  8
DEFAULT
 62
     5
 10
51.29273467972289
 20
138.2703834506959
 30
0.0
 42
0.1610966817175035
  0
VERTEX
  5
AA
  8
DEFAULT
 62
     5
 10
51.72338713477711
 20
136.4219069510025
 30
0.0
 42
0.240554049109422
  0
VERTEX
  5
AB
  8
DEFAULT
 62
     5
 10
52.87934799632782
 20
135.8822655191788
 30
0.0
 42
0.1883458441869291
  0
VERTEX
  5
AC
  8
DEFAULT
 62
     5
 10
53.76717581804591
 20
136.1880144027741
 30
0.0
 42
0.1622604489947744
  0
VERTEX
  5
AD
  8
DEFAULT
 62
     5
 10
54.25569764268587
 20
137.2402902105368
 30
0.0
  0
VERTEX
  5
AE
  8
DEFAULT
 62
     5
 10
56.16927788959944
 20
136.9933766302899
 30
0.0
 42
-0.1724509721436086
  0
VERTEX
  5
AF
  8
DEFAULT
 62
     5
 10
55.05141560321397
 20
135.0093877712597
 30
0.0
 42
-0.1746967243539203
  0
VERTEX
  5
B0
  8
DEFAULT
 62
     5
 10
52.83498097729077
 20
134.3390556426356
 30
0.0
 42
-0.2163976905724369
  0
VERTEX
  5
B1
  8
DEFAULT
 62
     5
 10
50.31761913030861
 20
135.344553600093
 30
0.0
 42
-0.194387056632099
  0
VERTEX
  5
B2
  8
DEFAULT
 62
     5
 10
49.3791544328093
 20
138.1286007636575
 30
0.0
 42
-0.1945054615972605
  0
VERTEX
  5
B3
  8
DEFAULT
 62
     5
 10
50.31713686986349
 20
140.9295265718441
 30
0.0
 42
-0.2157801631580024
  0
VERTEX
  5
B4
  8
DEFAULT
 62
     5
 10
52.85427045318104
 20
141.9316482352282
 30
0.0
 42
-0.159942307695784
  0
VERTEX
  5
B5
  8
DEFAULT
 62
     5
 10
54.9356749802126
 20
141.3674124626178
 30
0.0
 42
-0.1682635697126205
  0
SEQEND
  5
B6
  8
DEFAULT
 62
     5
  0
POLYLINE
  5
B7
  8
DEFAULT
 62
     5
 66
     1
 10
0.0
 20
0.0
 30
0.0
 70
     1
  0
VERTEX
  5
B8
  8
DEFAULT
 62
     5
 10
45.92236430935253
 20
134.5242408278208
 30
0.0
  0
VERTEX
  5
B9
  8
DEFAULT
 62
     5
 10
45.92236430935253
 20
136.4378210747343
 30
0.0
  0
VERTEX
  5
BA
  8
DEFAULT
 62
     5
 10
47.8359445562661
 20
136.4378210747343
 30
0.0
  0
VERTEX
  5
BB
  8
DEFAULT
 62
     5
 10
47.8359445562661
 20
134.5242408278208
 30
0.0
  0
SEQEND
  5
BC
  8
DEFAULT
 62
     5
  0
POLYLINE
  5
BD
  8
DEFAULT
 62
     5
 66
     1
 10
0.0
 20
0.0
 30
0.0
 70
     1
  0
VERTEX
  5
BE
  8
DEFAULT
 62
     5
 10
42.58903097601919
 20
138.78350008708
 30
0.0
 42
0.1931771868552432
  0
VERTEX
  5
BF
  8
DEFAULT
 62
     5
 10
42.14969877486761
 20
140.0253018949915
 30
0.0
 42
0.2094545272841359
  0
VERTEX
  5
C0
  8
DEFAULT
 62
     5
 10
41.13166251679422
 20
140.4501667537467
 30
0.0
 42
0.2175151257022251
  0
VERTEX
  5
C1
  8
DEFAULT
 62
     5
 10
40.07167007095197
 20
140.0016720750951
 30
0.0
 42
0.1974850402976523
  0
VERTEX
  5
C2
  8
DEFAULT
 62
     5
 10
39.65982624421534
 20
138.78350008708
 30
0.0
  0
SEQEND
  5
C3
  8
DEFAULT
 62
     5
  0
POLYLINE
  5
C4
  8
DEFAULT
 62
     5
 66
     1
 10
0.0
 20
0.0
 30
0.0
 70
     1
  0
VERTEX
  5
C5
  8
DEFAULT
 62
     5
 10
42.46557418589575
 20
136.8081914451047
 30
0.0
  0
VERTEX
  5
C6
  8
DEFAULT
 62
     5
 10
44.37915443280932
 20
136.5612778648578
 30
0.0
 42
-0.160194864391742
  0
VERTEX
  5
C7
  8
DEFAULT
 62
     5
 10
43.21596013553909
 20
134.9071499697645
 30
0.0
 42
-0.1590209405814297
  0
VERTEX
  5
C8
  8
DEFAULT
 62
     5
 10
41.2261846221248
 20
134.3390556426356
 30
0.0
 42
-0.2510606897924126
  0
VERTEX
  5
C9
  8
DEFAULT
 62
     5
 10
38.42911642654179
 20
135.5774816274312
 30
0.0
 42
-0.1603231689598222
  0
VERTEX
  5
CA
  8
DEFAULT
 62
     5
 10
37.71248776614266
 20
138.0803756610594
 30
0.0
 42
-0.1928988919450625
  0
VERTEX
  5
CB
  8
DEFAULT
 62
     5
 10
38.65722184942867
 20
140.909272104106
 30
0.0
 42
-0.2186957110499704
  0
VERTEX
  5
CC
  8
DEFAULT
 62
     5
 10
41.04582109947597
 20
141.9316482352282
 30
0.0
 42
-0.2248762650829738
  0
VERTEX
  5
CD
  8
DEFAULT
 62
     5
 10
43.60562092371467
 20
140.8682804372275
 30
0.0
 42
-0.1866850592647316
  0
VERTEX
  5
CE
  8
DEFAULT
 62
     5
 10
44.50261122293279
 20
137.6106605809072
 30
0.0
  0
VERTEX
  5
CF
  8
DEFAULT
 62
     5
 10
39.62606801305625
 20
137.6106605809072
 30
0.0
 42
0.1907233177561308
  0
VERTEX
  5
D0
  8
DEFAULT
 62
     5
 10
40.09819439543413
 20
136.2916985146472
 30
0.0
 42
0.2135192120774942
  0
VERTEX
  5
D1
  8
DEFAULT
 62
     5
 10
41.22329105945403
 20
135.8205371241171
 30
0.0
 42
0.1657236937101303
  0
VERTEX
  5
D2
  8
DEFAULT
 62
     5
 10
41.99344874543278
 20
136.0544301433029
 30
0.0
 42
0.1589948514629386
  0
SEQEND
  5
D3
  8
DEFAULT
 62
     5
  0
POLYLINE
  5
D4
  8
DEFAULT
 62
     5
 66
     1
 10
0.0
 20
0.0
 30
0.0
 70
     1
  0
VERTEX
  5
D5
  8
DEFAULT
 62
     5
 10
36.78656184021673
 20
139.6476976179442
 30
0.0
  0
VERTEX
  5
D6
  8
DEFAULT
 62
     5
 10
34.87298159330313
 20
139.3390556426356
 30
0.0
 42
0.1809968098175304
  0
VERTEX
  5
D7
  8
DEFAULT
 62
     5
 10
34.44570590327983
 20
140.170942665591
 30
0.0
 42
0.1804760167669757
  0
VERTEX
  5
D8
  8
DEFAULT
 62
     5
 10
33.58150790145814
 20
140.4501667537467
 30
0.0
 42
0.2329674834671465
  0
VERTEX
  5
D9
  8
DEFAULT
 62
     5
 10
32.45400040617007
 20
139.9486238970883
 30
0.0
 42
0.1695179555120453
  0
VERTEX
  5
DA
  8
DEFAULT
 62
     5
 10
32.03347542046365
 20
138.2703834506959
 30
0.0
 42
0.1610966817174946
  0
VERTEX
  5
DB
  8
DEFAULT
 62
     5
 10
32.46412787551782
 20
136.4219069510025
 30
0.0
 42
0.2405540491094166
  0
VERTEX
  5
DC
  8
DEFAULT
 62
     5
 10
33.62008873706856
 20
135.8822655191788
 30
0.0
 42
0.1883458441869464
  0
VERTEX
  5
DD
  8
DEFAULT
 62
     5
 10
34.50791655878664
 20
136.1880144027741
 30
0.0
 42
0.1622604489947733
  0
VERTEX
  5
DE
  8
DEFAULT
 62
     5
 10
34.9964383834266
 20
137.2402902105368
 30
0.0
  0
VERTEX
  5
DF
  8
DEFAULT
 62
     5
 10
36.91001863034018
 20
136.9933766302899
 30
0.0
 42
-0.1724509721436171
  0
VERTEX
  5
E0
  8
DEFAULT
 62
     5
 10
35.79215634395471
 20
135.0093877712597
 30
0.0
 42
-0.1746967243539269
  0
VERTEX
  5
E1
  8
DEFAULT
 62
     5
 10
33.57572171803153
 20
134.3390556426356
 30
0.0
 42
-0.2163976905724373
  0
VERTEX
  5
E2
  8
DEFAULT
 62
     5
 10
31.05835987104937
 20
135.344553600093
 30
0.0
 42
-0.1943870566321042
  0
VERTEX
  5
E3
  8
DEFAULT
 62
     5
 10
30.11989517355005
 20
138.1286007636575
 30
0.0
 42
-0.1945054615972535
  0
VERTEX
  5
E4
  8
DEFAULT
 62
     5
 10
31.05787761060424
 20
140.9295265718441
 30
0.0
 42
-0.2157801631579967
  0
VERTEX
  5
E5
  8
DEFAULT
 62
     5
 10
33.59501119392181
 20
141.9316482352282
 30
0.0
 42
-0.1599423076957962
  0
VERTEX
  5
E6
  8
DEFAULT
 62
     5
 10
35.67641572095332
 20
141.3674124626178
 30
0.0
 42
-0.1682635697126259
  0
SEQEND
  5
E7
  8
DEFAULT
 62
     5
  0
POLYLINE
  5
E8
  8
DEFAULT
 62
     5
 66
     1
 10
0.0
 20
0.0
 30
0.0
 70
     1
  0
VERTEX
  5
E9
  8
DEFAULT
 62
     5
 10
26.66310505009326
 20
137.9810309512775
 30
0.0
  0
VERTEX
  5
EA
  8
DEFAULT
 62
     5
 10
25.54910084726885
 20
137.6887858311033
 30
0.0
 42
0.0811165779561
  0
VERTEX
  5
EB
  8
DEFAULT
 62
     5
 10
24.55276630922632
 20
137.3560317754531
 30
0.0
 42
0.2517191883485992
  0
VERTEX
  5
EC
  8
DEFAULT
 62
     5
 10
24.19396924762414
 20
136.6828065551157
 30
0.0
 42
0.429815094554468
  0
VERTEX
  5
ED
  8
DEFAULT
 62
     5
 10
25.21055919531959
 20
135.6970803339936
 30
0.0
 42
0.1670482644845577
  0
VERTEX
  5
EE
  8
DEFAULT
 62
     5
 10
26.15481101816048
 20
136.0365869777906
 30
0.0
 42
0.1651612454991347
  0
VERTEX
  5
EF
  8
DEFAULT
 62
     5
 10
26.59173238804385
 20
136.669303262652
 30
0.0
 42
0.0593667948163831
  0
VERTEX
  5
F0
  8
DEFAULT
 62
     5
 10
26.66310505009327
 20
137.6000517930293
 30
0.0
  0
SEQEND
  5
F1
  8
DEFAULT
 62
     5
  0
POLYLINE
  5
F2
  8
DEFAULT
 62
     5
 66
     1
 10
0.0
 20
0.0
 30
0.0
 70
     1
  0
VERTEX
  5
F3
  8
DEFAULT
 62
     5
 10
24.25569764268586
 20
139.5242408278208
 30
0.0
  0
VERTEX
  5
F4
  8
DEFAULT
 62
     5
 10
22.52730258095747
 20
139.7711544080677
 30
0.0
 42
-0.1714833175990376
  0
VERTEX
  5
F5
  8
DEFAULT
 62
     5
 10
23.51447511245747
 20
141.4021347437096
 30
0.0
 42
-0.1608829132837593
  0
VERTEX
  5
F6
  8
DEFAULT
 62
     5
 10
25.59539737904387
 20
141.9316482352282
 30
0.0
 42
-0.1088364278880871
  0
VERTEX
  5
F7
  8
DEFAULT
 62
     5
 10
27.46268109418243
 20
141.628311124816
 30
0.0
 42
-0.1580303644335157
  0
VERTEX
  5
F8
  8
DEFAULT
 62
     5
 10
28.32639636460148
 20
140.8576707074346
 30
0.0
 42
-0.1088017057953554
  0
VERTEX
  5
F9
  8
DEFAULT
 62
     5
 10
28.57668529700685
 20
139.1422971486822
 30
0.0
  0
VERTEX
  5
FA
  8
DEFAULT
 62
     5
 10
28.57668529700685
 20
136.9046425922158
 30
0.0
 42
0.0514080219695318
  0
VERTEX
  5
FB
  8
DEFAULT
 62
     5
 10
28.68085214028256
 20
135.4959810250766
 30
0.0
 42
0.069228786423231
  0
VERTEX
  5
FC
  8
DEFAULT
 62
     5
 10
29.07051245750067
 20
134.5242408278208
 30
0.0
  0
VERTEX
  5
FD
  8
DEFAULT
 62
     5
 10
27.1569322105871
 20
134.5242408278208
 30
0.0
  0
VERTEX
  5
FE
  8
DEFAULT
 62
     5
 10
26.97367606718244
 20
135.0836544669374
 30
0.0
  0
VERTEX
  5
FF
  8
DEFAULT
 62
     5
 10
26.90616148869407
 20
135.3064559668427
 30
0.0
 42
-0.0933244186738162
  0
VERTEX
  5
100
  8
DEFAULT
 62
     5
 10
25.86160043518106
 20
134.5811470893887
 30
0.0
 42
-0.1040133466925743
  0
VERTEX
  5
101
  8
DEFAULT
 62
     5
 10
24.67429405756924
 20
134.3390556426356
 30
0.0
 42
-0.196543035759658
  0
VERTEX
  5
102
  8
DEFAULT
 62
     5
 10
22.92130371313922
 20
134.9442835530821
 30
0.0
 42
-0.2154369487651058
  0
VERTEX
  5
103
  8
DEFAULT
 62
     5
 10
22.28038900071054
 20
136.4744728685642
 30
0.0
 42
-0.1373780248024329
  0
VERTEX
  5
104
  8
DEFAULT
 62
     5
 10
22.56588294561042
 20
137.5662935618701
 30
0.0
 42
-0.1473783213971106
  0
VERTEX
  5
105
  8
DEFAULT
 62
     5
 10
23.3659412501447
 20
138.3007649168242
 30
0.0
 42
-0.0634404934847298
  0
VERTEX
  5
106
  8
DEFAULT
 62
     5
 10
24.84983403385184
 20
138.7458847142748
 30
0.0
 42
0.0472009877728918
  0
VERTEX
  5
107
  8
DEFAULT
 62
     5
 10
26.66310505009326
 20
139.2155988525121
 30
0.0
  0
VERTEX
  5
108
  8
DEFAULT
 62
     5
 10
26.66310505009326
 20
139.4094647257097
 30
0.0
 42
0.2070921599656428
  0
VERTEX
  5
109
  8
DEFAULT
 62
     5
 10
26.40702899234637
 20
140.2109693406219
 30
0.0
 42
0.1777887432708196
  0
VERTEX
  5
10A
  8
DEFAULT
 62
     5
 10
25.44011139954182
 20
140.4501667537467
 30
0.0
 42
0.1651091138038484
  0
VERTEX
  5
10B
  8
DEFAULT
 62
     5
 10
24.69117270219133
 20
140.2447271008235
 30
0.0
 42
0.1491587679877579
  0
SEQEND
  5
10C
  8
DEFAULT
 62
     5
  0
POLYLINE
  5
10D
  8
DEFAULT
 62
     5
 66
     1
 10
0.0
 20
0.0
 30
0.0
 70
     1
  0
VERTEX
  5
10E
  8
DEFAULT
 62
     5
 10
16.2927346797229
 20
138.2568801582323
 30
0.0
 42
0.166212785212053
  0
VERTEX
  5
10F
  8
DEFAULT
 62
     5
 10
16.76630737247873
 20
136.4156375652158
 30
0.0
 42
0.2404461653498011
  0
VERTEX
  5
110
  8
DEFAULT
 62
     5
 10
17.91985693180382
 20
135.820537124117
 30
0.0
 42
0.2413239634426894
  0
VERTEX
  5
111
  8
DEFAULT
 62
     5
 10
19.00733775206101
 20
136.3669302021726
 30
0.0
 42
0.1627449374921702
  0
VERTEX
  5
112
  8
DEFAULT
 62
     5
 10
19.44088282787105
 20
138.1594654321459
 30
0.0
 42
0.1661976731382179
  0
VERTEX
  5
113
  8
DEFAULT
 62
     5
 10
18.99383445959739
 20
139.8864132415814
 30
0.0
 42
0.2412377667960205
  0
VERTEX
  5
114
  8
DEFAULT
 62
     5
 10
17.88706416344991
 20
140.4501667537467
 30
0.0
 42
0.236742212932181
  0
VERTEX
  5
115
  8
DEFAULT
 62
     5
 10
16.74605290474071
 20
139.8965402399716
 30
0.0
 42
0.1723447809989074
  0
SEQEND
  5
116
  8
DEFAULT
 62
     5
  0
POLYLINE
  5
117
  8
DEFAULT
 62
     5
 66
     1
 10
0.0
 20
0.0
 30
0.0
 70
     1
  0
VERTEX
  5
118
  8
DEFAULT
 62
     5
 10
14.37915443280932
 20
141.746463050043
 30
0.0
  0
VERTEX
  5
119
  8
DEFAULT
 62
     5
 10
16.16927788959944
 20
141.746463050043
 30
0.0
  0
VERTEX
  5
11A
  8
DEFAULT
 62
     5
 10
16.16927788959945
 20
140.6932231923475
 30
0.0
 42
-0.1189653659007782
  0
VERTEX
  5
11B
  8
DEFAULT
 62
     5
 10
17.09375750514744
 20
141.5824973244435
 30
0.0
 42
-0.1382105598910517
  0
VERTEX
  5
11C
  8
DEFAULT
 62
     5
 10
18.3866784492853
 20
141.9316482352282
 30
0.0
 42
-0.2273648758850426
  0
VERTEX
  5
11D
  8
DEFAULT
 62
     5
 10
20.49026554392043
 20
140.9396540411918
 30
0.0
 42
-0.1838682188936146
  0
VERTEX
  5
11E
  8
DEFAULT
 62
     5
 10
21.35446307478461
 20
138.1768258662556
 30
0.0
 42
-0.1823656645300224
  0
VERTEX
  5
11F
  8
DEFAULT
 62
     5
 10
20.48303210820095
 20
135.347929423209
 30
0.0
 42
-0.2285594541574962
  0
VERTEX
  5
120
  8
DEFAULT
 62
     5
 10
18.37124611504113
 20
134.3390556426356
 30
0.0
 42
-0.1163198006807528
  0
VERTEX
  5
121
  8
DEFAULT
 62
     5
 10
17.30160846029628
 20
134.5753599640471
 30
0.0
 42
-0.0904152380777878
  0
VERTEX
  5
122
  8
DEFAULT
 62
     5
 10
16.2927346797229
 20
135.3855457379291
 30
0.0
  0
VERTEX
  5
123
  8
DEFAULT
 62
     5
 10
16.2927346797229
 20
131.746463050043
 30
0.0
  0
VERTEX
  5
124
  8
DEFAULT
 62
     5
 10
14.37915443280932
 20
131.746463050043
 30
0.0
  0
SEQEND
  5
125
  8
DEFAULT
 62
     5
  0
POLYLINE
  5
126
  8
DEFAULT
 62
     5
 66
     1
 10
0.0
 20
0.0
 30
0.0
 70
     1
  0
VERTEX
  5
127
  8
DEFAULT
 62
     5
 10
5.984092704414252
 20
136.5612778648578
 30
0.0
  0
VERTEX
  5
128
  8
DEFAULT
 62
     5
 10
7.897672951327821
 20
136.8081914451047
 30
0.0
 42
0.1817134537413398
  0
VERTEX
  5
129
  8
DEFAULT
 62
     5
 10
8.392947364114514
 20
135.9796807162227
 30
0.0
 42
0.1637490318833003
  0
VERTEX
  5
12A
  8
DEFAULT
 62
     5
 10
9.436061165334678
 20
135.6970803339936
 30
0.0
 42
0.158154859031634
  0
VERTEX
  5
12B
  8
DEFAULT
 62
     5
 10
10.54813679733605
 20
135.9738940618386
 30
0.0
 42
0.2454173628753341
  0
VERTEX
  5
12C
  8
DEFAULT
 62
     5
 10
10.79890751922907
 20
136.4927987654792
 30
0.0
 42
0.1967133408659813
  0
VERTEX
  5
12D
  8
DEFAULT
 62
     5
 10
10.66291289944715
 20
136.8593110522885
 30
0.0
 42
0.1152480441762957
  0
VERTEX
  5
12E
  8
DEFAULT
 62
     5
 10
10.02248044746364
 20
137.1149053205478
 30
0.0
 42
-0.0750101977649452
  0
VERTEX
  5
12F
  8
DEFAULT
 62
     5
 10
7.088453111208475
 20
138.0591562014737
 30
0.0
 42
-0.2630575377237219
  0
VERTEX
  5
130
  8
DEFAULT
 62
     5
 10
6.231006284661149
 20
139.6968881833475
 30
0.0
 42
-0.227805535903414
  0
VERTEX
  5
131
  8
DEFAULT
 62
     5
 10
6.972229285847026
 20
141.2873581706411
 30
0.0
 42
-0.1789409577799068
  0
VERTEX
  5
132
  8
DEFAULT
 62
     5
 10
9.270165456039761
 20
141.9316482352282
 30
0.0
 42
-0.1478680227512985
  0
VERTEX
  5
133
  8
DEFAULT
 62
     5
 10
11.47309773141425
 20
141.4325166807954
 30
0.0
 42
-0.1798681362132256
  0
VERTEX
  5
134
  8
DEFAULT
 62
     5
 10
12.46557418589573
 20
139.9563395932529
 30
0.0
  0
VERTEX
  5
135
  8
DEFAULT
 62
     5
 10
10.67545072910563
 20
139.6476976179442
 30
0.0
 42
0.1762609448243799
  0
VERTEX
  5
136
  8
DEFAULT
 62
     5
 10
10.23756530928941
 20
140.3349083911905
 30
0.0
 42
0.1598214678236443
  0
VERTEX
  5
137
  8
DEFAULT
 62
     5
 10
9.317426037747595
 20
140.5736235438702
 30
0.0
 42
0.1371855487857758
  0
VERTEX
  5
138
  8
DEFAULT
 62
     5
 10
8.238144116015068
 20
140.359503673892
 30
0.0
 42
0.259374020670995
  0
VERTEX
  5
139
  8
DEFAULT
 62
     5
 10
8.021129741451295
 20
139.9650202812652
 30
0.0
 42
0.2456185528240317
  0
VERTEX
  5
13A
  8
DEFAULT
 62
     5
 10
8.211137531087802
 20
139.6120112869195
 30
0.0
 42
0.0664798749578643
  0
VERTEX
  5
13B
  8
DEFAULT
 62
     5
 10
9.990651729042511
 20
139.0656186798214
 30
0.0
 42
-0.1095214193377413
  0
VERTEX
  5
13C
  8
DEFAULT
 62
     5
 10
12.11545875422083
 20
138.2067260138537
 30
0.0
 42
-0.2284114958797491
  0
VERTEX
  5
13D
  8
DEFAULT
 62
     5
 10
12.71248776614264
 20
136.776363197641
 30
0.0
 42
-0.2276229810650844
  0
VERTEX
  5
13E
  8
DEFAULT
 62
     5
 10
11.88494155815089
 20
135.0576128738578
 30
0.0
 42
-0.1809722242825267
  0
VERTEX
  5
13F
  8
DEFAULT
 62
     5
 10
9.436061165334678
 20
134.3390556426356
 30
0.0
 42
-0.1534212868271846
  0
VERTEX
  5
140
  8
DEFAULT
 62
     5
 10
7.106295805763374
 20
134.9370496464051
 30
0.0
 42
-0.185354262016609
  0
SEQEND
  5
141
  8
DEFAULT
 62
     5
  0
POLYLINE
  5
142
  8
DEFAULT
 62
     5
 66
     1
 10
0.0
 20
0.0
 30
0.0
 70
     1
  0
VERTEX
  5
143
  8
DEFAULT
 62
     5
 10
4.749524803179696
 20
134.5242408278208
 30
0.0
  0
VERTEX
  5
144
  8
DEFAULT
 62
     5
 10
2.835944556266114
 20
134.5242408278208
 30
0.0
  0
VERTEX
  5
145
  8
DEFAULT
 62
     5
 10
2.835944556266141
 20
138.211548618305
 30
0.0
 42
0.0659043403441925
  0
VERTEX
  5
146
  8
DEFAULT
 62
     5
 10
2.715381328813423
 20
139.7258233390978
 30
0.0
 42
0.1600130695765704
  0
VERTEX
  5
147
  8
DEFAULT
 62
     5
 10
2.323791969814799
 20
140.2596771746225
 30
0.0
 42
0.1575149176298659
  0
VERTEX
  5
148
  8
DEFAULT
 62
     5
 10
1.671785738105612
 20
140.4501667537467
 30
0.0
 42
0.1576987046345062
  0
VERTEX
  5
149
  8
DEFAULT
 62
     5
 10
0.7955321670706295
 20
140.1781761013105
 30
0.0
 42
0.168437182261721
  0
VERTEX
  5
14A
  8
DEFAULT
 62
     5
 10
0.2636069023689914
 20
139.4572080388201
 30
0.0
 42
0.065980991857661
  0
VERTEX
  5
14B
  8
DEFAULT
 62
     5
 10
0.1198951735500566
 20
137.7968102869826
 30
0.0
  0
VERTEX
  5
14C
  8
DEFAULT
 62
     5
 10
0.1198951735500629
 20
134.5242408278208
 30
0.0
  0
VERTEX
  5
14D
  8
DEFAULT
 62
     5
 10
-1.79368507336352
 20
134.5242408278208
 30
0.0
  0
VERTEX
  5
14E
  8
DEFAULT
 62
     5
 10
-1.79368507336352
 20
141.746463050043
 30
0.0
  0
VERTEX
  5
14F
  8
DEFAULT
 62
     5
 10
-0.0035616165733927
 20
141.746463050043
 30
0.0
  0
VERTEX
  5
150
  8
DEFAULT
 62
     5
 10
-0.0035616165734007
 20
140.6932231923475
 30
0.0
 42
-0.2486296121988598
  0
VERTEX
  5
151
  8
DEFAULT
 62
     5
 10
2.349833562894361
 20
141.9316482352282
 30
0.0
 42
-0.1053164015607996
  0
VERTEX
  5
152
  8
DEFAULT
 62
     5
 10
3.492291131981476
 20
141.7030605518962
 30
0.0
 42
-0.1292191717088409
  0
VERTEX
  5
153
  8
DEFAULT
 62
     5
 10
4.275470320936178
 20
141.1200166219257
 30
0.0
 42
-0.1054932374262025
  0
VERTEX
  5
154
  8
DEFAULT
 62
     5
 10
4.645358430861437
 20
140.3151361838976
 30
0.0
 42
-0.0533641385177255
  0
VERTEX
  5
155
  8
DEFAULT
 62
     5
 10
4.749524803179693
 20
139.0255920047906
 30
0.0
  0
SEQEND
  5
156
  8
DEFAULT
 62
     5
  0
POLYLINE
  5
157
  8
DEFAULT
 62
     5
 66
     1
 10
0.0
 20
0.0
 30
0.0
 70
     1
  0
VERTEX
  5
158
  8
DEFAULT
 62
     5
 10
-5.682573962252405
 20
137.9810309512775
 30
0.0
  0
VERTEX
  5
159
  8
DEFAULT
 62
     5
 10
-6.796578165076838
 20
137.6887858311033
 30
0.0
 42
0.0811165779560981
  0
VERTEX
  5
15A
  8
DEFAULT
 62
     5
 10
-7.792912703119364
 20
137.3560317754531
 30
0.0
 42
0.2517191883486
  0
VERTEX
  5
15B
  8
DEFAULT
 62
     5
 10
-8.15170976472157
 20
136.6828065551157
 30
0.0
 42
0.4298150945544437
  0
VERTEX
  5
15C
  8
DEFAULT
 62
     5
 10
-7.13511981702608
 20
135.6970803339935
 30
0.0
 42
0.1670482644845503
  0
VERTEX
  5
15D
  8
DEFAULT
 62
     5
 10
-6.190867994185211
 20
136.0365869777906
 30
0.0
 42
0.1651612454991372
  0
VERTEX
  5
15E
  8
DEFAULT
 62
     5
 10
-5.753946624301809
 20
136.669303262652
 30
0.0
 42
0.0593667948163823
  0
VERTEX
  5
15F
  8
DEFAULT
 62
     5
 10
-5.682573962252406
 20
137.6000517930293
 30
0.0
  0
SEQEND
  5
160
  8
DEFAULT
 62
     5
  0
POLYLINE
  5
161
  8
DEFAULT
 62
     5
 66
     1
 10
0.0
 20
0.0
 30
0.0
 70
     1
  0
VERTEX
  5
162
  8
DEFAULT
 62
     5
 10
-8.08998136965981
 20
139.5242408278208
 30
0.0
  0
VERTEX
  5
163
  8
DEFAULT
 62
     5
 10
-9.818376431388208
 20
139.7711544080677
 30
0.0
 42
-0.1714833175990267
  0
VERTEX
  5
164
  8
DEFAULT
 62
     5
 10
-8.831203899888228
 20
141.4021347437096
 30
0.0
 42
-0.1608829132837561
  0
VERTEX
  5
165
  8
DEFAULT
 62
     5
 10
-6.750281633301809
 20
141.9316482352282
 30
0.0
 42
-0.1088364278880855
  0
VERTEX
  5
166
  8
DEFAULT
 62
     5
 10
-4.882997918163257
 20
141.628311124816
 30
0.0
 42
-0.1580303644335196
  0
VERTEX
  5
167
  8
DEFAULT
 62
     5
 10
-4.019282647744202
 20
140.8576707074346
 30
0.0
 42
-0.1088017057953548
  0
VERTEX
  5
168
  8
DEFAULT
 62
     5
 10
-3.768993715338816
 20
139.1422971486822
 30
0.0
  0
VERTEX
  5
169
  8
DEFAULT
 62
     5
 10
-3.76899371533884
 20
136.9046425922158
 30
0.0
 42
0.0514080219695214
  0
VERTEX
  5
16A
  8
DEFAULT
 62
     5
 10
-3.664826872063122
 20
135.4959810250766
 30
0.0
 42
0.0692287864232319
  0
VERTEX
  5
16B
  8
DEFAULT
 62
     5
 10
-3.275166554844998
 20
134.5242408278208
 30
0.0
  0
VERTEX
  5
16C
  8
DEFAULT
 62
     5
 10
-5.188746801758583
 20
134.5242408278208
 30
0.0
  0
VERTEX
  5
16D
  8
DEFAULT
 62
     5
 10
-5.372002945163246
 20
135.0836544669374
 30
0.0
  0
VERTEX
  5
16E
  8
DEFAULT
 62
     5
 10
-5.439517523651604
 20
135.3064559668427
 30
0.0
 42
-0.0933244186738157
  0
VERTEX
  5
16F
  8
DEFAULT
 62
     5
 10
-6.484078577164622
 20
134.5811470893887
 30
0.0
 42
-0.1040133466925819
  0
VERTEX
  5
170
  8
DEFAULT
 62
     5
 10
-7.671384954776428
 20
134.3390556426356
 30
0.0
 42
-0.1965430357596601
  0
VERTEX
  5
171
  8
DEFAULT
 62
     5
 10
-9.424375299206453
 20
134.9442835530821
 30
0.0
 42
-0.2154369487651057
  0
VERTEX
  5
172
  8
DEFAULT
 62
     5
 10
-10.06529001163515
 20
136.4744728685642
 30
0.0
 42
-0.1373780248024446
  0
VERTEX
  5
173
  8
DEFAULT
 62
     5
 10
-9.77979606673525
 20
137.5662935618701
 30
0.0
 42
-0.1473783213971009
  0
VERTEX
  5
174
  8
DEFAULT
 62
     5
 10
-8.979737762200983
 20
138.3007649168242
 30
0.0
 42
-0.063440493484731
  0
VERTEX
  5
175
  8
DEFAULT
 62
     5
 10
-7.495844978493851
 20
138.7458847142748
 30
0.0
 42
0.047200987772888
  0
VERTEX
  5
176
  8
DEFAULT
 62
     5
 10
-5.682573962252405
 20
139.2155988525121
 30
0.0
  0
VERTEX
  5
177
  8
DEFAULT
 62
     5
 10
-5.682573962252406
 20
139.4094647257097
 30
0.0
 42
0.2070921599656424
  0
VERTEX
  5
178
  8
DEFAULT
 62
     5
 10
-5.938650019999324
 20
140.2109693406219
 30
0.0
 42
0.1777887432708223
  0
VERTEX
  5
179
  8
DEFAULT
 62
     5
 10
-6.905567612803851
 20
140.4501667537467
 30
0.0
 42
0.1651091138038398
  0
VERTEX
  5
17A
  8
DEFAULT
 62
     5
 10
-7.654506310154352
 20
140.2447271008235
 30
0.0
 42
0.1491587679877661
  0
SEQEND
  5
17B
  8
DEFAULT
 62
     5
  0
POLYLINE
  5
17C
  8
DEFAULT
 62
     5
 66
     1
 10
0.0
 20
0.0
 30
0.0
 70
     1
  0
VERTEX
  5
17D
  8
DEFAULT
 62
     5
 10
-21.97887025854871
 20
141.746463050043
 30
0.0
  0
VERTEX
  5
17E
  8
DEFAULT
 62
     5
 10
-20.2504751968203
 20
141.746463050043
 30
0.0
  0
VERTEX
  5
17F
  8
DEFAULT
 62
     5
 10
-20.2504751968203
 20
140.7674894170677
 30
0.0
 42
-0.237386949035006
  0
VERTEX
  5
180
  8
DEFAULT
 62
     5
 10
-18.00413995234157
 20
141.9316482352282
 30
0.0
 42
-0.1315120310734531
  0
VERTEX
  5
181
  8
DEFAULT
 62
     5
 10
-16.80381207175378
 20
141.6422966777247
 30
0.0
 42
-0.1393853272245295
  0
VERTEX
  5
182
  8
DEFAULT
 62
     5
 10
-15.96903195708507
 20
140.7674894170677
 30
0.0
 42
-0.1018343532165933
  0
VERTEX
  5
183
  8
DEFAULT
 62
     5
 10
-14.94761987589577
 20
141.6422966777247
 30
0.0
 42
-0.123929667957112
  0
VERTEX
  5
184
  8
DEFAULT
 62
     5
 10
-13.77767346143624
 20
141.9316482352282
 30
0.0
 42
-0.1355305589141898
  0
VERTEX
  5
185
  8
DEFAULT
 62
     5
 10
-12.43797466699316
 20
141.6075743966328
 30
0.0
 42
-0.1623661969580976
  0
VERTEX
  5
186
  8
DEFAULT
 62
     5
 10
-11.61910867605627
 20
140.6565713985176
 30
0.0
 42
-0.0915442810314458
  0
VERTEX
  5
187
  8
DEFAULT
 62
     5
 10
-11.42331470299315
 20
139.1557994992309
 30
0.0
  0
VERTEX
  5
188
  8
DEFAULT
 62
     5
 10
-11.42331470299315
 20
134.5242408278208
 30
0.0
  0
VERTEX
  5
189
  8
DEFAULT
 62
     5
 10
-13.33689494990674
 20
134.5242408278208
 30
0.0
  0
VERTEX
  5
18A
  8
DEFAULT
 62
     5
 10
-13.33689494990674
 20
138.6542571135299
 30
0.0
 42
0.1141470137910791
  0
VERTEX
  5
18B
  8
DEFAULT
 62
     5
 10
-13.53172440207958
 20
140.0421810105711
 30
0.0
 42
0.2721000606533884
  0
VERTEX
  5
18C
  8
DEFAULT
 62
     5
 10
-14.33901614233335
 20
140.4501667537467
 30
0.0
 42
0.1575639071466493
  0
VERTEX
  5
18D
  8
DEFAULT
 62
     5
 10
-15.08506221892799
 20
140.2051822152803
 30
0.0
 42
0.1657627374474016
  0
VERTEX
  5
18E
  8
DEFAULT
 62
     5
 10
-15.58949910921469
 20
139.4875899759058
 30
0.0
 42
0.0723437487255002
  0
VERTEX
  5
18F
  8
DEFAULT
 62
     5
 10
-15.74430235731414
 20
137.9945342437412
 30
0.0
  0
VERTEX
  5
190
  8
DEFAULT
 62
     5
 10
-15.74430235731414
 20
134.5242408278208
 30
0.0
  0
VERTEX
  5
191
  8
DEFAULT
 62
     5
 10
-17.65788260422772
 20
134.5242408278208
 30
0.0
  0
VERTEX
  5
192
  8
DEFAULT
 62
     5
 10
-17.65788260422773
 20
138.4835387997837
 30
0.0
 42
0.0609892367975002
  0
VERTEX
  5
193
  8
DEFAULT
 62
     5
 10
-17.7577086325398
 20
139.8449393142577
 30
0.0
 42
0.1633931196985039
  0
VERTEX
  5
194
  8
DEFAULT
 62
     5
 10
-18.06779691822637
 20
140.3006683705437
 30
0.0
 42
0.156121801429763
  0
VERTEX
  5
195
  8
DEFAULT
 62
     5
 10
-18.63782075809328
 20
140.4501667537467
 30
0.0
 42
0.1551837175468229
  0
VERTEX
  5
196
  8
DEFAULT
 62
     5
 10
-19.4185881738649
 20
140.2119338615121
 30
0.0
 42
0.1670025847935518
  0
VERTEX
  5
197
  8
DEFAULT
 62
     5
 10
-19.91530889702951
 20
139.5247235592234
 30
0.0
 42
0.0722698594962493
  0
VERTEX
  5
198
  8
DEFAULT
 62
     5
 10
-20.06529001163513
 20
138.0350441211321
 30
0.0
  0
VERTEX
  5
199
  8
DEFAULT
 62
     5
 10
-20.06529001163513
 20
134.5242408278208
 30
0.0
  0
VERTEX
  5
19A
  8
DEFAULT
 62
     5
 10
-21.97887025854871
 20
134.5242408278208
 30
0.0
  0
SEQEND
  5
19B
  8
DEFAULT
 62
     5
  0
POLYLINE
  5
19C
  8
DEFAULT
 62
     5
 66
     1
 10
0.0
 20
0.0
 30
0.0
 70
     1
  0
VERTEX
  5
19D
  8
DEFAULT
 62
     5
 10
-30.18874680175858
 20
136.5612778648578
 30
0.0
  0
VERTEX
  5
19E
  8
DEFAULT
 62
     5
 10
-28.275166554845
 20
136.8081914451047
 30
0.0
 42
0.1817134537413379
  0
VERTEX
  5
19F
  8
DEFAULT
 62
     5
 10
-27.77989214205831
 20
135.9796807162227
 30
0.0
 42
0.1637490318832992
  0
VERTEX
  5
1A0
  8
DEFAULT
 62
     5
 10
-26.73677834083816
 20
135.6970803339936
 30
0.0
 42
0.1581548590316364
  0
VERTEX
  5
1A1
  8
DEFAULT
 62
     5
 10
-25.6247027088368
 20
135.9738940618386
 30
0.0
 42
0.2454173628753138
  0
VERTEX
  5
1A2
  8
DEFAULT
 62
     5
 10
-25.37393198694376
 20
136.4927987654792
 30
0.0
 42
0.1967133408659799
  0
VERTEX
  5
1A3
  8
DEFAULT
 62
     5
 10
-25.50992660672566
 20
136.8593110522885
 30
0.0
 42
0.1152480441762856
  0
VERTEX
  5
1A4
  8
DEFAULT
 62
     5
 10
-26.1503590587092
 20
137.1149053205478
 30
0.0
 42
-0.0750101977649468
  0
VERTEX
  5
1A5
  8
DEFAULT
 62
     5
 10
-29.08438639496435
 20
138.0591562014737
 30
0.0
 42
-0.2630575377237134
  0
VERTEX
  5
1A6
  8
DEFAULT
 62
     5
 10
-29.9418332215117
 20
139.6968881833475
 30
0.0
 42
-0.2278055359034107
  0
VERTEX
  5
1A7
  8
DEFAULT
 62
     5
 10
-29.2006102203258
 20
141.2873581706411
 30
0.0
 42
-0.1789409577799079
  0
VERTEX
  5
1A8
  8
DEFAULT
 62
     5
 10
-26.90267405013307
 20
141.9316482352282
 30
0.0
 42
-0.1478680227512977
  0
VERTEX
  5
1A9
  8
DEFAULT
 62
     5
 10
-24.6997417747586
 20
141.4325166807953
 30
0.0
 42
-0.1798681362132319
  0
VERTEX
  5
1AA
  8
DEFAULT
 62
     5
 10
-23.70726532027711
 20
139.9563395932529
 30
0.0
  0
VERTEX
  5
1AB
  8
DEFAULT
 62
     5
 10
-25.49738877706721
 20
139.6476976179442
 30
0.0
 42
0.1762609448243751
  0
VERTEX
  5
1AC
  8
DEFAULT
 62
     5
 10
-25.93527419688342
 20
140.3349083911905
 30
0.0
 42
0.159821467823645
  0
VERTEX
  5
1AD
  8
DEFAULT
 62
     5
 10
-26.85541346842524
 20
140.5736235438702
 30
0.0
 42
0.1371855487857763
  0
VERTEX
  5
1AE
  8
DEFAULT
 62
     5
 10
-27.93469539015776
 20
140.359503673892
 30
0.0
 42
0.2593740206709984
  0
VERTEX
  5
1AF
  8
DEFAULT
 62
     5
 10
-28.15170976472155
 20
139.9650202812652
 30
0.0
 42
0.2456185528240422
  0
VERTEX
  5
1B0
  8
DEFAULT
 62
     5
 10
-27.96170197508507
 20
139.6120112869195
 30
0.0
 42
0.0664798749578601
  0
VERTEX
  5
1B1
  8
DEFAULT
 62
     5
 10
-26.18218777713032
 20
139.0656186798214
 30
0.0
 42
-0.1095214193377398
  0
VERTEX
  5
1B2
  8
DEFAULT
 62
     5
 10
-24.05738075195201
 20
138.2067260138536
 30
0.0
 42
-0.2284114958797542
  0
VERTEX
  5
1B3
  8
DEFAULT
 62
     5
 10
-23.46035174003022
 20
136.776363197641
 30
0.0
 42
-0.227622981065085
  0
VERTEX
  5
1B4
  8
DEFAULT
 62
     5
 10
-24.28789794802194
 20
135.0576128738578
 30
0.0
 42
-0.1809722242825265
  0
VERTEX
  5
1B5
  8
DEFAULT
 62
     5
 10
-26.73677834083816
 20
134.3390556426356
 30
0.0
 42
-0.1534212868271849
  0
VERTEX
  5
1B6
  8
DEFAULT
 62
     5
 10
-29.06654370040947
 20
134.9370496464051
 30
0.0
 42
-0.1853542620166019
  0
SEQEND
  5
1B7
  8
DEFAULT
 62
     5
  0
POLYLINE
  5
1B8
  8
DEFAULT
 62
     5
 66
     1
 10
0.0
 20
0.0
 30
0.0
 70
     1
  0
VERTEX
  5
1B9
  8
DEFAULT
 62
     5
 10
-30.80603075237586
 20
141.746463050043
 30
0.0
  0
VERTEX
  5
1BA
  8
DEFAULT
 62
     5
 10
-30.80603075237586
 20
140.2649815685615
 30
0.0
  0
VERTEX
  5
1BB
  8
DEFAULT
 62
     5
 10
-32.10232704867217
 20
140.2649815685615
 30
0.0
  0
VERTEX
  5
1BC
  8
DEFAULT
 62
     5
 10
-32.10232704867217
 20
137.2827291297083
 30
0.0
  0
VERTEX
  5
1BD
  8
DEFAULT
 62
     5
 10
-32.06567572579972
 20
136.2270765569147
 30
0.0
 42
0.1777629698041116
  0
VERTEX
  5
1BE
  8
DEFAULT
 62
     5
 10
-31.90026274790742
 20
135.9796807162227
 30
0.0
 42
0.1671411134724513
  0
VERTEX
  5
1BF
  8
DEFAULT
 62
     5
 10
-31.58535138681208
 20
135.8822655191788
 30
0.0
 42
0.0818670423875299
  0
VERTEX
  5
1C0
  8
DEFAULT
 62
     5
 10
-30.83689447894926
 20
136.0645580836081
 30
0.0
  0
VERTEX
  5
1C1
  8
DEFAULT
 62
     5
 10
-30.68257396225241
 20
134.6168338913708
 30
0.0
 42
-0.1009135694951038
  0
VERTEX
  5
1C2
  8
DEFAULT
 62
     5
 10
-32.17177066894104
 20
134.3390556426356
 30
0.0
 42
-0.1023112505793896
  0
VERTEX
  5
1C3
  8
DEFAULT
 62
     5
 10
-33.09046315914748
 20
134.5145960898756
 30
0.0
 42
-0.1427327602513765
  0
VERTEX
  5
1C4
  8
DEFAULT
 62
     5
 10
-33.69086846514269
 20
134.9683965753386
 30
0.0
 42
-0.1112474266807335
  0
VERTEX
  5
1C5
  8
DEFAULT
 62
     5
 10
-33.95514247949934
 20
135.7211933562501
 30
0.0
  0
VERTEX
  5
1C6
  8
DEFAULT
 62
     5
 10
-34.01590729558574
 20
137.0821116102789
 30
0.0
  0
VERTEX
  5
1C7
  8
DEFAULT
 62
     5
 10
-34.01590729558574
 20
140.2649815685615
 30
0.0
  0
VERTEX
  5
1C8
  8
DEFAULT
 62
     5
 10
-34.94183322151166
 20
140.2649815685615
 30
0.0
  0
VERTEX
  5
1C9
  8
DEFAULT
 62
     5
 10
-34.94183322151166
 20
141.746463050043
 30
0.0
  0
VERTEX
  5
1CA
  8
DEFAULT
 62
     5
 10
-34.01590729558574
 20
141.746463050043
 30
0.0
  0
VERTEX
  5
1CB
  8
DEFAULT
 62
     5
 10
-34.01590729558574
 20
143.104487741401
 30
0.0
  0
VERTEX
  5
1CC
  8
DEFAULT
 62
     5
 10
-32.10232704867217
 20
144.2155988525121
 30
0.0
  0
VERTEX
  5
1CD
  8
DEFAULT
 62
     5
 10
-32.10232704867217
 20
141.746463050043
 30
0.0
  0
SEQEND
  5
1CE
  8
DEFAULT
 62
     5
  0
POLYLINE
  5
1CF
  8
DEFAULT
 62
     5
 66
     1
 10
0.0
 20
0.0
 30
0.0
 70
     1
  0
VERTEX
  5
1D0
  8
DEFAULT
 62
     5
 10
-39.50973445607957
 20
141.746463050043
 30
0.0
  0
VERTEX
  5
1D1
  8
DEFAULT
 62
     5
 10
-38.52208013509191
 20
141.746463050043
 30
0.0
  0
VERTEX
  5
1D2
  8
DEFAULT
 62
     5
 10
-38.52208013509192
 20
142.2875517341596
 30
0.0
 42
-0.095050463992272
  0
VERTEX
  5
1D3
  8
DEFAULT
 62
     5
 10
-38.33110782456517
 20
143.639789300176
 30
0.0
 42
-0.1716707163023902
  0
VERTEX
  5
1D4
  8
DEFAULT
 62
     5
 10
-37.62750019618451
 20
144.3670267484531
 30
0.0
 42
-0.1257658996646624
  0
VERTEX
  5
1D5
  8
DEFAULT
 62
     5
 10
-36.33072163944309
 20
144.6476976179442
 30
0.0
 42
-0.0781428993827371
  0
VERTEX
  5
1D6
  8
DEFAULT
 62
     5
 10
-34.75664803632648
 20
144.4007840376973
 30
0.0
  0
VERTEX
  5
1D7
  8
DEFAULT
 62
     5
 10
-34.97269694808507
 20
143.0581916805834
 30
0.0
 42
0.0588660059483038
  0
VERTEX
  5
1D8
  8
DEFAULT
 62
     5
 10
-35.8407525625103
 20
143.1662161364627
 30
0.0
 42
0.2070684672812038
  0
VERTEX
  5
1D9
  8
DEFAULT
 62
     5
 10
-36.43006587826752
 20
142.9762088177837
 30
0.0
 42
0.1773524100531758
  0
VERTEX
  5
1DA
  8
DEFAULT
 62
     5
 10
-36.60849988817834
 20
142.2460773358784
 30
0.0
  0
VERTEX
  5
1DB
  8
DEFAULT
 62
     5
 10
-36.60849988817833
 20
141.746463050043
 30
0.0
  0
VERTEX
  5
1DC
  8
DEFAULT
 62
     5
 10
-35.25047519682031
 20
141.746463050043
 30
0.0
  0
VERTEX
  5
1DD
  8
DEFAULT
 62
     5
 10
-35.25047519682031
 20
140.2649815685615
 30
0.0
  0
VERTEX
  5
1DE
  8
DEFAULT
 62
     5
 10
-36.60849988817833
 20
140.2649815685615
 30
0.0
  0
VERTEX
  5
1DF
  8
DEFAULT
 62
     5
 10
-36.60849988817833
 20
134.5242408278208
 30
0.0
  0
VERTEX
  5
1E0
  8
DEFAULT
 62
     5
 10
-38.52208013509191
 20
134.5242408278208
 30
0.0
  0
VERTEX
  5
1E1
  8
DEFAULT
 62
     5
 10
-38.52208013509191
 20
140.2649815685615
 30
0.0
  0
VERTEX
  5
1E2
  8
DEFAULT
 62
     5
 10
-39.50973445607957
 20
140.2649815685615
 30
0.0
  0
SEQEND
  5
1E3
  8
DEFAULT
 62
     5
  0
POLYLINE
  5
1E4
  8
DEFAULT
 62
     5
 66
     1
 10
0.0
 20
0.0
 30
0.0
 70
     1
  0
VERTEX
  5
1E5
  8
DEFAULT
 62
     5
 10
-42.65788260422772
 20
137.9810309512775
 30
0.0
  0
VERTEX
  5
1E6
  8
DEFAULT
 62
     5
 10
-43.77188680705214
 20
137.6887858311033
 30
0.0
 42
0.0811165779561011
  0
VERTEX
  5
1E7
  8
DEFAULT
 62
     5
 10
-44.76822134509467
 20
137.3560317754531
 30
0.0
 42
0.2517191883486156
  0
VERTEX
  5
1E8
  8
DEFAULT
 62
     5
 10
-45.12701840669686
 20
136.6828065551157
 30
0.0
 42
0.4298150945544344
  0
VERTEX
  5
1E9
  8
DEFAULT
 62
     5
 10
-44.11042845900139
 20
135.6970803339936
 30
0.0
 42
0.1670482644845484
  0
VERTEX
  5
1EA
  8
DEFAULT
 62
     5
 10
-43.16617663616053
 20
136.0365869777906
 30
0.0
 42
0.165161245499157
  0
VERTEX
  5
1EB
  8
DEFAULT
 62
     5
 10
-42.72925526627713
 20
136.669303262652
 30
0.0
 42
0.0593667948163675
  0
VERTEX
  5
1EC
  8
DEFAULT
 62
     5
 10
-42.65788260422772
 20
137.6000517930293
 30
0.0
  0
SEQEND
  5
1ED
  8
DEFAULT
 62
     5
  0
POLYLINE
  5
1EE
  8
DEFAULT
 62
     5
 66
     1
 10
0.0
 20
0.0
 30
0.0
 70
     1
  0
VERTEX
  5
1EF
  8
DEFAULT
 62
     5
 10
-45.06529001163512
 20
139.5242408278208
 30
0.0
  0
VERTEX
  5
1F0
  8
DEFAULT
 62
     5
 10
-46.79368507336352
 20
139.7711544080677
 30
0.0
 42
-0.171483317599036
  0
VERTEX
  5
1F1
  8
DEFAULT
 62
     5
 10
-45.80651254186353
 20
141.4021347437096
 30
0.0
 42
-0.1608829132837565
  0
VERTEX
  5
1F2
  8
DEFAULT
 62
     5
 10
-43.72559027527711
 20
141.9316482352282
 30
0.0
 42
-0.1088364278880845
  0
VERTEX
  5
1F3
  8
DEFAULT
 62
     5
 10
-41.85830656013855
 20
141.628311124816
 30
0.0
 42
-0.1580303644335085
  0
VERTEX
  5
1F4
  8
DEFAULT
 62
     5
 10
-40.99459128971949
 20
140.8576707074346
 30
0.0
 42
-0.1088017057953498
  0
VERTEX
  5
1F5
  8
DEFAULT
 62
     5
 10
-40.74430235731412
 20
139.1422971486822
 30
0.0
  0
VERTEX
  5
1F6
  8
DEFAULT
 62
     5
 10
-40.74430235731414
 20
136.9046425922158
 30
0.0
 42
0.0514080219695408
  0
VERTEX
  5
1F7
  8
DEFAULT
 62
     5
 10
-40.64013551403841
 20
135.4959810250766
 30
0.0
 42
0.0692287864232324
  0
VERTEX
  5
1F8
  8
DEFAULT
 62
     5
 10
-40.25047519682031
 20
134.5242408278208
 30
0.0
  0
VERTEX
  5
1F9
  8
DEFAULT
 62
     5
 10
-42.16405544373389
 20
134.5242408278208
 30
0.0
  0
VERTEX
  5
1FA
  8
DEFAULT
 62
     5
 10
-42.34731158713855
 20
135.0836544669374
 30
0.0
  0
VERTEX
  5
1FB
  8
DEFAULT
 62
     5
 10
-42.41482616562691
 20
135.3064559668427
 30
0.0
 42
-0.0933244186738174
  0
VERTEX
  5
1FC
  8
DEFAULT
 62
     5
 10
-43.45938721913993
 20
134.5811470893887
 30
0.0
 42
-0.1040133466925842
  0
VERTEX
  5
1FD
  8
DEFAULT
 62
     5
 10
-44.64669359675174
 20
134.3390556426355
 30
0.0
 42
-0.1965430357596636
  0
VERTEX
  5
1FE
  8
DEFAULT
 62
     5
 10
-46.39968394118176
 20
134.9442835530821
 30
0.0
 42
-0.2154369487651045
  0
VERTEX
  5
1FF
  8
DEFAULT
 62
     5
 10
-47.04059865361045
 20
136.4744728685642
 30
0.0
 42
-0.1373780248024448
  0
VERTEX
  5
200
  8
DEFAULT
 62
     5
 10
-46.75510470871056
 20
137.5662935618701
 30
0.0
 42
-0.1473783213971134
  0
VERTEX
  5
201
  8
DEFAULT
 62
     5
 10
-45.95504640417629
 20
138.3007649168242
 30
0.0
 42
-0.0634404934847205
  0
VERTEX
  5
202
  8
DEFAULT
 62
     5
 10
-44.47115362046915
 20
138.7458847142748
 30
0.0
 42
0.0472009877728865
  0
VERTEX
  5
203
  8
DEFAULT
 62
     5
 10
-42.65788260422772
 20
139.2155988525121
 30
0.0
  0
VERTEX
  5
204
  8
DEFAULT
 62
     5
 10
-42.65788260422774
 20
139.4094647257097
 30
0.0
 42
0.2070921599656415
  0
VERTEX
  5
205
  8
DEFAULT
 62
     5
 10
-42.91395866197463
 20
140.2109693406219
 30
0.0
 42
0.1777887432708238
  0
VERTEX
  5
206
  8
DEFAULT
 62
     5
 10
-43.88087625477916
 20
140.4501667537467
 30
0.0
 42
0.165109113803858
  0
VERTEX
  5
207
  8
DEFAULT
 62
     5
 10
-44.62981495212965
 20
140.2447271008235
 30
0.0
 42
0.1491587679877598
  0
SEQEND
  5
208
  8
DEFAULT
 62
     5
  0
POLYLINE
  5
209
  8
DEFAULT
 62
     5
 66
     1
 10
0.0
 20
0.0
 30
0.0
 70
     1
  0
VERTEX
  5
20A
  8
DEFAULT
 62
     5
 10
-49.94183322151166
 20
134.5242408278208
 30
0.0
  0
VERTEX
  5
20B
  8
DEFAULT
 62
     5
 10
-51.85541346842525
 20
134.5242408278208
 30
0.0
  0
VERTEX
  5
20C
  8
DEFAULT
 62
     5
 10
-51.85541346842525
 20
141.746463050043
 30
0.0
  0
VERTEX
  5
20D
  8
DEFAULT
 62
     5
 10
-50.06529001163512
 20
141.746463050043
 30
0.0
  0
VERTEX
  5
20E
  8
DEFAULT
 62
     5
 10
-50.06529001163513
 20
140.7269804815917
 30
0.0
 42
-0.0977550519460894
  0
VERTEX
  5
20F
  8
DEFAULT
 62
     5
 10
-49.28114630179012
 20
141.6905217803228
 30
0.0
 42
-0.1561720185079216
  0
VERTEX
  5
210
  8
DEFAULT
 62
     5
 10
-48.49121546660358
 20
141.9316482352282
 30
0.0
 42
-0.1438170981370075
  0
VERTEX
  5
211
  8
DEFAULT
 62
     5
 10
-47.28751223385735
 20
141.5680295110896
 30
0.0
  0
VERTEX
  5
212
  8
DEFAULT
 62
     5
 10
-47.8739315159863
 20
139.8926830983255
 30
0.0
 42
0.1496770151887503
  0
VERTEX
  5
213
  8
DEFAULT
 62
     5
 10
-48.72655479616737
 20
140.2032531734998
 30
0.0
 42
0.1810970994867519
  0
VERTEX
  5
214
  8
DEFAULT
 62
     5
 10
-49.37325616298012
 20
139.9818993968448
 30
0.0
 42
0.1501348396487922
  0
VERTEX
  5
215
  8
DEFAULT
 62
     5
 10
-49.78992306512551
 20
139.1818415632679
 30
0.0
 42
0.0509111359642199
  0
VERTEX
  5
216
  8
DEFAULT
 62
     5
 10
-49.94183322151166
 20
136.7580373007261
 30
0.0
  0
SEQEND
  5
217
  8
DEFAULT
 62
     5
  0
POLYLINE
  5
218
  8
DEFAULT
 62
     5
 66
     1
 10
0.0
 20
0.0
 30
0.0
 70
     1
  0
VERTEX
  5
219
  8
DEFAULT
 62
     5
 10
-53.33689494990673
 20
139.6476976179442
 30
0.0
  0
VERTEX
  5
21A
  8
DEFAULT
 62
     5
 10
-55.2504751968203
 20
139.3390556426356
 30
0.0
 42
0.1809968098175165
  0
VERTEX
  5
21B
  8
DEFAULT
 62
     5
 10
-55.67775088684365
 20
140.170942665591
 30
0.0
 42
0.1804760167670003
  0
VERTEX
  5
21C
  8
DEFAULT
 62
     5
 10
-56.5419488886653
 20
140.4501667537467
 30
0.0
 42
0.2329674834671614
  0
VERTEX
  5
21D
  8
DEFAULT
 62
     5
 10
-57.66945638395337
 20
139.9486238970883
 30
0.0
 42
0.169517955512044
  0
VERTEX
  5
21E
  8
DEFAULT
 62
     5
 10
-58.0899813696598
 20
138.2703834506959
 30
0.0
 42
0.1610966817175019
  0
VERTEX
  5
21F
  8
DEFAULT
 62
     5
 10
-57.65932891460564
 20
136.4219069510025
 30
0.0
 42
0.2405540491094221
  0
VERTEX
  5
220
  8
DEFAULT
 62
     5
 10
-56.50336805305489
 20
135.8822655191788
 30
0.0
 42
0.1883458441869363
  0
VERTEX
  5
221
  8
DEFAULT
 62
     5
 10
-55.61554023133679
 20
136.1880144027741
 30
0.0
 42
0.1622604489947723
  0
VERTEX
  5
222
  8
DEFAULT
 62
     5
 10
-55.12701840669686
 20
137.2402902105368
 30
0.0
  0
VERTEX
  5
223
  8
DEFAULT
 62
     5
 10
-53.21343815978328
 20
136.9933766302899
 30
0.0
 42
-0.1724509721436112
  0
VERTEX
  5
224
  8
DEFAULT
 62
     5
 10
-54.33130044616873
 20
135.0093877712597
 30
0.0
 42
-0.1746967243539199
  0
VERTEX
  5
225
  8
DEFAULT
 62
     5
 10
-56.54773507209193
 20
134.3390556426356
 30
0.0
 42
-0.2163976905724388
  0
VERTEX
  5
226
  8
DEFAULT
 62
     5
 10
-59.06509691907407
 20
135.344553600093
 30
0.0
 42
-0.1943870566321045
  0
VERTEX
  5
227
  8
DEFAULT
 62
     5
 10
-60.00356161657341
 20
138.1286007636575
 30
0.0
 42
-0.1945054615972531
  0
VERTEX
  5
228
  8
DEFAULT
 62
     5
 10
-59.06557917951923
 20
140.9295265718441
 30
0.0
 42
-0.2157801631580011
  0
VERTEX
  5
229
  8
DEFAULT
 62
     5
 10
-56.52844559620166
 20
141.9316482352282
 30
0.0
 42
-0.1599423076957884
  0
VERTEX
  5
22A
  8
DEFAULT
 62
     5
 10
-54.44704106917012
 20
141.3674124626178
 30
0.0
 42
-0.168263569712621
  0
SEQEND
  5
22B
  8
DEFAULT
 62
     5
  0
POLYLINE
  5
22C
  8
DEFAULT
 62
     5
 66
     1
 10
0.0
 20
0.0
 30
0.0
 70
     1
  0
VERTEX
  5
22D
  8
DEFAULT
 62
     5
 10
-63.46035174003018
 20
134.5242408278208
 30
0.0
  0
VERTEX
  5
22E
  8
DEFAULT
 62
     5
 10
-63.46035174003018
 20
136.4378210747343
 30
0.0
  0
VERTEX
  5
22F
  8
DEFAULT
 62
     5
 10
-61.5467714931166
 20
136.4378210747343
 30
0.0
  0
VERTEX
  5
230
  8
DEFAULT
 62
     5
 10
-61.5467714931166
 20
134.5242408278208
 30
0.0
  0
SEQEND
  5
231
  8
DEFAULT
 62
     5
  0
POLYLINE
  5
232
  8
DEFAULT
 62
     5
 66
     1
 10
0.0
 20
0.0
 30
0.0
 70
     1
  0
VERTEX
  5
233
  8
DEFAULT
 62
     5
 10
-72.75819089298493
 20
134.5242408278208
 30
0.0
  0
VERTEX
  5
234
  8
DEFAULT
 62
     5
 10
-75.06529001163511
 20
141.746463050043
 30
0.0
  0
VERTEX
  5
235
  8
DEFAULT
 62
     5
 10
-73.19125417930728
 20
141.746463050043
 30
0.0
  0
VERTEX
  5
236
  8
DEFAULT
 62
     5
 10
-71.8245487999369
 20
137.0136315689854
 30
0.0
  0
VERTEX
  5
237
  8
DEFAULT
 62
     5
 10
-70.54175579610427
 20
141.746463050043
 30
0.0
  0
VERTEX
  5
238
  8
DEFAULT
 62
     5
 10
-68.68701038158163
 20
141.746463050043
 30
0.0
  0
VERTEX
  5
239
  8
DEFAULT
 62
     5
 10
-67.50356114561592
 20
137.0136315689854
 30
0.0
  0
VERTEX
  5
23A
  8
DEFAULT
 62
     5
 10
-66.13299768268452
 20
141.746463050043
 30
0.0
  0
VERTEX
  5
23B
  8
DEFAULT
 62
     5
 10
-64.26282087583266
 20
141.746463050043
 30
0.0
  0
VERTEX
  5
23C
  8
DEFAULT
 62
     5
 10
-66.56509644811662
 20
134.5242408278208
 30
0.0
  0
VERTEX
  5
23D
  8
DEFAULT
 62
     5
 10
-68.37933292716325
 20
134.5242408278208
 30
0.0
  0
VERTEX
  5
23E
  8
DEFAULT
 62
     5
 10
-69.60232657771469
 20
139.1693027916945
 30
0.0
  0
VERTEX
  5
23F
  8
DEFAULT
 62
     5
 10
-70.86390106387654
 20
134.5242408278208
 30
0.0
  0
SEQEND
  5
240
  8
DEFAULT
 62
     5
  0
POLYLINE
  5
241
  8
DEFAULT
 62
     5
 66
     1
 10
0.0
 20
0.0
 30
0.0
 70
     1
  0
VERTEX
  5
242
  8
DEFAULT
 62
     5
 10
-83.49893163372566
 20
134.5242408278208
 30
0.0
  0
VERTEX
  5
243
  8
DEFAULT
 62
     5
 10
-85.80603075237586
 20
141.746463050043
 30
0.0
  0
VERTEX
  5
244
  8
DEFAULT
 62
     5
 10
-83.93199492004803
 20
141.746463050043
 30
0.0
  0
VERTEX
  5
245
  8
DEFAULT
 62
     5
 10
-82.56528954067765
 20
137.0136315689854
 30
0.0
  0
VERTEX
  5
246
  8
DEFAULT
 62
     5
 10
-81.282496536845
 20
141.746463050043
 30
0.0
  0
VERTEX
  5
247
  8
DEFAULT
 62
     5
 10
-79.42775112232238
 20
141.746463050043
 30
0.0
  0
VERTEX
  5
248
  8
DEFAULT
 62
     5
 10
-78.24430188635667
 20
137.0136315689854
 30
0.0
  0
VERTEX
  5
249
  8
DEFAULT
 62
     5
 10
-76.87373842342527
 20
141.746463050043
 30
0.0
  0
VERTEX
  5
24A
  8
DEFAULT
 62
     5
 10
-75.00356161657339
 20
141.746463050043
 30
0.0
  0
VERTEX
  5
24B
  8
DEFAULT
 62
     5
 10
-77.30583718885735
 20
134.5242408278208
 30
0.0
  0
VERTEX
  5
24C
  8
DEFAULT
 62
     5
 10
-79.120073667904
 20
134.5242408278208
 30
0.0
  0
VERTEX
  5
24D
  8
DEFAULT
 62
     5
 10
-80.34306731845544
 20
139.1693027916945
 30
0.0
  0
VERTEX
  5
24E
  8
DEFAULT
 62
     5
 10
-81.60464180461729
 20
134.5242408278208
 30
0.0
  0
SEQEND
  5
24F
  8
DEFAULT
 62
     5
  0
POLYLINE
  5
250
  8
DEFAULT
 62
     5
 66
     1
 10
0.0
 20
0.0
 30
0.0
 70
     1
  0
VERTEX
  5
251
  8
DEFAULT
 62
     5
 10
-94.23967237446641
 20
134.5242408278208
 30
0.0
  0
VERTEX
  5
252
  8
DEFAULT
 62
     5
 10
-96.5467714931166
 20
141.746463050043
 30
0.0
  0
VERTEX
  5
253
  8
DEFAULT
 62
     5
 10
-94.67273566078876
 20
141.746463050043
 30
0.0
  0
VERTEX
  5
254
  8
DEFAULT
 62
     5
 10
-93.3060302814184
 20
137.0136315689854
 30
0.0
  0
VERTEX
  5
255
  8
DEFAULT
 62
     5
 10
-92.02323727758574
 20
141.746463050043
 30
0.0
  0
VERTEX
  5
256
  8
DEFAULT
 62
     5
 10
-90.16849186306311
 20
141.746463050043
 30
0.0
  0
VERTEX
  5
257
  8
DEFAULT
 62
     5
 10
-88.98504262709741
 20
137.0136315689854
 30
0.0
  0
VERTEX
  5
258
  8
DEFAULT
 62
     5
 10
-87.614479164166
 20
141.746463050043
 30
0.0
  0
VERTEX
  5
259
  8
DEFAULT
 62
     5
 10
-85.74430235731413
 20
141.746463050043
 30
0.0
  0
VERTEX
  5
25A
  8
DEFAULT
 62
     5
 10
-88.0465779295981
 20
134.5242408278208
 30
0.0
  0
VERTEX
  5
25B
  8
DEFAULT
 62
     5
 10
-89.86081440864473
 20
134.5242408278208
 30
0.0
  0
VERTEX
  5
25C
  8
DEFAULT
 62
     5
 10
-91.08380805919617
 20
139.1693027916945
 30
0.0
  0
VERTEX
  5
25D
  8
DEFAULT
 62
     5
 10
-92.34538254535804
 20
134.5242408278208
 30
0.0
  0
SEQEND
  5
25E
  8
DEFAULT
 62
     5
  0
POLYLINE
  5
25F
  8
DEFAULT
 62
     5
 66
     1
 10
0.0
 20
0.0
 30
0.0
 70
     1
  0
VERTEX
  5
260
  8
DEFAULT
 62
     5
 10
62.04053180717436
 20
116.3457562122794
 30
0.0
  0
VERTEX
  5
261
  8
DEFAULT
 62
     5
 10
60.12695156026076
 20
116.3457562122794
 30
0.0
  0
VERTEX
  5
262
  8
DEFAULT
 62
     5
 10
60.12695156026076
 20
120.0330640027636
 30
0.0
 42
0.0659043403441899
  0
VERTEX
  5
263
  8
DEFAULT
 62
     5
 10
60.0063883328081
 20
121.5473387235564
 30
0.0
 42
0.1600130695765865
  0
VERTEX
  5
264
  8
DEFAULT
 62
     5
 10
59.61479897380947
 20
122.0811925590811
 30
0.0
 42
0.1575149176298411
  0
VERTEX
  5
265
  8
DEFAULT
 62
     5
 10
58.96279274210029
 20
122.2716821382053
 30
0.0
 42
0.1576987046344931
  0
VERTEX
  5
266
  8
DEFAULT
 62
     5
 10
58.0865391710653
 20
121.9996914857691
 30
0.0
 42
0.1684371822617482
  0
VERTEX
  5
267
  8
DEFAULT
 62
     5
 10
57.55461390636367
 20
121.2787234232787
 30
0.0
 42
0.0659809918576732
  0
VERTEX
  5
268
  8
DEFAULT
 62
     5
 10
57.41090217754471
 20
119.6183256714412
 30
0.0
  0
VERTEX
  5
269
  8
DEFAULT
 62
     5
 10
57.41090217754471
 20
116.3457562122794
 30
0.0
  0
VERTEX
  5
26A
  8
DEFAULT
 62
     5
 10
55.49732193063114
 20
116.3457562122794
 30
0.0
  0
VERTEX
  5
26B
  8
DEFAULT
 62
     5
 10
55.49732193063114
 20
123.5679784345016
 30
0.0
  0
VERTEX
  5
26C
  8
DEFAULT
 62
     5
 10
57.28744538742127
 20
123.5679784345016
 30
0.0
  0
VERTEX
  5
26D
  8
DEFAULT
 62
     5
 10
57.28744538742126
 20
122.5147385768061
 30
0.0
 42
-0.2486296121988542
  0
VERTEX
  5
26E
  8
DEFAULT
 62
     5
 10
59.64084056688903
 20
123.7531636196868
 30
0.0
 42
-0.1053164015607952
  0
VERTEX
  5
26F
  8
DEFAULT
 62
     5
 10
60.78329813597612
 20
123.5245759363548
 30
0.0
 42
-0.1292191717088709
  0
VERTEX
  5
270
  8
DEFAULT
 62
     5
 10
61.56647732493087
 20
122.9415320063843
 30
0.0
 42
-0.1054932374262158
  0
VERTEX
  5
271
  8
DEFAULT
 62
     5
 10
61.93636543485611
 20
122.1366515683562
 30
0.0
 42
-0.0533641385177133
  0
VERTEX
  5
272
  8
DEFAULT
 62
     5
 10
62.04053180717436
 20
120.8471073892492
 30
0.0
  0
SEQEND
  5
273
  8
DEFAULT
 62
     5
  0
POLYLINE
  5
274
  8
DEFAULT
 62
     5
 66
     1
 10
0.0
 20
0.0
 30
0.0
 70
     1
  0
VERTEX
  5
275
  8
DEFAULT
 62
     5
 10
51.60843304174226
 20
119.8025463357361
 30
0.0
  0
VERTEX
  5
276
  8
DEFAULT
 62
     5
 10
50.49442883891783
 20
119.5103012155619
 30
0.0
 42
0.081116577956099
  0
VERTEX
  5
277
  8
DEFAULT
 62
     5
 10
49.49809430087529
 20
119.1775471599117
 30
0.0
 42
0.2517191883486414
  0
VERTEX
  5
278
  8
DEFAULT
 62
     5
 10
49.13929723927312
 20
118.5043219395743
 30
0.0
 42
0.4298150945545085
  0
VERTEX
  5
279
  8
DEFAULT
 62
     5
 10
50.15588718696858
 20
117.5185957184522
 30
0.0
 42
0.1670482644845643
  0
VERTEX
  5
27A
  8
DEFAULT
 62
     5
 10
51.10013900980945
 20
117.8581023622492
 30
0.0
 42
0.1651612454991555
  0
VERTEX
  5
27B
  8
DEFAULT
 62
     5
 10
51.53706037969284
 20
118.4908186471106
 30
0.0
 42
0.0593667948163881
  0
VERTEX
  5
27C
  8
DEFAULT
 62
     5
 10
51.60843304174226
 20
119.4215671774878
 30
0.0
  0
SEQEND
  5
27D
  8
DEFAULT
 62
     5
  0
POLYLINE
  5
27E
  8
DEFAULT
 62
     5
 66
     1
 10
0.0
 20
0.0
 30
0.0
 70
     1
  0
VERTEX
  5
27F
  8
DEFAULT
 62
     5
 10
49.20102563433485
 20
121.3457562122794
 30
0.0
  0
VERTEX
  5
280
  8
DEFAULT
 62
     5
 10
47.47263057260645
 20
121.5926697925263
 30
0.0
 42
-0.1714833175990244
  0
VERTEX
  5
281
  8
DEFAULT
 62
     5
 10
48.45980310410644
 20
123.2236501281682
 30
0.0
 42
-0.1608829132837382
  0
VERTEX
  5
282
  8
DEFAULT
 62
     5
 10
50.54072537069285
 20
123.7531636196868
 30
0.0
 42
-0.1088364278880932
  0
VERTEX
  5
283
  8
DEFAULT
 62
     5
 10
52.40800908583141
 20
123.4498265092745
 30
0.0
 42
-0.1580303644335333
  0
VERTEX
  5
284
  8
DEFAULT
 62
     5
 10
53.27172435625049
 20
122.6791860918932
 30
0.0
 42
-0.1088017057953509
  0
VERTEX
  5
285
  8
DEFAULT
 62
     5
 10
53.52201328865584
 20
120.9638125331408
 30
0.0
  0
VERTEX
  5
286
  8
DEFAULT
 62
     5
 10
53.52201328865583
 20
118.7261579766744
 30
0.0
 42
0.0514080219695218
  0
VERTEX
  5
287
  8
DEFAULT
 62
     5
 10
53.62618013193155
 20
117.3174964095352
 30
0.0
 42
0.0692287864232392
  0
VERTEX
  5
288
  8
DEFAULT
 62
     5
 10
54.01584044914966
 20
116.3457562122794
 30
0.0
  0
VERTEX
  5
289
  8
DEFAULT
 62
     5
 10
52.10226020223608
 20
116.3457562122794
 30
0.0
  0
VERTEX
  5
28A
  8
DEFAULT
 62
     5
 10
51.91900405883142
 20
116.905169851396
 30
0.0
  0
VERTEX
  5
28B
  8
DEFAULT
 62
     5
 10
51.85148948034307
 20
117.1279713513013
 30
0.0
 42
-0.0933244186738099
  0
VERTEX
  5
28C
  8
DEFAULT
 62
     5
 10
50.80692842683005
 20
116.4026624738472
 30
0.0
 42
-0.1040133466925787
  0
VERTEX
  5
28D
  8
DEFAULT
 62
     5
 10
49.61962204921824
 20
116.1605710270942
 30
0.0
 42
-0.196543035759664
  0
VERTEX
  5
28E
  8
DEFAULT
 62
     5
 10
47.8666317047882
 20
116.7657989375407
 30
0.0
 42
-0.215436948765113
  0
VERTEX
  5
28F
  8
DEFAULT
 62
     5
 10
47.22571699235953
 20
118.2959882530228
 30
0.0
 42
-0.1373780248024312
  0
VERTEX
  5
290
  8
DEFAULT
 62
     5
 10
47.5112109372594
 20
119.3878089463287
 30
0.0
 42
-0.1473783213971031
  0
VERTEX
  5
291
  8
DEFAULT
 62
     5
 10
48.31126924179368
 20
120.1222803012828
 30
0.0
 42
-0.0634404934847005
  0
VERTEX
  5
292
  8
DEFAULT
 62
     5
 10
49.79516202550082
 20
120.5674000987334
 30
0.0
 42
0.0472009877729046
  0
VERTEX
  5
293
  8
DEFAULT
 62
     5
 10
51.60843304174226
 20
121.0371142369707
 30
0.0
  0
VERTEX
  5
294
  8
DEFAULT
 62
     5
 10
51.60843304174226
 20
121.2309801101682
 30
0.0
 42
0.2070921599656346
  0
VERTEX
  5
295
  8
DEFAULT
 62
     5
 10
51.35235698399533
 20
122.0324847250804
 30
0.0
 42
0.1777887432708025
  0
VERTEX
  5
296
  8
DEFAULT
 62
     5
 10
50.38543939119081
 20
122.2716821382053
 30
0.0
 42
0.16510911380388
  0
VERTEX
  5
297
  8
DEFAULT
 62
     5
 10
49.63650069384033
 20
122.0662424852821
 30
0.0
 42
0.1491587679877679
  0
SEQEND
  5
298
  8
DEFAULT
 62
     5
  0
POLYLINE
  5
299
  8
DEFAULT
 62
     5
 66
     1
 10
0.0
 20
0.0
 30
0.0
 70
     1
  0
VERTEX
  5
29A
  8
DEFAULT
 62
     5
 10
43.95411205408794
 20
116.3457562122794
 30
0.0
  0
VERTEX
  5
29B
  8
DEFAULT
 62
     5
 10
43.95411205408794
 20
126.2840278172176
 30
0.0
  0
VERTEX
  5
29C
  8
DEFAULT
 62
     5
 10
45.86769230100151
 20
126.2840278172176
 30
0.0
  0
VERTEX
  5
29D
  8
DEFAULT
 62
     5
 10
45.86769230100151
 20
116.3457562122794
 30
0.0
  0
SEQEND
  5
29E
  8
DEFAULT
 62
     5
  0
POLYLINE
  5
29F
  8
DEFAULT
 62
     5
 66
     1
 10
0.0
 20
0.0
 30
0.0
 70
     1
  0
VERTEX
  5
2A0
  8
DEFAULT
 62
     5
 10
37.41090217754473
 20
120.0783955426909
 30
0.0
 42
0.1662127852120599
  0
VERTEX
  5
2A1
  8
DEFAULT
 62
     5
 10
37.88447487030056
 20
118.2371529496744
 30
0.0
 42
0.2404461653497808
  0
VERTEX
  5
2A2
  8
DEFAULT
 62
     5
 10
39.03802442962565
 20
117.6420525085757
 30
0.0
 42
0.2413239634427063
  0
VERTEX
  5
2A3
  8
DEFAULT
 62
     5
 10
40.12550524988283
 20
118.1884455866312
 30
0.0
 42
0.162744937492173
  0
VERTEX
  5
2A4
  8
DEFAULT
 62
     5
 10
40.55905032569287
 20
119.9809808166044
 30
0.0
 42
0.1661976731382169
  0
VERTEX
  5
2A5
  8
DEFAULT
 62
     5
 10
40.11200195741922
 20
121.70792862604
 30
0.0
 42
0.2412377667960406
  0
VERTEX
  5
2A6
  8
DEFAULT
 62
     5
 10
39.00523166127174
 20
122.2716821382053
 30
0.0
 42
0.236742212932177
  0
VERTEX
  5
2A7
  8
DEFAULT
 62
     5
 10
37.86422040256256
 20
121.7180556244302
 30
0.0
 42
0.1723447809988942
  0
SEQEND
  5
2A8
  8
DEFAULT
 62
     5
  0
POLYLINE
  5
2A9
  8
DEFAULT
 62
     5
 66
     1
 10
0.0
 20
0.0
 30
0.0
 70
     1
  0
VERTEX
  5
2AA
  8
DEFAULT
 62
     5
 10
35.49732193063114
 20
123.5679784345016
 30
0.0
  0
VERTEX
  5
2AB
  8
DEFAULT
 62
     5
 10
37.28744538742127
 20
123.5679784345016
 30
0.0
  0
VERTEX
  5
2AC
  8
DEFAULT
 62
     5
 10
37.28744538742127
 20
122.5147385768061
 30
0.0
 42
-0.1189653659007466
  0
VERTEX
  5
2AD
  8
DEFAULT
 62
     5
 10
38.21192500296927
 20
123.4040127089021
 30
0.0
 42
-0.138210559891019
  0
VERTEX
  5
2AE
  8
DEFAULT
 62
     5
 10
39.50484594710713
 20
123.7531636196868
 30
0.0
 42
-0.227364875885036
  0
VERTEX
  5
2AF
  8
DEFAULT
 62
     5
 10
41.60843304174225
 20
122.7611694256504
 30
0.0
 42
-0.1838682188936064
  0
VERTEX
  5
2B0
  8
DEFAULT
 62
     5
 10
42.47263057260646
 20
119.9983412507142
 30
0.0
 42
-0.1823656645300161
  0
VERTEX
  5
2B1
  8
DEFAULT
 62
     5
 10
41.60119960602277
 20
117.1694448076675
 30
0.0
 42
-0.2285594541574951
  0
VERTEX
  5
2B2
  8
DEFAULT
 62
     5
 10
39.48941361286296
 20
116.1605710270942
 30
0.0
 42
-0.1163198006807762
  0
VERTEX
  5
2B3
  8
DEFAULT
 62
     5
 10
38.41977595811811
 20
116.3968753485057
 30
0.0
 42
-0.090415238077767
  0
VERTEX
  5
2B4
  8
DEFAULT
 62
     5
 10
37.41090217754473
 20
117.2070611223877
 30
0.0
  0
VERTEX
  5
2B5
  8
DEFAULT
 62
     5
 10
37.41090217754473
 20
113.5679784345016
 30
0.0
  0
VERTEX
  5
2B6
  8
DEFAULT
 62
     5
 10
35.49732193063114
 20
113.5679784345016
 30
0.0
  0
SEQEND
  5
2B7
  8
DEFAULT
 62
     5
  0
POLYLINE
  5
2B8
  8
DEFAULT
 62
     5
 66
     1
 10
0.0
 20
0.0
 30
0.0
 70
     1
  0
VERTEX
  5
2B9
  8
DEFAULT
 62
     5
 10
28.27509970840893
 20
120.6050154715386
 30
0.0
 42
0.1931771868552444
  0
VERTEX
  5
2BA
  8
DEFAULT
 62
     5
 10
27.83576750725735
 20
121.8468172794501
 30
0.0
 42
0.2094545272841009
  0
VERTEX
  5
2BB
  8
DEFAULT
 62
     5
 10
26.81773124918395
 20
122.2716821382053
 30
0.0
 42
0.2175151257022377
  0
VERTEX
  5
2BC
  8
DEFAULT
 62
     5
 10
25.75773880334171
 20
121.8231874595537
 30
0.0
 42
0.1974850402976682
  0
VERTEX
  5
2BD
  8
DEFAULT
 62
     5
 10
25.34589497660507
 20
120.6050154715386
 30
0.0
  0
SEQEND
  5
2BE
  8
DEFAULT
 62
     5
  0
POLYLINE
  5
2BF
  8
DEFAULT
 62
     5
 66
     1
 10
0.0
 20
0.0
 30
0.0
 70
     1
  0
VERTEX
  5
2C0
  8
DEFAULT
 62
     5
 10
28.15164291828548
 20
118.6297068295633
 30
0.0
  0
VERTEX
  5
2C1
  8
DEFAULT
 62
     5
 10
30.06522316519905
 20
118.3827932493164
 30
0.0
 42
-0.1601948643917466
  0
VERTEX
  5
2C2
  8
DEFAULT
 62
     5
 10
28.90202886792881
 20
116.7286653542231
 30
0.0
 42
-0.1590209405814384
  0
VERTEX
  5
2C3
  8
DEFAULT
 62
     5
 10
26.91225335451453
 20
116.1605710270942
 30
0.0
 42
-0.2510606897924135
  0
VERTEX
  5
2C4
  8
DEFAULT
 62
     5
 10
24.11518515893154
 20
117.3989970118898
 30
0.0
 42
-0.1603231689598262
  0
VERTEX
  5
2C5
  8
DEFAULT
 62
     5
 10
23.39855649853239
 20
119.901891045518
 30
0.0
 42
-0.1928988919450581
  0
VERTEX
  5
2C6
  8
DEFAULT
 62
     5
 10
24.34329058181839
 20
122.7307874885647
 30
0.0
 42
-0.2186957110499465
  0
VERTEX
  5
2C7
  8
DEFAULT
 62
     5
 10
26.73188983186571
 20
123.7531636196868
 30
0.0
 42
-0.2248762650829763
  0
VERTEX
  5
2C8
  8
DEFAULT
 62
     5
 10
29.29168965610439
 20
122.6897958216861
 30
0.0
 42
-0.1866850592647414
  0
VERTEX
  5
2C9
  8
DEFAULT
 62
     5
 10
30.1886799553225
 20
119.4321759653658
 30
0.0
  0
VERTEX
  5
2CA
  8
DEFAULT
 62
     5
 10
25.31213674544598
 20
119.4321759653658
 30
0.0
 42
0.1907233177561229
  0
VERTEX
  5
2CB
  8
DEFAULT
 62
     5
 10
25.78426312782387
 20
118.1132138991058
 30
0.0
 42
0.2135192120775365
  0
VERTEX
  5
2CC
  8
DEFAULT
 62
     5
 10
26.90935979184376
 20
117.6420525085756
 30
0.0
 42
0.1657236937101113
  0
VERTEX
  5
2CD
  8
DEFAULT
 62
     5
 10
27.6795174778225
 20
117.8759455277615
 30
0.0
 42
0.1589948514629149
  0
SEQEND
  5
2CE
  8
DEFAULT
 62
     5
  0
POLYLINE
  5
2CF
  8
DEFAULT
 62
     5
 66
     1
 10
0.0
 20
0.0
 30
0.0
 70
     1
  0
VERTEX
  5
2D0
  8
DEFAULT
 62
     5
 10
20.12695156026078
 20
116.3457562122794
 30
0.0
  0
VERTEX
  5
2D1
  8
DEFAULT
 62
     5
 10
20.12695156026078
 20
126.2840278172176
 30
0.0
  0
VERTEX
  5
2D2
  8
DEFAULT
 62
     5
 10
22.04053180717436
 20
126.2840278172176
 30
0.0
  0
VERTEX
  5
2D3
  8
DEFAULT
 62
     5
 10
22.04053180717436
 20
116.3457562122794
 30
0.0
  0
SEQEND
  5
2D4
  8
DEFAULT
 62
     5
  0
POLYLINE
  5
2D5
  8
DEFAULT
 62
     5
 66
     1
 10
0.0
 20
0.0
 30
0.0
 70
     1
  0
VERTEX
  5
2D6
  8
DEFAULT
 62
     5
 10
12.41090217754473
 20
116.3457562122794
 30
0.0
  0
VERTEX
  5
2D7
  8
DEFAULT
 62
     5
 10
12.41090217754473
 20
117.8272376937608
 30
0.0
  0
VERTEX
  5
2D8
  8
DEFAULT
 62
     5
 10
15.08065549944321
 20
120.9869600925921
 30
0.0
  0
VERTEX
  5
2D9
  8
DEFAULT
 62
     5
 10
16.0528774861867
 20
122.0864969530201
 30
0.0
  0
VERTEX
  5
2DA
  8
DEFAULT
 62
     5
 10
15.18385829278614
 20
122.0450234966538
 30
0.0
  0
VERTEX
  5
2DB
  8
DEFAULT
 62
     5
 10
12.65781575779164
 20
122.0247685579584
 30
0.0
  0
VERTEX
  5
2DC
  8
DEFAULT
 62
     5
 10
12.65781575779164
 20
123.5679784345016
 30
0.0
  0
VERTEX
  5
2DD
  8
DEFAULT
 62
     5
 10
18.58374168371756
 20
123.5679784345016
 30
0.0
  0
VERTEX
  5
2DE
  8
DEFAULT
 62
     5
 10
18.58374168371756
 20
122.2099537431436
 30
0.0
  0
VERTEX
  5
2DF
  8
DEFAULT
 62
     5
 10
15.7992132016229
 20
119.0106869297265
 30
0.0
  0
VERTEX
  5
2E0
  8
DEFAULT
 62
     5
 10
14.81830958495213
 20
117.9506944838843
 30
0.0
  0
VERTEX
  5
2E1
  8
DEFAULT
 62
     5
 10
15.82139624018396
 20
118.012422878946
 30
0.0
  0
VERTEX
  5
2E2
  8
DEFAULT
 62
     5
 10
18.83065526396449
 20
118.012422878946
 30
0.0
  0
VERTEX
  5
2E3
  8
DEFAULT
 62
     5
 10
18.83065526396449
 20
116.3457562122794
 30
0.0
  0
SEQEND
  5
2E4
  8
DEFAULT
 62
     5
  0
POLYLINE
  5
2E5
  8
DEFAULT
 62
     5
 66
     1
 10
0.0
 20
0.0
 30
0.0
 70
     1
  0
VERTEX
  5
2E6
  8
DEFAULT
 62
     5
 10
5.497321930631145
 20
116.3457562122794
 30
0.0
  0
VERTEX
  5
2E7
  8
DEFAULT
 62
     5
 10
5.497321930631145
 20
117.8272376937608
 30
0.0
  0
VERTEX
  5
2E8
  8
DEFAULT
 62
     5
 10
8.167075252529628
 20
120.9869600925921
 30
0.0
  0
VERTEX
  5
2E9
  8
DEFAULT
 62
     5
 10
9.13929723927312
 20
122.0864969530201
 30
0.0
  0
VERTEX
  5
2EA
  8
DEFAULT
 62
     5
 10
8.270278045872558
 20
122.0450234966538
 30
0.0
  0
VERTEX
  5
2EB
  8
DEFAULT
 62
     5
 10
5.744235510878056
 20
122.0247685579584
 30
0.0
  0
VERTEX
  5
2EC
  8
DEFAULT
 62
     5
 10
5.744235510878056
 20
123.5679784345016
 30
0.0
  0
VERTEX
  5
2ED
  8
DEFAULT
 62
     5
 10
11.67016143680399
 20
123.5679784345016
 30
0.0
  0
VERTEX
  5
2EE
  8
DEFAULT
 62
     5
 10
11.67016143680399
 20
122.2099537431436
 30
0.0
  0
VERTEX
  5
2EF
  8
DEFAULT
 62
     5
 10
8.885632954709322
 20
119.0106869297265
 30
0.0
  0
VERTEX
  5
2F0
  8
DEFAULT
 62
     5
 10
7.90472933803855
 20
117.9506944838843
 30
0.0
  0
VERTEX
  5
2F1
  8
DEFAULT
 62
     5
 10
8.907815993270376
 20
118.012422878946
 30
0.0
  0
VERTEX
  5
2F2
  8
DEFAULT
 62
     5
 10
11.91707501705091
 20
118.012422878946
 30
0.0
  0
VERTEX
  5
2F3
  8
DEFAULT
 62
     5
 10
11.91707501705091
 20
116.3457562122794
 30
0.0
  0
SEQEND
  5
2F4
  8
DEFAULT
 62
     5
  0
POLYLINE
  5
2F5
  8
DEFAULT
 62
     5
 66
     1
 10
0.0
 20
0.0
 30
0.0
 70
     1
  0
VERTEX
  5
2F6
  8
DEFAULT
 62
     5
 10
2.596087362729918
 20
116.3457562122794
 30
0.0
  0
VERTEX
  5
2F7
  8
DEFAULT
 62
     5
 10
2.596087362729917
 20
117.4192519505852
 30
0.0
 42
-0.1223972716446024
  0
VERTEX
  5
2F8
  8
DEFAULT
 62
     5
 10
1.567924106266263
 20
116.5029707626045
 30
0.0
 42
-0.1257588650398492
  0
VERTEX
  5
2F9
  8
DEFAULT
 62
     5
 10
0.2224381864816107
 20
116.1605710270942
 30
0.0
 42
-0.1301059334599673
  0
VERTEX
  5
2FA
  8
DEFAULT
 62
     5
 10
-1.071446807589026
 20
116.4812695135311
 30
0.0
 42
-0.1670007383232241
  0
VERTEX
  5
2FB
  8
DEFAULT
 62
     5
 10
-1.90092252831879
 20
117.3816361068226
 30
0.0
 42
-0.1009427833083507
  0
VERTEX
  5
2FC
  8
DEFAULT
 62
     5
 10
-2.156999057023173
 20
118.9846458076044
 30
0.0
  0
VERTEX
  5
2FD
  8
DEFAULT
 62
     5
 10
-2.156999057023171
 20
123.5679784345016
 30
0.0
  0
VERTEX
  5
2FE
  8
DEFAULT
 62
     5
 10
-0.2434188101095884
 20
123.5679784345016
 30
0.0
  0
VERTEX
  5
2FF
  8
DEFAULT
 62
     5
 10
-0.2434188101095801
 20
120.2520064771929
 30
0.0
 42
0.0503730066259698
  0
VERTEX
  5
300
  8
DEFAULT
 62
     5
 10
-0.1392519668338782
 20
118.3861695433898
 30
0.0
 42
0.1675734251047471
  0
VERTEX
  5
301
  8
DEFAULT
 62
     5
 10
0.2407636124390936
 20
117.842670028005
 30
0.0
 42
0.1610647544742253
  0
VERTEX
  5
302
  8
DEFAULT
 62
     5
 10
0.9400304258561079
 20
117.6420525085756
 30
0.0
 42
0.1578518894734201
  0
VERTEX
  5
303
  8
DEFAULT
 62
     5
 10
1.807121519391087
 20
117.9106678088534
 30
0.0
 42
0.1591085904631089
  0
VERTEX
  5
304
  8
DEFAULT
 62
     5
 10
2.33133061697064
 20
118.5766595934714
 30
0.0
 42
0.0627948021468265
  0
VERTEX
  5
305
  8
DEFAULT
 62
     5
 10
2.472630572606459
 20
120.5230330796963
 30
0.0
  0
VERTEX
  5
306
  8
DEFAULT
 62
     5
 10
2.472630572606462
 20
123.5679784345016
 30
0.0
  0
VERTEX
  5
307
  8
DEFAULT
 62
     5
 10
4.386210819520031
 20
123.5679784345016
 30
0.0
  0
VERTEX
  5
308
  8
DEFAULT
 62
     5
 10
4.386210819520031
 20
116.3457562122794
 30
0.0
  0
SEQEND
  5
309
  8
DEFAULT
 62
     5
  0
POLYLINE
  5
30A
  8
DEFAULT
 62
     5
 66
     1
 10
0.0
 20
0.0
 30
0.0
 70
     1
  0
VERTEX
  5
30B
  8
DEFAULT
 62
     5
 10
-8.700208933566387
 20
120.0783955426909
 30
0.0
 42
0.1662127852120624
  0
VERTEX
  5
30C
  8
DEFAULT
 62
     5
 10
-8.226636240810548
 20
118.2371529496744
 30
0.0
 42
0.2404461653497799
  0
VERTEX
  5
30D
  8
DEFAULT
 62
     5
 10
-7.073086681485449
 20
117.6420525085756
 30
0.0
 42
0.2413239634426906
  0
VERTEX
  5
30E
  8
DEFAULT
 62
     5
 10
-5.985605861228263
 20
118.1884455866312
 30
0.0
 42
0.1627449374921685
  0
VERTEX
  5
30F
  8
DEFAULT
 62
     5
 10
-5.552060785418222
 20
119.9809808166044
 30
0.0
 42
0.1661976731382141
  0
VERTEX
  5
310
  8
DEFAULT
 62
     5
 10
-5.999109153691904
 20
121.70792862604
 30
0.0
 42
0.2412377667960455
  0
VERTEX
  5
311
  8
DEFAULT
 62
     5
 10
-7.105879449839378
 20
122.2716821382053
 30
0.0
 42
0.2367422129321672
  0
VERTEX
  5
312
  8
DEFAULT
 62
     5
 10
-8.246890708548563
 20
121.7180556244302
 30
0.0
 42
0.1723447809988961
  0
SEQEND
  5
313
  8
DEFAULT
 62
     5
  0
POLYLINE
  5
314
  8
DEFAULT
 62
     5
 66
     1
 10
0.0
 20
0.0
 30
0.0
 70
     1
  0
VERTEX
  5
315
  8
DEFAULT
 62
     5
 10
-10.61378918047996
 20
123.5679784345016
 30
0.0
  0
VERTEX
  5
316
  8
DEFAULT
 62
     5
 10
-8.823665723689842
 20
123.5679784345016
 30
0.0
  0
VERTEX
  5
317
  8
DEFAULT
 62
     5
 10
-8.823665723689837
 20
122.5147385768061
 30
0.0
 42
-0.1189653659007503
  0
VERTEX
  5
318
  8
DEFAULT
 62
     5
 10
-7.899186108141834
 20
123.4040127089021
 30
0.0
 42
-0.1382105598910269
  0
VERTEX
  5
319
  8
DEFAULT
 62
     5
 10
-6.606265164003986
 20
123.7531636196868
 30
0.0
 42
-0.2273648758850402
  0
VERTEX
  5
31A
  8
DEFAULT
 62
     5
 10
-4.502678069368863
 20
122.7611694256504
 30
0.0
 42
-0.1838682188936128
  0
VERTEX
  5
31B
  8
DEFAULT
 62
     5
 10
-3.638480538504639
 20
119.9983412507142
 30
0.0
 42
-0.1823656645300155
  0
VERTEX
  5
31C
  8
DEFAULT
 62
     5
 10
-4.509911505088347
 20
117.1694448076676
 30
0.0
 42
-0.2285594541575007
  0
VERTEX
  5
31D
  8
DEFAULT
 62
     5
 10
-6.621697498248153
 20
116.1605710270942
 30
0.0
 42
-0.1163198006807697
  0
VERTEX
  5
31E
  8
DEFAULT
 62
     5
 10
-7.691335152993005
 20
116.3968753485057
 30
0.0
 42
-0.0904152380777589
  0
VERTEX
  5
31F
  8
DEFAULT
 62
     5
 10
-8.700208933566387
 20
117.2070611223877
 30
0.0
  0
VERTEX
  5
320
  8
DEFAULT
 62
     5
 10
-8.700208933566387
 20
113.5679784345016
 30
0.0
  0
VERTEX
  5
321
  8
DEFAULT
 62
     5
 10
-10.61378918047996
 20
113.5679784345016
 30
0.0
  0
SEQEND
  5
322
  8
DEFAULT
 62
     5
  0
POLYLINE
  5
323
  8
DEFAULT
 62
     5
 66
     1
 10
0.0
 20
0.0
 30
0.0
 70
     1
  0
VERTEX
  5
324
  8
DEFAULT
 62
     5
 10
-26.91008547677626
 20
123.5679784345016
 30
0.0
  0
VERTEX
  5
325
  8
DEFAULT
 62
     5
 10
-25.18169041504786
 20
123.5679784345016
 30
0.0
  0
VERTEX
  5
326
  8
DEFAULT
 62
     5
 10
-25.18169041504786
 20
122.5890048015263
 30
0.0
 42
-0.2373869490350145
  0
VERTEX
  5
327
  8
DEFAULT
 62
     5
 10
-22.93535517056913
 20
123.7531636196868
 30
0.0
 42
-0.1315120310734568
  0
VERTEX
  5
328
  8
DEFAULT
 62
     5
 10
-21.73502728998134
 20
123.4638120621833
 30
0.0
 42
-0.139385327224498
  0
VERTEX
  5
329
  8
DEFAULT
 62
     5
 10
-20.90024717531262
 20
122.5890048015263
 30
0.0
 42
-0.1018343532165774
  0
VERTEX
  5
32A
  8
DEFAULT
 62
     5
 10
-19.87883509412332
 20
123.4638120621833
 30
0.0
 42
-0.123929667957114
  0
VERTEX
  5
32B
  8
DEFAULT
 62
     5
 10
-18.70888867966379
 20
123.7531636196868
 30
0.0
 42
-0.1355305589141989
  0
VERTEX
  5
32C
  8
DEFAULT
 62
     5
 10
-17.36918988522072
 20
123.4290897810914
 30
0.0
 42
-0.1623661969580612
  0
VERTEX
  5
32D
  8
DEFAULT
 62
     5
 10
-16.55032389428382
 20
122.4780867829762
 30
0.0
 42
-0.0915442810314506
  0
VERTEX
  5
32E
  8
DEFAULT
 62
     5
 10
-16.3545299212207
 20
120.9773148836895
 30
0.0
  0
VERTEX
  5
32F
  8
DEFAULT
 62
     5
 10
-16.3545299212207
 20
116.3457562122794
 30
0.0
  0
VERTEX
  5
330
  8
DEFAULT
 62
     5
 10
-18.26811016813429
 20
116.3457562122794
 30
0.0
  0
VERTEX
  5
331
  8
DEFAULT
 62
     5
 10
-18.26811016813429
 20
120.4757724979885
 30
0.0
 42
0.1141470137910663
  0
VERTEX
  5
332
  8
DEFAULT
 62
     5
 10
-18.46293962030714
 20
121.8636963950297
 30
0.0
 42
0.2721000606533885
  0
VERTEX
  5
333
  8
DEFAULT
 62
     5
 10
-19.2702313605609
 20
122.2716821382053
 30
0.0
 42
0.1575639071466617
  0
VERTEX
  5
334
  8
DEFAULT
 62
     5
 10
-20.01627743715555
 20
122.0266975997389
 30
0.0
 42
0.1657627374474071
  0
VERTEX
  5
335
  8
DEFAULT
 62
     5
 10
-20.52071432744225
 20
121.3091053603644
 30
0.0
 42
0.0723437487255001
  0
VERTEX
  5
336
  8
DEFAULT
 62
     5
 10
-20.67551757554169
 20
119.8160496281998
 30
0.0
  0
VERTEX
  5
337
  8
DEFAULT
 62
     5
 10
-20.67551757554169
 20
116.3457562122794
 30
0.0
  0
VERTEX
  5
338
  8
DEFAULT
 62
     5
 10
-22.58909782245527
 20
116.3457562122794
 30
0.0
  0
VERTEX
  5
339
  8
DEFAULT
 62
     5
 10
-22.58909782245527
 20
120.3050541842423
 30
0.0
 42
0.0609892367975002
  0
VERTEX
  5
33A
  8
DEFAULT
 62
     5
 10
-22.68892385076735
 20
121.6664546987163
 30
0.0
 42
0.1633931196985311
  0
VERTEX
  5
33B
  8
DEFAULT
 62
     5
 10
-22.99901213645391
 20
122.1221837550023
 30
0.0
 42
0.1561218014297017
  0
VERTEX
  5
33C
  8
DEFAULT
 62
     5
 10
-23.56903597632084
 20
122.2716821382053
 30
0.0
 42
0.1551837175468003
  0
VERTEX
  5
33D
  8
DEFAULT
 62
     5
 10
-24.34980339209245
 20
122.0334492459707
 30
0.0
 42
0.167002584793539
  0
VERTEX
  5
33E
  8
DEFAULT
 62
     5
 10
-24.84652411525705
 20
121.346238943682
 30
0.0
 42
0.0722698594962509
  0
VERTEX
  5
33F
  8
DEFAULT
 62
     5
 10
-24.99650522986267
 20
119.8565595055907
 30
0.0
  0
VERTEX
  5
340
  8
DEFAULT
 62
     5
 10
-24.99650522986268
 20
116.3457562122794
 30
0.0
  0
VERTEX
  5
341
  8
DEFAULT
 62
     5
 10
-26.91008547677626
 20
116.3457562122794
 30
0.0
  0
SEQEND
  5
342
  8
DEFAULT
 62
     5
  0
POLYLINE
  5
343
  8
DEFAULT
 62
     5
 66
     1
 10
0.0
 20
0.0
 30
0.0
 70
     1
  0
VERTEX
  5
344
  8
DEFAULT
 62
     5
 10
-30.61378918047996
 20
119.8025463357361
 30
0.0
  0
VERTEX
  5
345
  8
DEFAULT
 62
     5
 10
-31.72779338330439
 20
119.5103012155619
 30
0.0
 42
0.0811165779561006
  0
VERTEX
  5
346
  8
DEFAULT
 62
     5
 10
-32.72412792134692
 20
119.1775471599117
 30
0.0
 42
0.2517191883486414
  0
VERTEX
  5
347
  8
DEFAULT
 62
     5
 10
-33.08292498294909
 20
118.5043219395743
 30
0.0
 42
0.4298150945545085
  0
VERTEX
  5
348
  8
DEFAULT
 62
     5
 10
-32.06633503525363
 20
117.5185957184522
 30
0.0
 42
0.1670482644845649
  0
VERTEX
  5
349
  8
DEFAULT
 62
     5
 10
-31.12208321241276
 20
117.8581023622492
 30
0.0
 42
0.1651612454991482
  0
VERTEX
  5
34A
  8
DEFAULT
 62
     5
 10
-30.68516184252937
 20
118.4908186471106
 30
0.0
 42
0.0593667948163822
  0
VERTEX
  5
34B
  8
DEFAULT
 62
     5
 10
-30.61378918047996
 20
119.4215671774878
 30
0.0
  0
SEQEND
  5
34C
  8
DEFAULT
 62
     5
  0
POLYLINE
  5
34D
  8
DEFAULT
 62
     5
 66
     1
 10
0.0
 20
0.0
 30
0.0
 70
     1
  0
VERTEX
  5
34E
  8
DEFAULT
 62
     5
 10
-33.02119658788737
 20
121.3457562122794
 30
0.0
  0
VERTEX
  5
34F
  8
DEFAULT
 62
     5
 10
-34.74959164961577
 20
121.5926697925263
 30
0.0
 42
-0.1714833175990209
  0
VERTEX
  5
350
  8
DEFAULT
 62
     5
 10
-33.76241911811577
 20
123.2236501281682
 30
0.0
 42
-0.1608829132837352
  0
VERTEX
  5
351
  8
DEFAULT
 62
     5
 10
-31.68149685152936
 20
123.7531636196867
 30
0.0
 42
-0.1088364278880917
  0
VERTEX
  5
352
  8
DEFAULT
 62
     5
 10
-29.8142131363908
 20
123.4498265092746
 30
0.0
 42
-0.158030364433537
  0
VERTEX
  5
353
  8
DEFAULT
 62
     5
 10
-28.95049786597174
 20
122.6791860918932
 30
0.0
 42
-0.1088017057953428
  0
VERTEX
  5
354
  8
DEFAULT
 62
     5
 10
-28.70020893356638
 20
120.9638125331408
 30
0.0
  0
VERTEX
  5
355
  8
DEFAULT
 62
     5
 10
-28.70020893356638
 20
118.7261579766744
 30
0.0
 42
0.0514080219695261
  0
VERTEX
  5
356
  8
DEFAULT
 62
     5
 10
-28.59604209029066
 20
117.3174964095352
 30
0.0
 42
0.0692287864232352
  0
VERTEX
  5
357
  8
DEFAULT
 62
     5
 10
-28.20638177307255
 20
116.3457562122794
 30
0.0
  0
VERTEX
  5
358
  8
DEFAULT
 62
     5
 10
-30.11996201998613
 20
116.3457562122794
 30
0.0
  0
VERTEX
  5
359
  8
DEFAULT
 62
     5
 10
-30.3032181633908
 20
116.905169851396
 30
0.0
  0
VERTEX
  5
35A
  8
DEFAULT
 62
     5
 10
-30.37073274187916
 20
117.1279713513013
 30
0.0
 42
-0.0933244186738136
  0
VERTEX
  5
35B
  8
DEFAULT
 62
     5
 10
-31.41529379539217
 20
116.4026624738472
 30
0.0
 42
-0.104013346692583
  0
VERTEX
  5
35C
  8
DEFAULT
 62
     5
 10
-32.60260017300399
 20
116.1605710270942
 30
0.0
 42
-0.1965430357596541
  0
VERTEX
  5
35D
  8
DEFAULT
 62
     5
 10
-34.35559051743402
 20
116.7657989375407
 30
0.0
 42
-0.215436948765109
  0
VERTEX
  5
35E
  8
DEFAULT
 62
     5
 10
-34.99650522986268
 20
118.2959882530228
 30
0.0
 42
-0.1373780248024411
  0
VERTEX
  5
35F
  8
DEFAULT
 62
     5
 10
-34.7110112849628
 20
119.3878089463287
 30
0.0
 42
-0.1473783213971013
  0
VERTEX
  5
360
  8
DEFAULT
 62
     5
 10
-33.91095298042853
 20
120.1222803012828
 30
0.0
 42
-0.0634404934847042
  0
VERTEX
  5
361
  8
DEFAULT
 62
     5
 10
-32.4270601967214
 20
120.5674000987334
 30
0.0
 42
0.0472009877729045
  0
VERTEX
  5
362
  8
DEFAULT
 62
     5
 10
-30.61378918047996
 20
121.0371142369707
 30
0.0
  0
VERTEX
  5
363
  8
DEFAULT
 62
     5
 10
-30.61378918047996
 20
121.2309801101682
 30
0.0
 42
0.2070921599656254
  0
VERTEX
  5
364
  8
DEFAULT
 62
     5
 10
-30.86986523822688
 20
122.0324847250805
 30
0.0
 42
0.1777887432707919
  0
VERTEX
  5
365
  8
DEFAULT
 62
     5
 10
-31.83678283103141
 20
122.2716821382053
 30
0.0
 42
0.1651091138038896
  0
VERTEX
  5
366
  8
DEFAULT
 62
     5
 10
-32.58572152838189
 20
122.0662424852821
 30
0.0
 42
0.1491587679877571
  0
SEQEND
  5
367
  8
DEFAULT
 62
     5
  0
POLYLINE
  5
368
  8
DEFAULT
 62
     5
 66
     1
 10
0.0
 20
0.0
 30
0.0
 70
     1
  0
VERTEX
  5
369
  8
DEFAULT
 62
     5
 10
-37.89773979776391
 20
116.3457562122794
 30
0.0
  0
VERTEX
  5
36A
  8
DEFAULT
 62
     5
 10
-39.81132004467749
 20
116.3457562122794
 30
0.0
  0
VERTEX
  5
36B
  8
DEFAULT
 62
     5
 10
-39.81132004467749
 20
123.5679784345016
 30
0.0
  0
VERTEX
  5
36C
  8
DEFAULT
 62
     5
 10
-38.02119658788737
 20
123.5679784345016
 30
0.0
  0
VERTEX
  5
36D
  8
DEFAULT
 62
     5
 10
-38.02119658788735
 20
122.5484958660502
 30
0.0
 42
-0.0977550519460828
  0
VERTEX
  5
36E
  8
DEFAULT
 62
     5
 10
-37.23705287804238
 20
123.5120371647814
 30
0.0
 42
-0.1561720185079515
  0
VERTEX
  5
36F
  8
DEFAULT
 62
     5
 10
-36.44712204285583
 20
123.7531636196868
 30
0.0
 42
-0.1438170981369734
  0
VERTEX
  5
370
  8
DEFAULT
 62
     5
 10
-35.24341881010959
 20
123.3895448955482
 30
0.0
  0
VERTEX
  5
371
  8
DEFAULT
 62
     5
 10
-35.82983809223855
 20
121.7141984827841
 30
0.0
 42
0.1496770151887719
  0
VERTEX
  5
372
  8
DEFAULT
 62
     5
 10
-36.68246137241962
 20
122.0247685579584
 30
0.0
 42
0.1810970994867124
  0
VERTEX
  5
373
  8
DEFAULT
 62
     5
 10
-37.32916273923237
 20
121.8034147813033
 30
0.0
 42
0.1501348396488403
  0
VERTEX
  5
374
  8
DEFAULT
 62
     5
 10
-37.74582964137778
 20
121.0033569477265
 30
0.0
 42
0.0509111359642142
  0
VERTEX
  5
375
  8
DEFAULT
 62
     5
 10
-37.89773979776391
 20
118.5795526851847
 30
0.0
  0
SEQEND
  5
376
  8
DEFAULT
 62
     5
  0
POLYLINE
  5
377
  8
DEFAULT
 62
     5
 66
     1
 10
0.0
 20
0.0
 30
0.0
 70
     1
  0
VERTEX
  5
378
  8
DEFAULT
 62
     5
 10
-46.7866286866528
 20
120.0774310218006
 30
0.0
 42
0.1671831675161588
  0
VERTEX
  5
379
  8
DEFAULT
 62
     5
 10
-46.3497073167694
 20
118.3688081673651
 30
0.0
 42
0.2386895617245798
  0
VERTEX
  5
37A
  8
DEFAULT
 62
     5
 10
-45.27235349490247
 20
117.8272376937608
 30
0.0
 42
0.2306067024897432
  0
VERTEX
  5
37B
  8
DEFAULT
 62
     5
 10
-44.11205276030302
 20
118.3827932493164
 30
0.0
 42
0.1781814747799565
  0
VERTEX
  5
37C
  8
DEFAULT
 62
     5
 10
-43.63848053850464
 20
120.0292059192025
 30
0.0
 42
0.1711933697273366
  0
VERTEX
  5
37D
  8
DEFAULT
 62
     5
 10
-44.091798292565
 20
121.7195024057656
 30
0.0
 42
0.2363895789849385
  0
VERTEX
  5
37E
  8
DEFAULT
 62
     5
 10
-45.23956072654855
 20
122.2716821382053
 30
0.0
 42
0.2389909455159923
  0
VERTEX
  5
37F
  8
DEFAULT
 62
     5
 10
-46.34970731676939
 20
121.7301121355585
 30
0.0
 42
0.1688350197989204
  0
SEQEND
  5
380
  8
DEFAULT
 62
     5
  0
POLYLINE
  5
381
  8
DEFAULT
 62
     5
 66
     1
 10
0.0
 20
0.0
 30
0.0
 70
     1
  0
VERTEX
  5
382
  8
DEFAULT
 62
     5
 10
-48.45329535331946
 20
115.8519290517855
 30
0.0
  0
VERTEX
  5
383
  8
DEFAULT
 62
     5
 10
-46.23107313109726
 20
115.6050154715386
 30
0.0
 42
0.1963004846498912
  0
VERTEX
  5
384
  8
DEFAULT
 62
     5
 10
-45.98898121338671
 20
115.0716438964591
 30
0.0
 42
0.1652544786658487
  0
VERTEX
  5
385
  8
DEFAULT
 62
     5
 10
-45.1662580808037
 20
114.8642747307979
 30
0.0
 42
0.1335897911306561
  0
VERTEX
  5
386
  8
DEFAULT
 62
     5
 10
-44.08890425893676
 20
115.0851471889227
 30
0.0
 42
0.1695942548853824
  0
VERTEX
  5
387
  8
DEFAULT
 62
     5
 10
-43.7233564930177
 20
115.5616129733918
 30
0.0
 42
0.0745029496056815
  0
VERTEX
  5
388
  8
DEFAULT
 62
     5
 10
-43.63848053850466
 20
116.4267750251463
 30
0.0
  0
VERTEX
  5
389
  8
DEFAULT
 62
     5
 10
-43.63848053850465
 20
117.4655480114028
 30
0.0
 42
-0.2481650325452905
  0
VERTEX
  5
38A
  8
DEFAULT
 62
     5
 10
-45.77293230162812
 20
116.3457562122794
 30
0.0
 42
-0.2649646906886683
  0
VERTEX
  5
38B
  8
DEFAULT
 62
     5
 10
-48.04337962644842
 20
117.5803241135139
 30
0.0
 42
-0.1513235680991166
  0
VERTEX
  5
38C
  8
DEFAULT
 62
     5
 10
-48.70020893356637
 20
120.0089509805071
 30
0.0
 42
-0.1864728947506871
  0
VERTEX
  5
38D
  8
DEFAULT
 62
     5
 10
-47.83938675486064
 20
122.7915513627361
 30
0.0
 42
-0.2234769942369991
  0
VERTEX
  5
38E
  8
DEFAULT
 62
     5
 10
-45.69866513499301
 20
123.7531636196868
 30
0.0
 42
-0.2545979461410218
  0
VERTEX
  5
38F
  8
DEFAULT
 62
     5
 10
-43.51502374838118
 20
122.5610346376237
 30
0.0
  0
VERTEX
  5
390
  8
DEFAULT
 62
     5
 10
-43.5150237483812
 20
123.5679784345016
 30
0.0
  0
VERTEX
  5
391
  8
DEFAULT
 62
     5
 10
-41.72490029159107
 20
123.5679784345016
 30
0.0
  0
VERTEX
  5
392
  8
DEFAULT
 62
     5
 10
-41.72490029159108
 20
117.0662429562396
 30
0.0
 42
-0.0739274830705768
  0
VERTEX
  5
393
  8
DEFAULT
 62
     5
 10
-41.93371576763016
 20
115.1497691466552
 30
0.0
 42
-0.1231238869311837
  0
VERTEX
  5
394
  8
DEFAULT
 62
     5
 10
-42.51965326027145
 20
114.1534341376552
 30
0.0
 42
-0.1133489208680033
  0
VERTEX
  5
395
  8
DEFAULT
 62
     5
 10
-43.52659752810685
 20
113.5872688523068
 30
0.0
 42
-0.0770474087797347
  0
VERTEX
  5
396
  8
DEFAULT
 62
     5
 10
-45.11899749909587
 20
113.3827932493164
 30
0.0
 42
-0.1675355138834461
  0
VERTEX
  5
397
  8
DEFAULT
 62
     5
 10
-47.69905084915762
 20
114.0155095341778
 30
0.0
 42
-0.2345118942080102
  0
VERTEX
  5
398
  8
DEFAULT
 62
     5
 10
-48.46004605763635
 20
115.6194832848925
 30
0.0
  0
SEQEND
  5
399
  8
DEFAULT
 62
     5
  0
POLYLINE
  5
39A
  8
DEFAULT
 62
     5
 66
     1
 10
0.0
 20
0.0
 30
0.0
 70
     1
  0
VERTEX
  5
39B
  8
DEFAULT
 62
     5
 10
-50.18169041504786
 20
116.3457562122794
 30
0.0
  0
VERTEX
  5
39C
  8
DEFAULT
 62
     5
 10
-52.09527066196144
 20
116.3457562122794
 30
0.0
  0
VERTEX
  5
39D
  8
DEFAULT
 62
     5
 10
-52.09527066196144
 20
120.0330640027636
 30
0.0
 42
0.0659043403441951
  0
VERTEX
  5
39E
  8
DEFAULT
 62
     5
 10
-52.2158338894141
 20
121.5473387235564
 30
0.0
 42
0.1600130695765585
  0
VERTEX
  5
39F
  8
DEFAULT
 62
     5
 10
-52.60742324841276
 20
122.0811925590811
 30
0.0
 42
0.1575149176298384
  0
VERTEX
  5
3A0
  8
DEFAULT
 62
     5
 10
-53.25942948012194
 20
122.2716821382053
 30
0.0
 42
0.1576987046345057
  0
VERTEX
  5
3A1
  8
DEFAULT
 62
     5
 10
-54.13568305115692
 20
121.9996914857691
 30
0.0
 42
0.1684371822617338
  0
VERTEX
  5
3A2
  8
DEFAULT
 62
     5
 10
-54.66760831585857
 20
121.2787234232787
 30
0.0
 42
0.0659809918576592
  0
VERTEX
  5
3A3
  8
DEFAULT
 62
     5
 10
-54.81132004467749
 20
119.6183256714412
 30
0.0
  0
VERTEX
  5
3A4
  8
DEFAULT
 62
     5
 10
-54.81132004467749
 20
116.3457562122794
 30
0.0
  0
VERTEX
  5
3A5
  8
DEFAULT
 62
     5
 10
-56.72490029159107
 20
116.3457562122794
 30
0.0
  0
VERTEX
  5
3A6
  8
DEFAULT
 62
     5
 10
-56.72490029159107
 20
123.5679784345016
 30
0.0
  0
VERTEX
  5
3A7
  8
DEFAULT
 62
     5
 10
-54.93477683480094
 20
123.5679784345016
 30
0.0
  0
VERTEX
  5
3A8
  8
DEFAULT
 62
     5
 10
-54.93477683480095
 20
122.5147385768061
 30
0.0
 42
-0.2486296121988542
  0
VERTEX
  5
3A9
  8
DEFAULT
 62
     5
 10
-52.58138165533319
 20
123.7531636196868
 30
0.0
 42
-0.105316401560792
  0
VERTEX
  5
3AA
  8
DEFAULT
 62
     5
 10
-51.43892408624608
 20
123.5245759363548
 30
0.0
 42
-0.1292191717088798
  0
VERTEX
  5
3AB
  8
DEFAULT
 62
     5
 10
-50.65574489729136
 20
122.9415320063843
 30
0.0
 42
-0.1054932374262207
  0
VERTEX
  5
3AC
  8
DEFAULT
 62
     5
 10
-50.28585678736611
 20
122.1366515683562
 30
0.0
 42
-0.0533641385177133
  0
VERTEX
  5
3AD
  8
DEFAULT
 62
     5
 10
-50.18169041504786
 20
120.8471073892492
 30
0.0
  0
SEQEND
  5
3AE
  8
DEFAULT
 62
     5
  0
POLYLINE
  5
3AF
  8
DEFAULT
 62
     5
 66
     1
 10
0.0
 20
0.0
 30
0.0
 70
     1
  0
VERTEX
  5
3B0
  8
DEFAULT
 62
     5
 10
-60.61378918047996
 20
119.8025463357361
 30
0.0
  0
VERTEX
  5
3B1
  8
DEFAULT
 62
     5
 10
-61.72779338330439
 20
119.5103012155619
 30
0.0
 42
0.081116577956099
  0
VERTEX
  5
3B2
  8
DEFAULT
 62
     5
 10
-62.72412792134692
 20
119.1775471599117
 30
0.0
 42
0.2517191883486302
  0
VERTEX
  5
3B3
  8
DEFAULT
 62
     5
 10
-63.08292498294909
 20
118.5043219395743
 30
0.0
 42
0.4298150945545085
  0
VERTEX
  5
3B4
  8
DEFAULT
 62
     5
 10
-62.06633503525363
 20
117.5185957184522
 30
0.0
 42
0.1670482644845636
  0
VERTEX
  5
3B5
  8
DEFAULT
 62
     5
 10
-61.12208321241277
 20
117.8581023622492
 30
0.0
 42
0.1651612454991415
  0
VERTEX
  5
3B6
  8
DEFAULT
 62
     5
 10
-60.68516184252938
 20
118.4908186471106
 30
0.0
 42
0.0593667948163828
  0
VERTEX
  5
3B7
  8
DEFAULT
 62
     5
 10
-60.61378918047996
 20
119.4215671774878
 30
0.0
  0
SEQEND
  5
3B8
  8
DEFAULT
 62
     5
  0
POLYLINE
  5
3B9
  8
DEFAULT
 62
     5
 66
     1
 10
0.0
 20
0.0
 30
0.0
 70
     1
  0
VERTEX
  5
3BA
  8
DEFAULT
 62
     5
 10
-63.02119658788737
 20
121.3457562122794
 30
0.0
  0
VERTEX
  5
3BB
  8
DEFAULT
 62
     5
 10
-64.74959164961577
 20
121.5926697925263
 30
0.0
 42
-0.1714833175990129
  0
VERTEX
  5
3BC
  8
DEFAULT
 62
     5
 10
-63.76241911811577
 20
123.2236501281682
 30
0.0
 42
-0.1608829132837342
  0
VERTEX
  5
3BD
  8
DEFAULT
 62
     5
 10
-61.68149685152936
 20
123.7531636196868
 30
0.0
 42
-0.1088364278880895
  0
VERTEX
  5
3BE
  8
DEFAULT
 62
     5
 10
-59.8142131363908
 20
123.4498265092745
 30
0.0
 42
-0.1580303644335425
  0
VERTEX
  5
3BF
  8
DEFAULT
 62
     5
 10
-58.95049786597173
 20
122.6791860918932
 30
0.0
 42
-0.1088017057953468
  0
VERTEX
  5
3C0
  8
DEFAULT
 62
     5
 10
-58.70020893356638
 20
120.9638125331408
 30
0.0
  0
VERTEX
  5
3C1
  8
DEFAULT
 62
     5
 10
-58.70020893356639
 20
118.7261579766744
 30
0.0
 42
0.0514080219695378
  0
VERTEX
  5
3C2
  8
DEFAULT
 62
     5
 10
-58.59604209029067
 20
117.3174964095352
 30
0.0
 42
0.0692287864232355
  0
VERTEX
  5
3C3
  8
DEFAULT
 62
     5
 10
-58.20638177307254
 20
116.3457562122794
 30
0.0
  0
VERTEX
  5
3C4
  8
DEFAULT
 62
     5
 10
-60.11996201998613
 20
116.3457562122794
 30
0.0
  0
VERTEX
  5
3C5
  8
DEFAULT
 62
     5
 10
-60.3032181633908
 20
116.905169851396
 30
0.0
  0
VERTEX
  5
3C6
  8
DEFAULT
 62
     5
 10
-60.37073274187916
 20
117.1279713513013
 30
0.0
 42
-0.0933244186738094
  0
VERTEX
  5
3C7
  8
DEFAULT
 62
     5
 10
-61.41529379539217
 20
116.4026624738472
 30
0.0
 42
-0.1040133466925835
  0
VERTEX
  5
3C8
  8
DEFAULT
 62
     5
 10
-62.60260017300398
 20
116.1605710270942
 30
0.0
 42
-0.1965430357596565
  0
VERTEX
  5
3C9
  8
DEFAULT
 62
     5
 10
-64.35559051743401
 20
116.7657989375407
 30
0.0
 42
-0.2154369487651139
  0
VERTEX
  5
3CA
  8
DEFAULT
 62
     5
 10
-64.9965052298627
 20
118.2959882530228
 30
0.0
 42
-0.1373780248024236
  0
VERTEX
  5
3CB
  8
DEFAULT
 62
     5
 10
-64.71101128496281
 20
119.3878089463287
 30
0.0
 42
-0.1473783213971035
  0
VERTEX
  5
3CC
  8
DEFAULT
 62
     5
 10
-63.91095298042853
 20
120.1222803012828
 30
0.0
 42
-0.0634404934847068
  0
VERTEX
  5
3CD
  8
DEFAULT
 62
     5
 10
-62.4270601967214
 20
120.5674000987334
 30
0.0
 42
0.0472009877729046
  0
VERTEX
  5
3CE
  8
DEFAULT
 62
     5
 10
-60.61378918047996
 20
121.0371142369707
 30
0.0
  0
VERTEX
  5
3CF
  8
DEFAULT
 62
     5
 10
-60.61378918047997
 20
121.2309801101682
 30
0.0
 42
0.2070921599656274
  0
VERTEX
  5
3D0
  8
DEFAULT
 62
     5
 10
-60.86986523822686
 20
122.0324847250805
 30
0.0
 42
0.1777887432707937
  0
VERTEX
  5
3D1
  8
DEFAULT
 62
     5
 10
-61.8367828310314
 20
122.2716821382053
 30
0.0
 42
0.1651091138038878
  0
VERTEX
  5
3D2
  8
DEFAULT
 62
     5
 10
-62.58572152838189
 20
122.0662424852821
 30
0.0
 42
0.1491587679877598
  0
SEQEND
  5
3D3
  8
DEFAULT
 62
     5
  0
POLYLINE
  5
3D4
  8
DEFAULT
 62
     5
 66
     1
 10
0.0
 20
0.0
 30
0.0
 70
     1
  0
VERTEX
  5
3D5
  8
DEFAULT
 62
     5
 10
-70.67551757554169
 20
116.3457562122794
 30
0.0
  0
VERTEX
  5
3D6
  8
DEFAULT
 62
     5
 10
-70.67551757554169
 20
124.617361150551
 30
0.0
  0
VERTEX
  5
3D7
  8
DEFAULT
 62
     5
 10
-73.57675214344292
 20
124.617361150551
 30
0.0
  0
VERTEX
  5
3D8
  8
DEFAULT
 62
     5
 10
-73.57675214344292
 20
126.2840278172176
 30
0.0
  0
VERTEX
  5
3D9
  8
DEFAULT
 62
     5
 10
-65.73724597060341
 20
126.2840278172176
 30
0.0
  0
VERTEX
  5
3DA
  8
DEFAULT
 62
     5
 10
-65.73724597060341
 20
124.617361150551
 30
0.0
  0
VERTEX
  5
3DB
  8
DEFAULT
 62
     5
 10
-68.63848053850465
 20
124.617361150551
 30
0.0
  0
VERTEX
  5
3DC
  8
DEFAULT
 62
     5
 10
-68.63848053850465
 20
116.3457562122794
 30
0.0
  0
SEQEND
  5
3DD
  8
DEFAULT
 62
     5
  0
LINE
  5
3DF
  8
1
  6
CONTINUOUS
 62
     5
 10
-96.42041896483065
 20
104.4895380365281
 30
0.0
 11
101.1653674727693
 21
104.4895380365281
 31
0.0
  0
ARC
  5
3E0
  8
1
  6
CONTINUOUS
 62
     5
 10
-96.42041896483065
 20
103.9895380365281
 30
0.0
 40
0.5000000000000178
 50
90.0
 51
225.0
  0
LINE
  5
3E1
  8
1
  6
CONTINUOUS
 62
     5
 10
101.5189208633694
 20
103.6359846459281
 30
0.0
 11
2.726027644569342
 21
4.843091427128115
 31
0.0
  0
ARC
  5
3E2
  8
1
  6
CONTINUOUS
 62
     5
 10
101.1653674727693
 20
103.9895380365281
 30
0.0
 40
0.4999999999999983
 50
315.0
 51
90.0
  0
LINE
  5
3E3
  8
1
  6
CONTINUOUS
 62
     5
 10
2.018920863369345
 20
4.843091427128115
 30
0.0
 11
-96.77397235543066
 21
103.6359846459281
 31
0.0
  0
ARC
  5
3E4
  8
1
  6
CONTINUOUS
 62
     5
 10
2.372474253969358
 20
5.196644817728099
 30
0.0
 40
0.5000000000000024
 50
225.0
 51
314.9999999999999
  0
LINE
  5
3E5
  8
1
  6
CONTINUOUS
 62
     5
 10
105.9080081598693
 20
99.74689734942808
 30
0.0
 11
105.9080081598693
 21
-97.8388890881719
 31
0.0
  0
ARC
  5
3E6
  8
1
  6
CONTINUOUS
 62
     5
 10
105.4080081598693
 20
99.74689734942808
 30
0.0
 40
0.5000000000000178
 50
0.0
 51
135.0
  0
LINE
  5
3E7
  8
1
  6
CONTINUOUS
 62
     5
 10
105.0544547692693
 20
-98.1924424787719
 30
0.0
 11
6.261561550469338
 21
0.6004507400280943
 31
0.0
  0
ARC
  5
3E8
  8
1
  6
CONTINUOUS
 62
     5
 10
105.4080081598693
 20
-97.8388890881719
 30
0.0
 40
0.4999999999999983
 50
225.0
 51
0.0
  0
LINE
  5
3E9
  8
1
  6
CONTINUOUS
 62
     5
 10
6.261561550469338
 20
1.307557521228091
 30
0.0
 11
105.0544547692693
 21
100.1004507400281
 31
0.0
  0
ARC
  5
3EA
  8
1
  6
CONTINUOUS
 62
     5
 10
6.615114941069351
 20
0.9540041306281069
 30
0.0
 40
0.5000000000000026
 50
135.0
 51
225.0
  0
LINE
  5
3EC
  8
2
  6
CONTINUOUS
 62
     5
 10
-102.6275257460306
 20
102.4184702247281
 30
0.0
 11
-102.6275257460306
 21
2.418470224728111
 31
0.0
  0
LINE
  5
3ED
  8
2
  6
CONTINUOUS
 62
     5
 10
-102.6275257460306
 20
102.4184702247281
 30
0.0
 11
-52.62752574603064
 21
52.41847022472808
 31
0.0
  0
LINE
  5
3EE
  8
2
  6
CONTINUOUS
 62
     5
 10
-52.62752574603064
 20
52.41847022472808
 30
0.0
 11
-52.62752574603064
 21
-47.58152977527189
 31
0.0
  0
LINE
  5
3EF
  8
2
  6
CONTINUOUS
 62
     5
 10
-52.62752574603064
 20
-47.58152977527189
 30
0.0
 11
-102.6275257460306
 21
2.418470224728111
 31
0.0
  0
LINE
  5
3F1
  8
5
  6
CONTINUOUS
 62
     5
 10
-47.62752574603064
 20
-51.37442299417191
 30
0.0
 11
-47.62752574603064
 21
46.21136344352811
 31
0.0
  0
ARC
  5
3F2
  8
5
  6
CONTINUOUS
 62
     5
 10
-47.12752574603064
 20
-51.37442299417191
 30
0.0
 40
0.5000000000000004
 50
180.0
 51
315.0
  0
LINE
  5
3F3
  8
5
  6
CONTINUOUS
 62
     5
 10
-46.77397235543066
 20
46.5649168341281
 30
0.0
 11
2.018920863369345
 21
-2.227976384771893
 31
0.0
  0
ARC
  5
3F4
  8
5
  6
CONTINUOUS
 62
     5
 10
-47.12752574603064
 20
46.21136344352811
 30
0.0
 40
0.5000000000000031
 50
45.0
 51
180.0
  0
LINE
  5
3F5
  8
5
  6
CONTINUOUS
 62
     5
 10
2.018920863369345
 20
-2.935083165871902
 30
0.0
 11
-46.77397235543066
 21
-51.72797638477189
 31
0.0
  0
ARC
  5
3F6
  8
5
  6
CONTINUOUS
 62
     5
 10
1.665367472769361
 20
-2.581529775271889
 30
0.0
 40
0.4999999999999983
 50
315.0
 51
45.0
  0
LINE
  5
3F8
  8
4
  6
CONTINUOUS
 62
     5
 10
55.55445476926934
 20
-56.47061707187189
 30
0.0
 11
6.261561550469338
 21
-105.7635102906719
 31
0.0
  0
ARC
  5
3F9
  8
4
  6
CONTINUOUS
 62
     5
 10
55.20090137866936
 20
-56.1170636812719
 30
0.0
 40
0.4999999999999884
 50
315.0
 51
45.0
  0
LINE
  5
3FA
  8
4
  6
CONTINUOUS
 62
     5
 10
-43.73843844953066
 20
-55.76351029067189
 30
0.0
 11
5.554454769269341
 21
-6.470617071871885
 31
0.0
  0
ARC
  5
3FB
  8
4
  6
CONTINUOUS
 62
     5
 10
-43.38488505893065
 20
-56.1170636812719
 30
0.0
 40
0.4999999999999884
 50
135.0
 51
225.0
  0
LINE
  5
3FC
  8
4
  6
CONTINUOUS
 62
     5
 10
5.554454769269341
 20
-105.7635102906719
 30
0.0
 11
-43.73843844953066
 21
-56.47061707187189
 31
0.0
  0
ARC
  5
3FD
  8
4
  6
CONTINUOUS
 62
     5
 10
5.908008159869354
 20
-105.4099569000719
 30
0.0
 40
0.5000000000000043
 50
225.0
 51
315.0
  0
LINE
  5
3FE
  8
4
  6
CONTINUOUS
 62
     5
 10
6.261561550469338
 20
-6.470617071871885
 30
0.0
 11
55.55445476926934
 21
-55.76351029067189
 31
0.0
  0
ARC
  5
3FF
  8
4
  6
CONTINUOUS
 62
     5
 10
5.908008159869354
 20
-6.824170462471898
 30
0.0
 40
0.4999999999999964
 50
45.0
 51
135.0
  0
LINE
  5
400
  8
5
  6
CONTINUOUS
 62
     5
 10
108.2364352846694
 20
-109.6525975871719
 30
0.0
 11
10.65064884696935
 21
-109.6525975871719
 31
0.0
  0
ARC
  5
401
  8
5
  6
CONTINUOUS
 62
     5
 10
108.2364352846694
 20
-109.1525975871719
 30
0.0
 40
0.5000000000000004
 50
270.0
 51
45.0
  0
LINE
  5
402
  8
5
  6
CONTINUOUS
 62
     5
 10
10.29709545636933
 20
-108.7990441965719
 30
0.0
 11
59.08998867516937
 21
-60.00615097777191
 31
0.0
  0
ARC
  5
403
  8
5
  6
CONTINUOUS
 62
     5
 10
10.65064884696935
 20
-109.1525975871719
 30
0.0
 40
0.5000000000000043
 50
135.0
 51
270.0
  0
LINE
  5
404
  8
5
  6
CONTINUOUS
 62
     5
 10
59.79709545636933
 20
-60.00615097777191
 30
0.0
 11
108.5899886751694
 21
-108.7990441965719
 31
0.0
  0
ARC
  5
405
  8
5
  6
CONTINUOUS
 62
     5
 10
59.44354206576935
 20
-60.35970436837189
 30
0.0
 40
0.4999999999999884
 50
45.0
 51
135.0
  0
LINE
  5
407
  8
3
  6
CONTINUOUS
 62
     5
 10
-96.77397235543066
 20
-10.50615097777191
 30
0.0
 11
1.518920863369345
 21
-108.7990441965719
 31
0.0
  0
ARC
  5
408
  8
3
  6
CONTINUOUS
 62
     5
 10
-97.12752574603064
 20
-10.85970436837189
 30
0.0
 40
0.4999999999999994
 50
44.99999999999972
 51
180.0
  0
LINE
  5
409
  8
3
  6
CONTINUOUS
 62
     5
 10
1.165367472769361
 20
-109.6525975871719
 30
0.0
 11
-97.12752574603064
 21
-109.6525975871719
 31
0.0
  0
ARC
  5
40A
  8
3
  6
CONTINUOUS
 62
     5
 10
1.165367472769361
 20
-109.1525975871719
 30
0.0
 40
0.5000000000000037
 50
270.0
 51
45.00000000000002
  0
LINE
  5
40B
  8
3
  6
CONTINUOUS
 62
     5
 10
-97.62752574603064
 20
-109.1525975871719
 30
0.0
 11
-97.62752574603064
 21
-10.85970436837189
 31
0.0
  0
ARC
  5
40C
  8
3
  6
CONTINUOUS
 62
     5
 10
-97.12752574603064
 20
-109.1525975871719
 30
0.0
 40
0.5000000000000004
 50
180.0
 51
270.0
  0
ENDSEC
  0
EOF
