999
FreeCAD v0.19 22882 (Git)
  0
SECTION
  2
HEADER
  9
$ACADVER
  1
AC1014
  9
$ACADMAINTVER
 70
     9
  9
$DWGCODEPAGE
  3
ANSI_1252
  9
$TEXTSTYLE
  7
STANDARD
  9
$DIMSTYLE
  2
STANDARD
  9
$DIMTXSTY
  7
STANDARD
  9
$CMLSTYLE
  2
STANDARD
  9
$PEXTMAX
 10
50
 20
50
 30
50
  9
$PEXTMIN
 10
0
 20
0
 30
0
  9
$HANDSEED
  5
FFFF
  0
ENDSEC
  0
SECTION
  2
CLASSES
  0
CLASS
  1
ACDBDICTIONARYWDFLT
  2
AcDbDictionaryWithDefault
  3
ObjectDBX Classes
 90
        0
280
     0
281
     0
  0
CLASS
  1
XRECORD
  2
AcDbXrecord
  3
ObjectDBX Classes
 90
        0
280
     0
281
     0
  0
CLASS
  1
LWPOLYLINE
  2
AcDbPolyline
  3
ObjectDBX Classes
 90
        0
280
     0
281
     1
  0
ENDSEC
  0
SECTION
  2
TABLES
  0
TABLE
  2
VPORT
  5
20
330
0
100
AcDbSymbolTable
 70
     1
  0
VPORT
  5
21
330
20
100
AcDbSymbolTableRecord
100
AcDbViewportTableRecord
  2
*ACTIVE
 70
     0
  0
ENDTAB
  0
TABLE
  2
LTYPE
  5
22
330
0
100
AcDbSymbolTable
 70
     1
  0
LTYPE
  5
23
330
21
100
AcDbSymbolTableRecord
100
AcDbLinetypeTableRecord
  2
BYBLOCK
 70
     0
  3

 72
    65
 73
     0
 40
0.0
  0
LTYPE
  5
24
330
21
100
AcDbSymbolTableRecord
100
AcDbLinetypeTableRecord
  2
BYLAYER
 70
     0
  3

 72
    65
 73
     0
 40
0.0
  0
LTYPE
  5
25
330
21
100
AcDbSymbolTableRecord
100
AcDbLinetypeTableRecord
  2
CONTINUOUS
 70
     0
  3
Solid line
 72
    65
 73
     0
 40
0.0
  0
ENDTAB
  0
TABLE
  2
LAYER
  5
A52
330
0
100
AcDbSymbolTable
 70
4
  0
LAYER
  5
A53
330
A52
100
AcDbSymbolTableRecord
100
AcDbLayerTableRecord
  2
0
 70
   0
 62
   7
  6
CONTINUOUS
  0
LAYER
  5
A54
330
A52
100
AcDbSymbolTableRecord
100
AcDbLayerTableRecord
  2
ProjItem
 70
    0
 62
    7
  6
CONTINUOUS
  0
LAYER
  5
A55
330
A52
100
AcDbSymbolTableRecord
100
AcDbLayerTableRecord
  2
ProjItem001
 70
    0
 62
    7
  6
CONTINUOUS
  0
LAYER
  5
A56
330
A52
100
AcDbSymbolTableRecord
100
AcDbLayerTableRecord
  2
ProjItem002
 70
    0
 62
    7
  6
CONTINUOUS
  0
ENDTAB
  0
TABLE
  2
STYLE
  5
70
330
0
100
AcDbSymbolTable
 70
     2
  0
STYLE
  5
71
330
70
100
AcDbSymbolTableRecord
100
AcDbTextStyleTableRecord
  2
STANDARD
 70
     0
 40
0.0
 41
1.0
 50
0.0
 71
     0
 42
2.5
  3
arial.ttf
  4

  0
STYLE
  5
72
330
70
100
AcDbSymbolTableRecord
100
AcDbTextStyleTableRecord
  2
ANNOTATIVE
 70
     0
 40
0.0
 41
1.0
 50
0.0
 71
     0
 42
2.5
  3
arial.ttf
  4

  0
ENDTAB
  0
TABLE
  2
VIEW
  5
73
330
0
100
AcDbSymbolTable
 70
     0
  0
ENDTAB
  0
TABLE
  2
UCS
  5
74
330
0
100
AcDbSymbolTable
 70
     0
  0
ENDTAB
  0
TABLE
  2
APPID
  5
75
330
0
100
AcDbSymbolTable
 70
     2
  0
APPID
  5
76
330
75
100
AcDbSymbolTableRecord
100
AcDbRegAppTableRecord
  2
ACAD
 70
     0
  0
APPID
  5
77
330
75
100
AcDbSymbolTableRecord
100
AcDbRegAppTableRecord
  2
ACADANNOTATIVE
 70
     0
  0
ENDTAB
  0
TABLE
  2
DIMSTYLE
  5
78
330
0
100
AcDbSymbolTable
 70
     2
  0
DIMSTYLE
105
79
330
78
100
AcDbSymbolTableRecord
100
AcDbDimStyleTableRecord
  2
STANDARD
 70
     0
  3

  4

  5

  6

  7

 40
0.0
 41
2.5
 42
0.625
 43
3.75
 44
1.25
 45
0.0
 46
0.0
 47
0.0
 48
0.0
140
2.5
141
2.5
142
0.0
143
0.03937007874016
144
1.0
145
0.0
146
1.0
147
0.625
 71
     0
 72
     0
 73
     0
 74
     0
 75
     0
 76
     0
 77
     1
 78
     8
170
     0
171
     3
172
     1
173
     0
174
     0
175
     0
176
     0
177
     0
178
     0
270
     2
271
     2
272
     2
273
     2
274
     3
340
71
275
     0
280
     0
281
     0
282
     0
283
     0
284
     8
285
     0
286
     0
287
     3
288
     0
  0
ENDTAB
  0
TABLE
  2
BLOCK_RECORD
  5
A01
330
0
100
AcDbSymbolTable
  70
5
  0
BLOCK_RECORD
  5
A02
330
A01
100
AcDbSymbolTableRecord
100
AcDbBlockTableRecord
  2
*MODEL_SPACE
  0
BLOCK_RECORD
  5
A03
330
A01
100
AcDbSymbolTableRecord
100
AcDbBlockTableRecord
  2
*PAPER_SPACE
  0
ENDTAB
  0
ENDSEC
  0
SECTION
  2
BLOCKS
  0
BLOCK
  5
A04
330
A02
100
AcDbEntity
  8
0
100
AcDbBlockBegin
  2
*MODEL_SPACE
 70
   0
 10
0
 20
0
 30
0
  3
*MODEL_SPACE
  1
 
  0
ENDBLK
  5
A05
330
A02
100
AcDbEntity
  8
0
100
AcDbBlockEnd
  0
BLOCK
  5
A06
330
A03
100
AcDbEntity
 67
1
  8
0
100
AcDbBlockBegin
  2
*PAPER_SPACE
 70
   0
 10
0
 20
0
 30
0
  3
*PAPER_SPACE
  1
 
  0
ENDBLK
  5
A07
330
A03
100
AcDbEntity
 67
    1
  8
0
100
AcDbBlockEnd
  0
ENDSEC
  0
SECTION
  2
ENTITIES
  0
LINE
  5
A08
330
A02
100
AcDbEntity
  8
ProjItem
100
AcDbLine
 10
109.037
 20
544.281
 30
0
 11
163.037
 21
544.281
 31
0
  0
LINE
  5
A09
330
A02
100
AcDbEntity
  8
ProjItem
100
AcDbLine
 10
163.037
 20
544.281
 30
0
 11
182.037
 21
563.281
 31
0
  0
LINE
  5
A0A
330
A02
100
AcDbEntity
  8
ProjItem
100
AcDbLine
 10
90.0371
 20
525.281
 30
0
 11
109.037
 21
544.281
 31
0
  0
LINE
  5
A0B
330
A02
100
AcDbEntity
  8
ProjItem
100
AcDbLine
 10
182.037
 20
563.281
 30
0
 11
182.037
 21
696.281
 31
0
  0
LINE
  5
A0C
330
A02
100
AcDbEntity
  8
ProjItem
100
AcDbLine
 10
90.0371
 20
525.281
 30
0
 11
90.0371
 21
458.281
 31
0
  0
LINE
  5
A0D
330
A02
100
AcDbEntity
  8
ProjItem
100
AcDbLine
 10
182.037
 20
696.281
 30
0
 11
163.037
 21
715.281
 31
0
  0
LINE
  5
A0E
330
A02
100
AcDbEntity
  8
ProjItem
100
AcDbLine
 10
109.037
 20
439.281
 30
0
 11
90.0371
 21
458.281
 31
0
  0
LINE
  5
A0F
330
A02
100
AcDbEntity
  8
ProjItem
100
AcDbLine
 10
163.037
 20
715.281
 30
0
 11
109.037
 21
715.281
 31
0
  0
LINE
  5
A10
330
A02
100
AcDbEntity
  8
ProjItem
100
AcDbLine
 10
109.037
 20
439.281
 30
0
 11
636.037
 21
439.281
 31
0
  0
LINE
  5
A11
330
A02
100
AcDbEntity
  8
ProjItem
100
AcDbLine
 10
109.037
 20
715.281
 30
0
 11
90.0371
 21
734.281
 31
0
  0
LINE
  5
A12
330
A02
100
AcDbEntity
  8
ProjItem
100
AcDbLine
 10
636.037
 20
439.281
 30
0
 11
636.037
 21
490.281
 31
0
  0
LINE
  5
A13
330
A02
100
AcDbEntity
  8
ProjItem
100
AcDbLine
 10
90.0371
 20
757.281
 30
0
 11
90.0371
 21
734.281
 31
0
  0
LINE
  5
A14
330
A02
100
AcDbEntity
  8
ProjItem
100
AcDbLine
 10
636.037
 20
490.281
 30
0
 11
648.037
 21
490.281
 31
0
  0
LINE
  5
A15
330
A02
100
AcDbEntity
  8
ProjItem
100
AcDbLine
 10
363.037
 20
757.281
 30
0
 11
90.0371
 21
757.281
 31
0
  0
LINE
  5
A16
330
A02
100
AcDbEntity
  8
ProjItem
100
AcDbLine
 10
648.037
 20
490.281
 30
0
 11
648.037
 21
566.281
 31
0
  0
LINE
  5
A17
330
A02
100
AcDbEntity
  8
ProjItem
100
AcDbLine
 10
363.037
 20
769.281
 30
0
 11
363.037
 21
757.281
 31
0
  0
LINE
  5
A18
330
A02
100
AcDbEntity
  8
ProjItem
100
AcDbLine
 10
648.037
 20
566.281
 30
0
 11
636.037
 21
566.281
 31
0
  0
LINE
  5
A19
330
A02
100
AcDbEntity
  8
ProjItem
100
AcDbLine
 10
90.0371
 20
769.281
 30
0
 11
363.037
 21
769.281
 31
0
  0
LINE
  5
A1A
330
A02
100
AcDbEntity
  8
ProjItem
100
AcDbLine
 10
636.037
 20
566.281
 30
0
 11
636.037
 21
630.281
 31
0
  0
LINE
  5
A1B
330
A02
100
AcDbEntity
  8
ProjItem
100
AcDbLine
 10
90.0371
 20
801.281
 30
0
 11
90.0371
 21
769.281
 31
0
  0
LINE
  5
A1C
330
A02
100
AcDbEntity
  8
ProjItem
100
AcDbLine
 10
636.037
 20
630.281
 30
0
 11
648.037
 21
630.281
 31
0
  0
LINE
  5
A1D
330
A02
100
AcDbEntity
  8
ProjItem
100
AcDbLine
 10
90.0371
 20
801.281
 30
0
 11
109.037
 21
820.281
 31
0
  0
LINE
  5
A1E
330
A02
100
AcDbEntity
  8
ProjItem
100
AcDbLine
 10
648.037
 20
630.281
 30
0
 11
648.037
 21
706.281
 31
0
  0
LINE
  5
A1F
330
A02
100
AcDbEntity
  8
ProjItem
100
AcDbLine
 10
636.037
 20
820.281
 30
0
 11
109.037
 21
820.281
 31
0
  0
LINE
  5
A20
330
A02
100
AcDbEntity
  8
ProjItem
100
AcDbLine
 10
648.037
 20
706.281
 30
0
 11
636.037
 21
706.281
 31
0
  0
LINE
  5
A21
330
A02
100
AcDbEntity
  8
ProjItem
100
AcDbLine
 10
636.037
 20
706.281
 30
0
 11
636.037
 21
820.281
 31
0
  0
LINE
  5
A22
330
A02
100
AcDbEntity
  8
ProjItem001
100
AcDbLine
 10
107.958
 20
148.373
 30
0
 11
161.958
 21
148.373
 31
0
  0
LINE
  5
A23
330
A02
100
AcDbEntity
  8
ProjItem001
100
AcDbLine
 10
161.958
 20
148.373
 30
0
 11
180.958
 21
167.373
 31
0
  0
LINE
  5
A24
330
A02
100
AcDbEntity
  8
ProjItem001
100
AcDbLine
 10
88.9584
 20
129.373
 30
0
 11
107.958
 21
148.373
 31
0
  0
LINE
  5
A25
330
A02
100
AcDbEntity
  8
ProjItem001
100
AcDbLine
 10
180.958
 20
167.373
 30
0
 11
180.958
 21
300.373
 31
0
  0
LINE
  5
A26
330
A02
100
AcDbEntity
  8
ProjItem001
100
AcDbLine
 10
88.9584
 20
129.373
 30
0
 11
88.9584
 21
62.3728
 31
0
  0
LINE
  5
A27
330
A02
100
AcDbEntity
  8
ProjItem001
100
AcDbLine
 10
180.958
 20
300.373
 30
0
 11
161.958
 21
319.373
 31
0
  0
LINE
  5
A28
330
A02
100
AcDbEntity
  8
ProjItem001
100
AcDbLine
 10
107.958
 20
43.3728
 30
0
 11
88.9584
 21
62.3728
 31
0
  0
LINE
  5
A29
330
A02
100
AcDbEntity
  8
ProjItem001
100
AcDbLine
 10
161.958
 20
319.373
 30
0
 11
107.958
 21
319.373
 31
0
  0
LINE
  5
A2A
330
A02
100
AcDbEntity
  8
ProjItem001
100
AcDbLine
 10
107.958
 20
43.3728
 30
0
 11
634.958
 21
43.3728
 31
0
  0
LINE
  5
A2B
330
A02
100
AcDbEntity
  8
ProjItem001
100
AcDbLine
 10
88.9584
 20
338.373
 30
0
 11
107.958
 21
319.373
 31
0
  0
LINE
  5
A2C
330
A02
100
AcDbEntity
  8
ProjItem001
100
AcDbLine
 10
634.958
 20
43.3728
 30
0
 11
634.958
 21
94.3728
 31
0
  0
LINE
  5
A2D
330
A02
100
AcDbEntity
  8
ProjItem001
100
AcDbLine
 10
88.9584
 20
405.373
 30
0
 11
88.9584
 21
338.373
 31
0
  0
LINE
  5
A2E
330
A02
100
AcDbEntity
  8
ProjItem001
100
AcDbLine
 10
634.958
 20
94.3728
 30
0
 11
646.958
 21
94.3728
 31
0
  0
LINE
  5
A2F
330
A02
100
AcDbEntity
  8
ProjItem001
100
AcDbLine
 10
88.9584
 20
405.373
 30
0
 11
107.958
 21
424.373
 31
0
  0
LINE
  5
A30
330
A02
100
AcDbEntity
  8
ProjItem001
100
AcDbLine
 10
646.958
 20
94.3728
 30
0
 11
646.958
 21
170.373
 31
0
  0
LINE
  5
A31
330
A02
100
AcDbEntity
  8
ProjItem001
100
AcDbLine
 10
634.958
 20
424.373
 30
0
 11
107.958
 21
424.373
 31
0
  0
LINE
  5
A32
330
A02
100
AcDbEntity
  8
ProjItem001
100
AcDbLine
 10
646.958
 20
170.373
 30
0
 11
634.958
 21
170.373
 31
0
  0
LINE
  5
A33
330
A02
100
AcDbEntity
  8
ProjItem001
100
AcDbLine
 10
634.958
 20
373.373
 30
0
 11
634.958
 21
424.373
 31
0
  0
LINE
  5
A34
330
A02
100
AcDbEntity
  8
ProjItem001
100
AcDbLine
 10
634.958
 20
170.373
 30
0
 11
634.958
 21
234.373
 31
0
  0
LINE
  5
A35
330
A02
100
AcDbEntity
  8
ProjItem001
100
AcDbLine
 10
634.958
 20
373.373
 30
0
 11
361.958
 21
373.373
 31
0
  0
LINE
  5
A36
330
A02
100
AcDbEntity
  8
ProjItem001
100
AcDbLine
 10
634.958
 20
234.373
 30
0
 11
646.958
 21
234.373
 31
0
  0
LINE
  5
A37
330
A02
100
AcDbEntity
  8
ProjItem001
100
AcDbLine
 10
361.958
 20
373.373
 30
0
 11
361.958
 21
361.373
 31
0
  0
LINE
  5
A38
330
A02
100
AcDbEntity
  8
ProjItem001
100
AcDbLine
 10
646.958
 20
234.373
 30
0
 11
646.958
 21
310.373
 31
0
  0
LINE
  5
A39
330
A02
100
AcDbEntity
  8
ProjItem001
100
AcDbLine
 10
361.958
 20
361.373
 30
0
 11
634.958
 21
361.373
 31
0
  0
LINE
  5
A3A
330
A02
100
AcDbEntity
  8
ProjItem001
100
AcDbLine
 10
646.958
 20
310.373
 30
0
 11
634.958
 21
310.373
 31
0
  0
LINE
  5
A3B
330
A02
100
AcDbEntity
  8
ProjItem001
100
AcDbLine
 10
634.958
 20
310.373
 30
0
 11
634.958
 21
361.373
 31
0
  0
LINE
  5
A3C
330
A02
100
AcDbEntity
  8
ProjItem002
100
AcDbLine
 10
1061.6
 20
277.9
 30
0
 11
699.6
 21
277.9
 31
0
  0
LINE
  5
A3D
330
A02
100
AcDbEntity
  8
ProjItem002
100
AcDbLine
 10
1061.6
 20
277.9
 30
0
 11
1080.15
 21
296.895
 31
0
  0
LINE
  5
A3E
330
A02
100
AcDbEntity
  8
ProjItem002
100
AcDbLine
 10
699.6
 20
277.9
 30
0
 11
680.6
 21
296.9
 31
0
  0
ARC
  5
A3F
330
A02
100
AcDbEntity
  8
ProjItem002
100
AcDbCircle
 10
680.6
 20
277.9
 30
0
 40
400
100
AcDbArc
 50
2.72181
 51
87.2782
  0
LINE
  5
A40
330
A02
100
AcDbEntity
  8
ProjItem002
100
AcDbLine
 10
680.6
 20
296.9
 30
0
 11
680.6
 21
658.9
 31
0
  0
LINE
  5
A41
330
A02
100
AcDbEntity
  8
ProjItem002
100
AcDbLine
 10
699.594
 20
677.449
 30
0
 11
680.6
 21
658.9
 31
0
  0
LINE
  5
A42
330
A02
100
AcDbEntity
  8
ProjItem002
100
AcDbLine
 10
743.681
 20
531.9
 30
0
 11
731.6
 21
531.9
 31
0
  0
LINE
  5
A43
330
A02
100
AcDbEntity
  8
ProjItem002
100
AcDbLine
 10
731.6
 20
531.9
 30
0
 11
731.6
 21
607.9
 31
0
  0
LINE
  5
A44
330
A02
100
AcDbEntity
  8
ProjItem002
100
AcDbLine
 10
731.6
 20
607.9
 30
0
 11
743.681
 21
607.9
 31
0
  0
LINE
  5
A45
330
A02
100
AcDbEntity
  8
ProjItem002
100
AcDbLine
 10
743.681
 20
607.9
 30
0
 11
743.681
 21
531.9
 31
0
  0
LINE
  5
A46
330
A02
100
AcDbEntity
  8
ProjItem002
100
AcDbLine
 10
870.6
 20
328.9
 30
0
 11
870.6
 21
340.9
 31
0
  0
LINE
  5
A47
330
A02
100
AcDbEntity
  8
ProjItem002
100
AcDbLine
 10
794.6
 20
328.9
 30
0
 11
870.6
 21
328.9
 31
0
  0
LINE
  5
A48
330
A02
100
AcDbEntity
  8
ProjItem002
100
AcDbLine
 10
794.6
 20
340.9
 30
0
 11
794.6
 21
328.9
 31
0
  0
LINE
  5
A49
330
A02
100
AcDbEntity
  8
ProjItem002
100
AcDbLine
 10
870.6
 20
340.9
 30
0
 11
794.6
 21
340.9
 31
0
  0
LINE
  5
A4A
330
A02
100
AcDbEntity
  8
ProjItem002
100
AcDbLine
 10
743.6
 20
391.9
 30
0
 11
731.6
 21
391.9
 31
0
  0
LINE
  5
A4B
330
A02
100
AcDbEntity
  8
ProjItem002
100
AcDbLine
 10
731.6
 20
391.9
 30
0
 11
731.6
 21
467.9
 31
0
  0
LINE
  5
A4C
330
A02
100
AcDbEntity
  8
ProjItem002
100
AcDbLine
 10
731.6
 20
467.9
 30
0
 11
743.6
 21
467.9
 31
0
  0
LINE
  5
A4D
330
A02
100
AcDbEntity
  8
ProjItem002
100
AcDbLine
 10
743.6
 20
467.9
 30
0
 11
743.6
 21
391.9
 31
0
  0
LINE
  5
A4E
330
A02
100
AcDbEntity
  8
ProjItem002
100
AcDbLine
 10
1010.6
 20
328.9
 30
0
 11
934.6
 21
328.9
 31
0
  0
LINE
  5
A4F
330
A02
100
AcDbEntity
  8
ProjItem002
100
AcDbLine
 10
934.6
 20
328.9
 30
0
 11
934.6
 21
340.9
 31
0
  0
LINE
  5
A50
330
A02
100
AcDbEntity
  8
ProjItem002
100
AcDbLine
 10
934.6
 20
340.9
 30
0
 11
1010.6
 21
340.9
 31
0
  0
LINE
  5
A51
330
A02
100
AcDbEntity
  8
ProjItem002
100
AcDbLine
 10
1010.6
 20
340.9
 30
0
 11
1010.6
 21
328.9
 31
0
  0
ENDSEC
  0
SECTION
  2
OBJECTS
  0
DICTIONARY
  5
F000
330
0
100
AcDbDictionary
  3
ACAD_GROUP
350
F001
  0
DICTIONARY
  5
F001
330
F000
100
AcDbDictionary
  0
ENDSEC
  0
EOF