999
dxfrw 0.6.3
  0
SECTION
  2
HEADER
  9
$ACADVER
  1
AC1018
  9
$DWGCODEPAGE
  3
ANSI_1252
  9
$INSBASE
 10
0
 20
0
 30
0
  9
$EXTMIN
 10
979.7177708681
 20
396.27433756609
 30
0
  9
$EXTMAX
 10
1797.843949539505
 20
683.1518854924
 30
0
  9
$LIMMIN
 10
0
 20
0
  9
$LIMMAX
 10
594
 20
420
  9
$ORTHOMODE
 70
    0
  9
$REGENMODE
 70
    1
  9
$FILLMODE
 70
    1
  9
$QTEXTMODE
 70
    0
  9
$MIRRTEXT
 70
    1
  9
$LTSCALE
 40
1
  9
$ATTMODE
 70
    1
  9
$TEXTSIZE
 40
2.5
  9
$TRACEWID
 40
1
  9
$TEXTSTYLE
  7
Standard
  9
$CLAYER
  8
0
  9
$CELTYPE
  6
ByLayer
  9
$CECOLOR
 62
  256
  9
$CELTSCALE
 40
1
  9
$DISPSILH
 70
    0
  9
$DIMSCALE
 40
1
  9
$DIMASZ
 40
2.5
  9
$DIMEXO
 40
0.625
  9
$DIMDLI
 40
3.75
  9
$DIMRND
 40
0
  9
$DIMDLE
 40
0
  9
$DIMEXE
 40
1.25
  9
$DIMTP
 40
0
  9
$DIMTM
 40
0
  9
$DIMTXT
 40
2.5
  9
$DIMCEN
 40
2.5
  9
$DIMTSZ
 40
0
  9
$DIMTOL
 70
    0
  9
$DIMLIM
 70
    0
  9
$DIMTIH
 70
    0
  9
$DIMTOH
 70
    0
  9
$DIMSE1
 70
    0
  9
$DIMSE2
 70
    0
  9
$DIMTAD
 70
    1
  9
$DIMZIN
 70
    8
  9
$DIMBLK
  1

  9
$DIMASO
 70
    1
  9
$DIMSHO
 70
    1
  9
$DIMPOST
  1

  9
$DIMAPOST
  1

  9
$DIMALT
 70
    0
  9
$DIMALTD
 70
    3
  9
$DIMALTF
 40
0.0393700787
  9
$DIMLFAC
 40
1
  9
$DIMTOFL
 70
    1
  9
$DIMTVP
 40
0
  9
$DIMTIX
 70
    0
  9
$DIMSOXD
 70
    0
  9
$DIMSAH
 70
    0
  9
$DIMBLK1
  1

  9
$DIMBLK2
  1

  9
$DIMSTYLE
  2
ISO-25
  9
$DIMCLRD
 70
    0
  9
$DIMCLRE
 70
    0
  9
$DIMCLRT
 70
    0
  9
$DIMTFAC
 40
1
  9
$DIMGAP
 40
0.625
  9
$DIMJUST
 70
    0
  9
$DIMSD1
 70
    0
  9
$DIMSD2
 70
    0
  9
$DIMTOLJ
 70
    0
  9
$DIMTZIN
 70
    8
  9
$DIMALTZ
 70
    0
  9
$DIMALTTZ
 70
    0
  9
$DIMUPT
 70
    0
  9
$DIMDEC
 70
    2
  9
$DIMTDEC
 70
    2
  9
$DIMALTU
 70
    2
  9
$DIMALTTD
 70
    3
  9
$DIMTXSTY
  7
Standard
  9
$DIMAUNIT
 70
    0
  9
$DIMADEC
 70
    0
  9
$DIMALTRND
 40
0
  9
$DIMAZIN
 70
    0
  9
$DIMDSEP
 70
   44
  9
$DIMATFIT
 70
    3
  9
$DIMFRAC
 70
    0
  9
$DIMLDRBLK
  1

  9
$DIMLUNIT
 70
    2
  9
$DIMLWD
 70
   -2
  9
$DIMLWE
 70
   -2
  9
$DIMTMOVE
 70
    0
  9
$LUNITS
 70
    2
  9
$LUPREC
 70
    4
  9
$SKETCHINC
 40
1
  9
$FILLETRAD
 40
10
  9
$AUNITS
 70
    0
  9
$AUPREC
 70
    0
  9
$MENU
  1
.
  9
$ELEVATION
 40
0
  9
$PELEVATION
 40
0
  9
$THICKNESS
 40
0
  9
$LIMCHECK
 70
    0
  9
$CHAMFERA
 40
10
  9
$CHAMFERB
 40
10
  9
$CHAMFERC
 40
20
  9
$CHAMFERD
 40
0
  9
$SKPOLY
 70
    0
  9
$USRTIMER
 70
    1
  9
$ANGBASE
 50
0
  9
$ANGDIR
 70
    0
  9
$PDMODE
 70
    0
  9
$PDSIZE
 40
0
  9
$PLINEWID
 40
0
  9
$SPLFRAME
 70
    0
  9
$SPLINETYPE
 70
    6
  9
$SPLINESEGS
 70
    8
  9
$HANDSEED
  5
20000
  9
$SURFTAB1
 70
    6
  9
$SURFTAB2
 70
    6
  9
$SURFTYPE
 70
    6
  9
$SURFU
 70
    6
  9
$SURFV
 70
    6
  9
$UCSBASE
  2

  9
$UCSNAME
  2

  9
$UCSORG
 10
0
 20
0
 30
0
  9
$UCSXDIR
 10
1
 20
0
 30
0
  9
$UCSYDIR
 10
0
 20
1
 30
0
  9
$UCSORTHOREF
  2

  9
$UCSORTHOVIEW
 70
    0
  9
$UCSORGTOP
 10
0
 20
0
 30
0
  9
$UCSORGBOTTOM
 10
0
 20
0
 30
0
  9
$UCSORGLEFT
 10
0
 20
0
 30
0
  9
$UCSORGRIGHT
 10
0
 20
0
 30
0
  9
$UCSORGFRONT
 10
0
 20
0
 30
0
  9
$UCSORGBACK
 10
0
 20
0
 30
0
  9
$PUCSBASE
  2

  9
$PUCSNAME
  2

  9
$PUCSORG
 10
0
 20
0
 30
0
  9
$PUCSXDIR
 10
1
 20
0
 30
0
  9
$PUCSYDIR
 10
0
 20
1
 30
0
  9
$PUCSORTHOREF
  2

  9
$PUCSORTHOVIEW
 70
    0
  9
$PUCSORGTOP
 10
0
 20
0
 30
0
  9
$PUCSORGBOTTOM
 10
0
 20
0
 30
0
  9
$PUCSORGLEFT
 10
0
 20
0
 30
0
  9
$PUCSORGRIGHT
 10
0
 20
0
 30
0
  9
$PUCSORGFRONT
 10
0
 20
0
 30
0
  9
$PUCSORGBACK
 10
0
 20
0
 30
0
  9
$USERI1
 70
    0
  9
$USERI2
 70
    0
  9
$USERI3
 70
    0
  9
$USERI4
 70
    0
  9
$USERI5
 70
    0
  9
$USERR1
 40
0
  9
$USERR2
 40
0
  9
$USERR3
 40
0
  9
$USERR4
 40
0
  9
$USERR5
 40
0
  9
$WORLDVIEW
 70
    1
  9
$SHADEDGE
 70
    3
  9
$SHADEDIF
 70
   70
  9
$TILEMODE
 70
    1
  9
$MAXACTVP
 70
   64
  9
$PINSBASE
 10
0
 20
0
 30
0
  9
$PLIMCHECK
 70
    0
  9
$PEXTMIN
 10
0
 20
0
 30
0
  9
$PEXTMAX
 10
594
 20
420
 30
0
  9
$GRIDMODE
 70
    0
  9
$SNAPSTYLE
 70
    0
  9
$PLIMMIN
 10
0
 20
0
  9
$PLIMMAX
 10
594
 20
420
  9
$UNITMODE
 70
    0
  9
$VISRETAIN
 70
    1
  9
$PLINEGEN
 70
    0
  9
$PSLTSCALE
 70
    1
  9
$TREEDEPTH
 70
 3020
  9
$CMLSTYLE
  2
Standard
  9
$CMLJUST
 70
    0
  9
$CMLSCALE
 40
20
  9
$PROXYGRAPHICS
 70
    1
  9
$MEASUREMENT
 70
    1
  9
$CELWEIGHT
370
   -1
  9
$ENDCAPS
280
    0
  9
$JOINSTYLE
280
    0
  9
$LWDISPLAY
290
    0
  9
$INSUNITS
 70
    4
  9
$HYPERLINKBASE
  1

  9
$STYLESHEET
  1

  9
$XEDIT
290
    1
  9
$CEPSNTYPE
380
    0
  9
$PSTYLEMODE
290
    1
  9
$EXTNAMES
290
    1
  9
$PSVPSCALE
 40
0
  9
$OLESTARTUP
290
    0
  9
$SORTENTS
280
  127
  9
$INDEXCTL
280
    0
  9
$HIDETEXT
280
    1
  9
$XCLIPFRAME
290
    0
  9
$HALOGAP
280
    0
  9
$OBSCOLOR
 70
  257
  9
$OBSLTYPE
280
    0
  9
$INTERSECTIONDISPLAY
280
    0
  9
$INTERSECTIONCOLOR
 70
  257
  9
$DIMASSOC
280
    1
  9
$PROJECTNAME
  1

  0
ENDSEC
  0
SECTION
  2
CLASSES
  0
ENDSEC
  0
SECTION
  2
TABLES
  0
TABLE
  2
VPORT
  5
8
330
0
100
AcDbSymbolTable
 70
    1
  0
VPORT
  5
31
330
2
100
AcDbSymbolTableRecord
100
AcDbViewportTableRecord
  2
*ACTIVE
 70
    0
 10
0
 20
0
 11
1
 21
1
 12
1063.424321197635
 22
421.8654151265652
 13
0
 23
0
 14
10
 24
10
 15
10
 25
10
 16
0
 26
0
 36
1
 17
0
 27
0
 37
0
 40
762.8620605803063
 41
1.886925795053004
 42
50
 43
0
 44
0
 50
0
 51
0
 71
    0
 72
  100
 73
    1
 74
    3
 75
    0
 76
    0
 77
    0
 78
    0
281
    0
 65
    1
110
0
120
0
130
0
111
1
121
0
131
0
112
0
122
1
132
0
 79
    0
146
0
  0
ENDTAB
  0
TABLE
  2
LTYPE
  5
5
330
0
100
AcDbSymbolTable
 70
    4
  0
LTYPE
  5
14
330
5
100
AcDbSymbolTableRecord
100
AcDbLinetypeTableRecord
  2
ByBlock
 70
    0
  3

 72
   65
 73
    0
 40
0
  0
LTYPE
  5
15
330
5
100
AcDbSymbolTableRecord
100
AcDbLinetypeTableRecord
  2
ByLayer
 70
    0
  3

 72
   65
 73
    0
 40
0
  0
LTYPE
  5
16
330
5
100
AcDbSymbolTableRecord
100
AcDbLinetypeTableRecord
  2
Continuous
 70
    0
  3
Solid line
 72
   65
 73
    0
 40
0
  0
LTYPE
  5
32
330
5
100
AcDbSymbolTableRecord
100
AcDbLinetypeTableRecord
  2
DOT
 70
    0
  3
Dot . . . . . . . . . . . . . . . . . . . . . .
 72
   65
 73
    2
 40
6.35
 49
0
 74
    0
 49
-6.35
 74
    0
  0
LTYPE
  5
33
330
5
100
AcDbSymbolTableRecord
100
AcDbLinetypeTableRecord
  2
DOTTINY
 70
    0
  3
Dot (.15x) .....................................
 72
   65
 73
    2
 40
0.9525
 49
0
 74
    0
 49
-0.9525
 74
    0
  0
LTYPE
  5
34
330
5
100
AcDbSymbolTableRecord
100
AcDbLinetypeTableRecord
  2
DOT2
 70
    0
  3
Dot (.5x) .....................................
 72
   65
 73
    2
 40
3.175
 49
0
 74
    0
 49
-3.175
 74
    0
  0
LTYPE
  5
35
330
5
100
AcDbSymbolTableRecord
100
AcDbLinetypeTableRecord
  2
DOTX2
 70
    0
  3
Dot (2x) .  .  .  .  .  .  .  .  .  .  .  .  .
 72
   65
 73
    2
 40
12.7
 49
0
 74
    0
 49
-12.7
 74
    0
  0
LTYPE
  5
36
330
5
100
AcDbSymbolTableRecord
100
AcDbLinetypeTableRecord
  2
DASHED
 70
    0
  3
Dashed _ _ _ _ _ _ _ _ _ _ _ _ _ _ _ _ _
 72
   65
 73
    2
 40
19.05
 49
12.7
 74
    0
 49
-6.35
 74
    0
  0
LTYPE
  5
37
330
5
100
AcDbSymbolTableRecord
100
AcDbLinetypeTableRecord
  2
DASHEDTINY
 70
    0
  3
Dashed (.15x) _ _ _ _ _ _ _ _ _ _ _ _ _ _ _ _ _
 72
   65
 73
    2
 40
2.8575
 49
1.905
 74
    0
 49
-0.9525
 74
    0
  0
LTYPE
  5
38
330
5
100
AcDbSymbolTableRecord
100
AcDbLinetypeTableRecord
  2
DASHED2
 70
    0
  3
Dashed (.5x) _ _ _ _ _ _ _ _ _ _ _ _ _ _ _ _ _
 72
   65
 73
    2
 40
9.524999999999999
 49
6.35
 74
    0
 49
-3.175
 74
    0
  0
LTYPE
  5
39
330
5
100
AcDbSymbolTableRecord
100
AcDbLinetypeTableRecord
  2
DASHEDX2
 70
    0
  3
Dashed (2x) ____  ____  ____  ____  ____  ___
 72
   65
 73
    2
 40
38.09999999999999
 49
25.4
 74
    0
 49
-12.7
 74
    0
  0
LTYPE
  5
3A
330
5
100
AcDbSymbolTableRecord
100
AcDbLinetypeTableRecord
  2
DASHDOT
 70
    0
  3
Dash dot __ . __ . __ . __ . __ . __ . __ . __
 72
   65
 73
    4
 40
25.4
 49
12.7
 74
    0
 49
-6.35
 74
    0
 49
0
 74
    0
 49
-6.35
 74
    0
  0
LTYPE
  5
3B
330
5
100
AcDbSymbolTableRecord
100
AcDbLinetypeTableRecord
  2
DASHDOTTINY
 70
    0
  3
Dash dot (.15x) _._._._._._._._._._._._._._._.
 72
   65
 73
    4
 40
3.81
 49
1.905
 74
    0
 49
-0.9525
 74
    0
 49
0
 74
    0
 49
-0.9525
 74
    0
  0
LTYPE
  5
3C
330
5
100
AcDbSymbolTableRecord
100
AcDbLinetypeTableRecord
  2
DASHDOT2
 70
    0
  3
Dash dot (.5x) _._._._._._._._._._._._._._._.
 72
   65
 73
    4
 40
12.7
 49
6.35
 74
    0
 49
-3.175
 74
    0
 49
0
 74
    0
 49
-3.175
 74
    0
  0
LTYPE
  5
3D
330
5
100
AcDbSymbolTableRecord
100
AcDbLinetypeTableRecord
  2
DASHDOTX2
 70
    0
  3
Dash dot (2x) ____  .  ____  .  ____  .  ___
 72
   65
 73
    4
 40
50.8
 49
25.4
 74
    0
 49
-12.7
 74
    0
 49
0
 74
    0
 49
-12.7
 74
    0
  0
LTYPE
  5
3E
330
5
100
AcDbSymbolTableRecord
100
AcDbLinetypeTableRecord
  2
DIVIDE
 70
    0
  3
Divide ____ . . ____ . . ____ . . ____ . . ____
 72
   65
 73
    6
 40
31.75
 49
12.7
 74
    0
 49
-6.35
 74
    0
 49
0
 74
    0
 49
-6.35
 74
    0
 49
0
 74
    0
 49
-6.35
 74
    0
  0
LTYPE
  5
3F
330
5
100
AcDbSymbolTableRecord
100
AcDbLinetypeTableRecord
  2
DIVIDETINY
 70
    0
  3
Divide (.15x) __..__..__..__..__..__..__..__.._
 72
   65
 73
    6
 40
4.7625
 49
1.905
 74
    0
 49
-0.9525
 74
    0
 49
0
 74
    0
 49
-0.9525
 74
    0
 49
0
 74
    0
 49
-0.9525
 74
    0
  0
LTYPE
  5
40
330
5
100
AcDbSymbolTableRecord
100
AcDbLinetypeTableRecord
  2
DIVIDE2
 70
    0
  3
Divide (.5x) __..__..__..__..__..__..__..__.._
 72
   65
 73
    6
 40
15.875
 49
6.35
 74
    0
 49
-3.175
 74
    0
 49
0
 74
    0
 49
-3.175
 74
    0
 49
0
 74
    0
 49
-3.175
 74
    0
  0
LTYPE
  5
41
330
5
100
AcDbSymbolTableRecord
100
AcDbLinetypeTableRecord
  2
DIVIDEX2
 70
    0
  3
Divide (2x) ________  .  .  ________  .  .  _
 72
   65
 73
    6
 40
63.5
 49
25.4
 74
    0
 49
-12.7
 74
    0
 49
0
 74
    0
 49
-12.7
 74
    0
 49
0
 74
    0
 49
-12.7
 74
    0
  0
LTYPE
  5
42
330
5
100
AcDbSymbolTableRecord
100
AcDbLinetypeTableRecord
  2
BORDER
 70
    0
  3
Border __ __ . __ __ . __ __ . __ __ . __ __ .
 72
   65
 73
    6
 40
44.45
 49
12.7
 74
    0
 49
-6.35
 74
    0
 49
12.7
 74
    0
 49
-6.35
 74
    0
 49
0
 74
    0
 49
-6.35
 74
    0
  0
LTYPE
  5
43
330
5
100
AcDbSymbolTableRecord
100
AcDbLinetypeTableRecord
  2
BORDERTINY
 70
    0
  3
Border (.15x) __.__.__.__.__.__.__.__.__.__.__.
 72
   65
 73
    6
 40
6.6675
 49
1.905
 74
    0
 49
-0.9525
 74
    0
 49
1.905
 74
    0
 49
-0.9525
 74
    0
 49
0
 74
    0
 49
-0.9525
 74
    0
  0
LTYPE
  5
44
330
5
100
AcDbSymbolTableRecord
100
AcDbLinetypeTableRecord
  2
BORDER2
 70
    0
  3
Border (.5x) __.__.__.__.__.__.__.__.__.__.__.
 72
   65
 73
    6
 40
22.225
 49
6.35
 74
    0
 49
-3.175
 74
    0
 49
6.35
 74
    0
 49
-3.175
 74
    0
 49
0
 74
    0
 49
-3.175
 74
    0
  0
LTYPE
  5
45
330
5
100
AcDbSymbolTableRecord
100
AcDbLinetypeTableRecord
  2
BORDERX2
 70
    0
  3
Border (2x) ____  ____  .  ____  ____  .  ___
 72
   65
 73
    6
 40
88.89999999999999
 49
25.4
 74
    0
 49
-12.7
 74
    0
 49
25.4
 74
    0
 49
-12.7
 74
    0
 49
0
 74
    0
 49
-12.7
 74
    0
  0
LTYPE
  5
46
330
5
100
AcDbSymbolTableRecord
100
AcDbLinetypeTableRecord
  2
CENTER
 70
    0
  3
Center ____ _ ____ _ ____ _ ____ _ ____ _ ____
 72
   65
 73
    4
 40
50.8
 49
31.75
 74
    0
 49
-6.35
 74
    0
 49
6.35
 74
    0
 49
-6.35
 74
    0
  0
LTYPE
  5
47
330
5
100
AcDbSymbolTableRecord
100
AcDbLinetypeTableRecord
  2
CENTERTINY
 70
    0
  3
Center (.15x) ___ _ ___ _ ___ _ ___ _ ___ _ ___
 72
   65
 73
    4
 40
7.62
 49
4.7625
 74
    0
 49
-0.9525
 74
    0
 49
0.9525
 74
    0
 49
-0.9525
 74
    0
  0
LTYPE
  5
48
330
5
100
AcDbSymbolTableRecord
100
AcDbLinetypeTableRecord
  2
CENTER2
 70
    0
  3
Center (.5x) ___ _ ___ _ ___ _ ___ _ ___ _ ___
 72
   65
 73
    4
 40
28.575
 49
19.05
 74
    0
 49
-3.175
 74
    0
 49
3.175
 74
    0
 49
-3.175
 74
    0
  0
LTYPE
  5
49
330
5
100
AcDbSymbolTableRecord
100
AcDbLinetypeTableRecord
  2
CENTERX2
 70
    0
  3
Center (2x) ________  __  ________  __  _____
 72
   65
 73
    4
 40
101.6
 49
63.5
 74
    0
 49
-12.7
 74
    0
 49
12.7
 74
    0
 49
-12.7
 74
    0
  0
ENDTAB
  0
TABLE
  2
LAYER
  5
2
330
0
100
AcDbSymbolTable
 70
    1
  0
LAYER
  5
10
330
2
100
AcDbSymbolTableRecord
100
AcDbLayerTableRecord
  2
0
 70
    0
 62
    7
  6
CONTINUOUS
370
   -3
390
F
  0
LAYER
  5
4A
330
2
100
AcDbSymbolTableRecord
100
AcDbLayerTableRecord
  2
Default
 70
    0
 62
    7
  6
CONTINUOUS
370
   -3
390
F
  0
LAYER
  5
4B
330
2
100
AcDbSymbolTableRecord
100
AcDbLayerTableRecord
  2
PART7
 70
    0
 62
    7
  6
CONTINUOUS
370
   -3
390
F
  0
LAYER
  5
4C
330
2
100
AcDbSymbolTableRecord
100
AcDbLayerTableRecord
  2
PLATE
 70
    0
 62
    7
  6
CONTINUOUS
370
   -3
390
F
  0
LAYER
  5
4D
330
2
100
AcDbSymbolTableRecord
100
AcDbLayerTableRecord
  2
SIDE
 70
    0
 62
    7
  6
CONTINUOUS
370
   -3
390
F
  0
LAYER
  5
4E
330
2
100
AcDbSymbolTableRecord
100
AcDbLayerTableRecord
  2
TRIANGLE
 70
    0
 62
    7
  6
CONTINUOUS
370
   -3
390
F
  0
ENDTAB
  0
TABLE
  2
STYLE
  5
3
330
0
100
AcDbSymbolTable
 70
    3
  0
STYLE
  5
4F
330
2
100
AcDbSymbolTableRecord
100
AcDbTextStyleTableRecord
  2
Standard
 70
    0
 40
0
 41
1
 50
0
 71
    0
 42
1
  3
txt
  4

  0
ENDTAB
  0
TABLE
  2
VIEW
  5
6
330
0
100
AcDbSymbolTable
 70
    0
  0
ENDTAB
  0
TABLE
  2
UCS
  5
7
330
0
100
AcDbSymbolTable
 70
    0
  0
ENDTAB
  0
TABLE
  2
APPID
  5
9
330
0
100
AcDbSymbolTable
 70
    1
  0
APPID
  5
12
330
9
100
AcDbSymbolTableRecord
100
AcDbRegAppTableRecord
  2
ACAD
 70
    0
  0
APPID
  5
50
330
9
100
AcDbSymbolTableRecord
100
AcDbRegAppTableRecord
  2
LibreCad
 70
    0
  0
ENDTAB
  0
TABLE
  2
DIMSTYLE
  5
A
330
0
100
AcDbSymbolTable
 70
    1
100
AcDbDimStyleTable
 71
    1
  0
DIMSTYLE
105
51
330
A
100
AcDbSymbolTableRecord
100
AcDbDimStyleTableRecord
  2
Standard
 70
    0
 40
1
 41
2.5
 42
0.625
 43
0.38
 44
1.25
 45
0
 46
0
 47
0
 48
0
 49
1
140
2.5
141
0.09
142
0
143
25.4
144
1
145
0
146
1
147
0.625
148
0
 71
    0
 72
    0
 73
    0
 74
    1
 75
    0
 76
    0
 77
    0
 78
    8
 79
    0
170
    0
171
    2
172
    0
173
    0
174
    0
175
    0
176
    0
177
    0
178
    0
179
    0
271
    2
272
    4
273
    2
274
    2
275
    0
276
    0
277
    2
278
   44
279
    0
280
    0
281
    0
282
    0
283
    1
284
    0
285
    0
286
    0
288
    0
289
    3
340
Standard
341

371
   -2
372
   -2
  0
ENDTAB
  0
TABLE
  2
BLOCK_RECORD
  5
1
330
0
100
AcDbSymbolTable
 70
    2
  0
BLOCK_RECORD
  5
1F
330
1
100
AcDbSymbolTableRecord
100
AcDbBlockTableRecord
  2
*Model_Space
  0
BLOCK_RECORD
  5
1E
330
1
100
AcDbSymbolTableRecord
100
AcDbBlockTableRecord
  2
*Paper_Space
  0
BLOCK_RECORD
  5
52
330
1
100
AcDbSymbolTableRecord
100
AcDbBlockTableRecord
  2
SE
  0
BLOCK_RECORD
  5
55
330
1
100
AcDbSymbolTableRecord
100
AcDbBlockTableRecord
  2
SE1
  0
BLOCK_RECORD
  5
58
330
1
100
AcDbSymbolTableRecord
100
AcDbBlockTableRecord
  2
SE2
  0
BLOCK_RECORD
  5
5B
330
1
100
AcDbSymbolTableRecord
100
AcDbBlockTableRecord
  2
SE3
  0
ENDTAB
  0
ENDSEC
  0
SECTION
  2
BLOCKS
  0
BLOCK
  5
20
330
1F
100
AcDbEntity
  8
0
100
AcDbBlockBegin
  2
*Model_Space
 70
    0
 10
0
 20
0
 30
0
  3
*Model_Space
  1

  0
ENDBLK
  5
21
330
1F
100
AcDbEntity
  8
0
100
AcDbBlockEnd
  0
BLOCK
  5
1C
330
1B
100
AcDbEntity
  8
0
100
AcDbBlockBegin
  2
*Paper_Space
 70
    0
 10
0
 20
0
 30
0
  3
*Paper_Space
  1

  0
ENDBLK
  5
1D
330
1F
100
AcDbEntity
  8
0
100
AcDbBlockEnd
  0
BLOCK
  5
53
330
52
100
AcDbEntity
  8
0
100
AcDbBlockBegin
  2
SE
 70
    0
 10
0
 20
0
  3
SE
  1

  0
LINE
  5
5E
100
AcDbEntity
  8
PLATE
  6
CONTINUOUS
 62
    7
370
   -1
100
AcDbLine
 10
911.6767398114
 20
680.7845009178
 11
911.6767398114
 21
483.7845009178
  0
ARC
  5
5F
100
AcDbEntity
  8
PLATE
  6
CONTINUOUS
 62
    7
370
   -1
100
AcDbCircle
 10
930.6767398114
 20
680.7845009178
 40
19
100
AcDbArc
 50
90
 51
180
  0
LINE
  5
60
100
AcDbEntity
  8
PLATE
  6
CONTINUOUS
 62
    7
370
   -1
100
AcDbLine
 10
1146.6767398114
 20
483.7845009178
 11
1146.6767398114
 21
680.7845009178
  0
ARC
  5
61
100
AcDbEntity
  8
PLATE
  6
CONTINUOUS
 62
    7
370
   -1
100
AcDbCircle
 10
1127.6767398114
 20
483.7845009178
 40
19
100
AcDbArc
 50
270
 51
0
  0
LINE
  5
62
100
AcDbEntity
  8
PLATE
  6
CONTINUOUS
 62
    7
370
   -1
100
AcDbLine
 10
930.6767398114
 20
464.7845009178
 11
1127.6767398114
 21
464.7845009178
  0
ARC
  5
63
100
AcDbEntity
  8
PLATE
  6
CONTINUOUS
 62
    7
370
   -1
100
AcDbCircle
 10
930.6767398114
 20
483.7845009178
 40
19
100
AcDbArc
 50
180
 51
270
  0
LINE
  5
64
100
AcDbEntity
  8
PLATE
  6
CONTINUOUS
 62
    7
370
   -1
100
AcDbLine
 10
1127.6767398114
 20
699.7845009178
 11
930.6767398114
 21
699.7845009178
  0
ARC
  5
65
100
AcDbEntity
  8
PLATE
  6
CONTINUOUS
 62
    7
370
   -1
100
AcDbCircle
 10
1127.6767398114
 20
680.7845009178
 40
19.00000000000002
100
AcDbArc
 50
0
 51
90
  0
CIRCLE
  5
66
100
AcDbEntity
  8
PLATE
  6
CONTINUOUS
 62
    7
370
   -1
100
AcDbCircle
 10
1029.1767398114
 20
582.2845009178
 40
16
  0
LINE
  5
67
100
AcDbEntity
  8
PLATE
  6
CONTINUOUS
 62
    7
370
   -1
100
AcDbLine
 10
1099.900370744
 20
681.2924030979
 11
1093.4191866339
 21
674.8112189878
  0
LINE
  5
68
100
AcDbEntity
  8
PLATE
  6
CONTINUOUS
 62
    7
370
   -1
100
AcDbLine
 10
1093.4191866339
 20
674.8112189878
 11
1121.7034578814
 21
646.5269477403
  0
LINE
  5
69
100
AcDbEntity
  8
PLATE
  6
CONTINUOUS
 62
    7
370
   -1
100
AcDbLine
 10
1098.3187526829
 20
679.7107850368
 11
1126.6030239304
 21
651.4265137894
  0
LINE
  5
6A
100
AcDbEntity
  8
PLATE
  6
DASHEDTINY
 62
    7
370
   -1
100
AcDbLine
 10
1104.799936793
 20
686.1919691469
 11
1133.0842080405
 21
657.9076978995
  0
LINE
  5
6B
100
AcDbEntity
  8
PLATE
  6
DASHEDTINY
 62
    7
370
   -1
100
AcDbLine
 10
1104.799936793
 20
686.1919691469
 11
1099.900370744
 21
681.2924030979
  0
LINE
  5
6C
100
AcDbEntity
  8
PLATE
  6
CONTINUOUS
 62
    7
370
   -1
100
AcDbLine
 10
1099.900370744
 20
681.2924030979
 11
1128.1846419915
 21
653.0081318504
  0
LINE
  5
6D
100
AcDbEntity
  8
PLATE
  6
CONTINUOUS
 62
    7
370
   -1
100
AcDbLine
 10
1128.1846419915
 20
653.0081318504
 11
1121.7034578814
 21
646.5269477403
  0
LINE
  5
6E
100
AcDbEntity
  8
PLATE
  6
DASHEDTINY
 62
    7
370
   -1
100
AcDbLine
 10
1133.0842080405
 20
657.9076978995
 11
1128.1846419915
 21
653.0081318504
  0
LINE
  5
6F
100
AcDbEntity
  8
PLATE
  6
CONTINUOUS
 62
    7
370
   -1
100
AcDbLine
 10
1128.1846419915
 20
511.5608699852
 11
1121.7034578814
 21
518.0420540953
  0
LINE
  5
70
100
AcDbEntity
  8
PLATE
  6
CONTINUOUS
 62
    7
370
   -1
100
AcDbLine
 10
1121.7034578814
 20
518.0420540953
 11
1093.4191866339
 21
489.7577828478
  0
LINE
  5
71
100
AcDbEntity
  8
PLATE
  6
CONTINUOUS
 62
    7
370
   -1
100
AcDbLine
 10
1126.6030239304
 20
513.1424880462
 11
1098.3187526829
 21
484.8582167988
  0
LINE
  5
72
100
AcDbEntity
  8
PLATE
  6
DASHEDTINY
 62
    7
370
   -1
100
AcDbLine
 10
1133.0842080405
 20
506.6613039361
 11
1104.799936793
 21
478.3770326887
  0
LINE
  5
73
100
AcDbEntity
  8
PLATE
  6
DASHEDTINY
 62
    7
370
   -1
100
AcDbLine
 10
1133.0842080405
 20
506.6613039361
 11
1128.1846419915
 21
511.5608699852
  0
LINE
  5
74
100
AcDbEntity
  8
PLATE
  6
CONTINUOUS
 62
    7
370
   -1
100
AcDbLine
 10
1128.1846419915
 20
511.5608699852
 11
1099.900370744
 21
483.2765987377
  0
LINE
  5
75
100
AcDbEntity
  8
PLATE
  6
CONTINUOUS
 62
    7
370
   -1
100
AcDbLine
 10
1099.900370744
 20
483.2765987377
 11
1093.4191866339
 21
489.7577828478
  0
LINE
  5
76
100
AcDbEntity
  8
PLATE
  6
DASHEDTINY
 62
    7
370
   -1
100
AcDbLine
 10
1104.799936793
 20
478.3770326887
 11
1099.900370744
 21
483.2765987377
  0
LINE
  5
77
100
AcDbEntity
  8
PLATE
  6
CONTINUOUS
 62
    7
370
   -1
100
AcDbLine
 10
958.4531088787
 20
483.2765987377
 11
964.9342929888001
 21
489.7577828478
  0
LINE
  5
78
100
AcDbEntity
  8
PLATE
  6
CONTINUOUS
 62
    7
370
   -1
100
AcDbLine
 10
964.9342929888001
 20
489.7577828478
 11
936.6500217414
 21
518.0420540953
  0
LINE
  5
79
100
AcDbEntity
  8
PLATE
  6
CONTINUOUS
 62
    7
370
   -1
100
AcDbLine
 10
960.0347269398
 20
484.8582167988
 11
931.7504556923
 21
513.1424880462
  0
LINE
  5
7A
100
AcDbEntity
  8
PLATE
  6
DASHEDTINY
 62
    7
370
   -1
100
AcDbLine
 10
953.5535428296999
 20
478.3770326887
 11
925.2692715822
 21
506.6613039361
  0
LINE
  5
7B
100
AcDbEntity
  8
PLATE
  6
DASHEDTINY
 62
    7
370
   -1
100
AcDbLine
 10
953.5535428296999
 20
478.3770326887
 11
958.4531088787
 21
483.2765987377
  0
LINE
  5
7C
100
AcDbEntity
  8
PLATE
  6
CONTINUOUS
 62
    7
370
   -1
100
AcDbLine
 10
958.4531088787
 20
483.2765987377
 11
930.1688376313
 21
511.5608699852
  0
LINE
  5
7D
100
AcDbEntity
  8
PLATE
  6
CONTINUOUS
 62
    7
370
   -1
100
AcDbLine
 10
930.1688376313
 20
511.5608699852
 11
936.6500217414
 21
518.0420540953
  0
LINE
  5
7E
100
AcDbEntity
  8
PLATE
  6
DASHEDTINY
 62
    7
370
   -1
100
AcDbLine
 10
925.2692715822
 20
506.6613039361
 11
930.1688376313
 21
511.5608699852
  0
LINE
  5
7F
100
AcDbEntity
  8
PLATE
  6
CONTINUOUS
 62
    7
370
   -1
100
AcDbLine
 10
930.1688376313
 20
653.0081318504
 11
936.6500217414
 21
646.5269477403
  0
LINE
  5
80
100
AcDbEntity
  8
PLATE
  6
CONTINUOUS
 62
    7
370
   -1
100
AcDbLine
 10
936.6500217414
 20
646.5269477403
 11
964.9342929888001
 21
674.8112189878
  0
LINE
  5
81
100
AcDbEntity
  8
PLATE
  6
CONTINUOUS
 62
    7
370
   -1
100
AcDbLine
 10
931.7504556923
 20
651.4265137894
 11
960.0347269398
 21
679.7107850368
  0
LINE
  5
82
100
AcDbEntity
  8
PLATE
  6
DASHEDTINY
 62
    7
370
   -1
100
AcDbLine
 10
925.2692715822
 20
657.9076978995
 11
953.5535428296999
 21
686.1919691469
  0
LINE
  5
83
100
AcDbEntity
  8
PLATE
  6
DASHEDTINY
 62
    7
370
   -1
100
AcDbLine
 10
925.2692715822
 20
657.9076978995
 11
930.1688376313
 21
653.0081318504
  0
LINE
  5
84
100
AcDbEntity
  8
PLATE
  6
CONTINUOUS
 62
    7
370
   -1
100
AcDbLine
 10
930.1688376313
 20
653.0081318504
 11
958.4531088787
 21
681.2924030979
  0
LINE
  5
85
100
AcDbEntity
  8
PLATE
  6
CONTINUOUS
 62
    7
370
   -1
100
AcDbLine
 10
958.4531088787
 20
681.2924030979
 11
964.9342929888001
 21
674.8112189878
  0
LINE
  5
86
100
AcDbEntity
  8
PLATE
  6
DASHEDTINY
 62
    7
370
   -1
100
AcDbLine
 10
953.5535428296999
 20
686.1919691469
 11
958.4531088787
 21
681.2924030979
  0
CIRCLE
  5
87
100
AcDbEntity
  8
PLATE
  6
CONTINUOUS
 62
    7
370
   -1
100
AcDbCircle
 10
988.8746525986001
 20
541.9824137051
 40
1.5
  0
CIRCLE
  5
88
100
AcDbEntity
  8
PLATE
  6
CONTINUOUS
 62
    7
370
   -1
100
AcDbCircle
 10
988.8740224565
 20
622.5919566182
 40
1.5
  0
CIRCLE
  5
89
100
AcDbEntity
  8
PLATE
  6
CONTINUOUS
 62
    7
370
   -1
100
AcDbCircle
 10
1069.4841955504
 20
622.5919566568
 40
1.5
  0
CIRCLE
  5
8A
100
AcDbEntity
  8
PLATE
  6
CONTINUOUS
 62
    7
370
   -1
100
AcDbCircle
 10
1069.486204716
 20
541.9837927672
 40
1.5
  0
ENDBLK
  5
54
330
52
100
AcDbEntity
  8
0
100
AcDbBlockEnd
  0
BLOCK
  5
56
330
55
100
AcDbEntity
  8
0
100
AcDbBlockBegin
  2
SE1
 70
    0
 10
0
 20
0
  3
SE1
  1

  0
LINE
  5
8B
100
AcDbEntity
  8
SIDE
  6
CONTINUOUS
 62
    7
370
   -1
100
AcDbLine
 10
1363.9688559423
 20
617.5417501166
 11
1110.7739072685
 21
282.6066999025
  0
ARC
  5
8C
100
AcDbEntity
  8
SIDE
  6
CONTINUOUS
 62
    7
370
   -1
100
AcDbCircle
 10
1389.4957372949
 20
598.2446433799
 40
32.00000000000006
100
AcDbArc
 50
37.0875443844
 51
142.9124556156
  0
LINE
  5
8D
100
AcDbEntity
  8
SIDE
  6
CONTINUOUS
 62
    7
370
   -1
100
AcDbLine
 10
1136.3007886211
 20
231.3095931657
 11
1642.6906859687
 21
231.3095931657
  0
ARC
  5
8E
100
AcDbEntity
  8
SIDE
  6
CONTINUOUS
 62
    7
370
   -1
100
AcDbCircle
 10
1136.3007886211
 20
263.3095931657
 40
32.00000000000001
100
AcDbArc
 50
142.9124556156
 51
270
  0
LINE
  5
8F
100
AcDbEntity
  8
SIDE
  6
CONTINUOUS
 62
    7
370
   -1
100
AcDbLine
 10
1668.2175673213
 20
282.6066999025
 11
1415.0226186475
 21
617.5417501166
  0
ARC
  5
90
100
AcDbEntity
  8
SIDE
  6
CONTINUOUS
 62
    7
370
   -1
100
AcDbCircle
 10
1642.6906859687
 20
263.3095931657
 40
31.99999999999998
100
AcDbArc
 50
270
 51
37.0875443844
  0
LINE
  5
91
100
AcDbEntity
  8
SIDE
  6
CONTINUOUS
 62
    7
370
   -1
100
AcDbLine
 10
1452.9957372949
 20
500.6978669347
 11
1452.9957372949
 21
509.8636454034
  0
LINE
  5
92
100
AcDbEntity
  8
SIDE
  6
CONTINUOUS
 62
    7
370
   -1
100
AcDbLine
 10
1452.9957372949
 20
509.8636454034
 11
1325.9957372949
 21
509.8636454034
  0
LINE
  5
93
100
AcDbEntity
  8
SIDE
  6
DASHEDTINY
 62
    7
370
   -1
100
AcDbLine
 10
1452.9957372949
 20
509.8636454034
 11
1452.9957372949
 21
516.7926781597
  0
LINE
  5
94
100
AcDbEntity
  8
SIDE
  6
DASHEDTINY
 62
    7
370
   -1
100
AcDbLine
 10
1452.9957372949
 20
516.7926781597
 11
1325.9957372949
 21
516.7926781597
  0
LINE
  5
95
100
AcDbEntity
  8
SIDE
  6
CONTINUOUS
 62
    7
370
   -1
100
AcDbLine
 10
1452.9957372949
 20
507.626899691
 11
1325.9957372949
 21
507.626899691
  0
LINE
  5
96
100
AcDbEntity
  8
SIDE
  6
CONTINUOUS
 62
    7
370
   -1
100
AcDbLine
 10
1452.9957372949
 20
500.6978669347
 11
1325.9957372949
 21
500.6978669347
  0
LINE
  5
97
100
AcDbEntity
  8
SIDE
  6
CONTINUOUS
 62
    7
370
   -1
100
AcDbLine
 10
1325.9957372949
 20
500.6978669347
 11
1325.9957372949
 21
509.8636454034
  0
LINE
  5
98
100
AcDbEntity
  8
SIDE
  6
DASHEDTINY
 62
    7
370
   -1
100
AcDbLine
 10
1325.9957372949
 20
509.8636454034
 11
1325.9957372949
 21
516.7926781597
  0
LINE
  5
99
100
AcDbEntity
  8
SIDE
  6
CONTINUOUS
 62
    7
370
   -1
100
AcDbLine
 10
1180.4614124626
 20
338.3095931657
 11
1171.0120077007
 21
325.8095931657
  0
LINE
  5
9A
100
AcDbEntity
  8
SIDE
  6
CONTINUOUS
 62
    7
370
   -1
100
AcDbLine
 10
1171.0120077007
 20
325.8095931657
 11
1220.7457372949
 21
325.8095931657
  0
LINE
  5
9B
100
AcDbEntity
  8
SIDE
  6
CONTINUOUS
 62
    7
370
   -1
100
AcDbLine
 10
1220.7457372949
 20
325.8095931657
 11
1220.7457372949
 21
300.8095931657
  0
LINE
  5
9C
100
AcDbEntity
  8
SIDE
  6
CONTINUOUS
 62
    7
370
   -1
100
AcDbLine
 10
1220.7457372949
 20
300.8095931657
 11
1208.2457372949
 21
300.8095931657
  0
LINE
  5
9D
100
AcDbEntity
  8
SIDE
  6
CONTINUOUS
 62
    7
370
   -1
100
AcDbLine
 10
1208.2457372949
 20
300.8095931657
 11
1208.2457372949
 21
313.3095931657
  0
LINE
  5
9E
100
AcDbEntity
  8
SIDE
  6
CONTINUOUS
 62
    7
370
   -1
100
AcDbLine
 10
1208.2457372949
 20
313.3095931657
 11
1170.7457372949
 21
313.3095931657
  0
LINE
  5
9F
100
AcDbEntity
  8
SIDE
  6
CONTINUOUS
 62
    7
370
   -1
100
AcDbLine
 10
1170.7457372949
 20
313.3095931657
 11
1170.7457372949
 21
263.3095931657
  0
LINE
  5
A0
100
AcDbEntity
  8
SIDE
  6
CONTINUOUS
 62
    7
370
   -1
100
AcDbLine
 10
1170.7457372949
 20
263.3095931657
 11
1258.2457372949
 21
263.3095931657
  0
LINE
  5
A1
100
AcDbEntity
  8
SIDE
  6
CONTINUOUS
 62
    7
370
   -1
100
AcDbLine
 10
1258.2457372949
 20
263.3095931657
 11
1258.2457372949
 21
325.8095931657
  0
LINE
  5
A2
100
AcDbEntity
  8
SIDE
  6
CONTINUOUS
 62
    7
370
   -1
100
AcDbLine
 10
1258.2457372949
 20
325.8095931657
 11
1320.7457372949
 21
325.8095931657
  0
LINE
  5
A3
100
AcDbEntity
  8
SIDE
  6
CONTINUOUS
 62
    7
370
   -1
100
AcDbLine
 10
1320.7457372949
 20
325.8095931657
 11
1320.7457372949
 21
300.8095931657
  0
LINE
  5
A4
100
AcDbEntity
  8
SIDE
  6
CONTINUOUS
 62
    7
370
   -1
100
AcDbLine
 10
1320.7457372949
 20
300.8095931657
 11
1308.2457372949
 21
300.8095931657
  0
LINE
  5
A5
100
AcDbEntity
  8
SIDE
  6
CONTINUOUS
 62
    7
370
   -1
100
AcDbLine
 10
1308.2457372949
 20
300.8095931657
 11
1308.2457372949
 21
313.3095931657
  0
LINE
  5
A6
100
AcDbEntity
  8
SIDE
  6
CONTINUOUS
 62
    7
370
   -1
100
AcDbLine
 10
1308.2457372949
 20
313.3095931657
 11
1270.7457372949
 21
313.3095931657
  0
LINE
  5
A7
100
AcDbEntity
  8
SIDE
  6
CONTINUOUS
 62
    7
370
   -1
100
AcDbLine
 10
1270.7457372949
 20
313.3095931657
 11
1270.7457372949
 21
263.3095931657
  0
LINE
  5
A8
100
AcDbEntity
  8
SIDE
  6
CONTINUOUS
 62
    7
370
   -1
100
AcDbLine
 10
1270.7457372949
 20
263.3095931657
 11
1358.2457372949
 21
263.3095931657
  0
LINE
  5
A9
100
AcDbEntity
  8
SIDE
  6
CONTINUOUS
 62
    7
370
   -1
100
AcDbLine
 10
1358.2457372949
 20
263.3095931657
 11
1358.2457372949
 21
325.8095931657
  0
LINE
  5
AA
100
AcDbEntity
  8
SIDE
  6
CONTINUOUS
 62
    7
370
   -1
100
AcDbLine
 10
1358.2457372949
 20
325.8095931657
 11
1420.7457372949
 21
325.8095931657
  0
LINE
  5
AB
100
AcDbEntity
  8
SIDE
  6
CONTINUOUS
 62
    7
370
   -1
100
AcDbLine
 10
1420.7457372949
 20
325.8095931657
 11
1420.7457372949
 21
300.8095931657
  0
LINE
  5
AC
100
AcDbEntity
  8
SIDE
  6
CONTINUOUS
 62
    7
370
   -1
100
AcDbLine
 10
1420.7457372949
 20
300.8095931657
 11
1408.2457372949
 21
300.8095931657
  0
LINE
  5
AD
100
AcDbEntity
  8
SIDE
  6
CONTINUOUS
 62
    7
370
   -1
100
AcDbLine
 10
1408.2457372949
 20
300.8095931657
 11
1408.2457372949
 21
313.3095931657
  0
LINE
  5
AE
100
AcDbEntity
  8
SIDE
  6
CONTINUOUS
 62
    7
370
   -1
100
AcDbLine
 10
1408.2457372949
 20
313.3095931657
 11
1370.7457372949
 21
313.3095931657
  0
LINE
  5
AF
100
AcDbEntity
  8
SIDE
  6
CONTINUOUS
 62
    7
370
   -1
100
AcDbLine
 10
1370.7457372949
 20
313.3095931657
 11
1370.7457372949
 21
263.3095931657
  0
LINE
  5
B0
100
AcDbEntity
  8
SIDE
  6
CONTINUOUS
 62
    7
370
   -1
100
AcDbLine
 10
1370.7457372949
 20
263.3095931657
 11
1458.2457372949
 21
263.3095931657
  0
LINE
  5
B1
100
AcDbEntity
  8
SIDE
  6
CONTINUOUS
 62
    7
370
   -1
100
AcDbLine
 10
1458.2457372949
 20
263.3095931657
 11
1458.2457372949
 21
325.8095931657
  0
LINE
  5
B2
100
AcDbEntity
  8
SIDE
  6
CONTINUOUS
 62
    7
370
   -1
100
AcDbLine
 10
1458.2457372949
 20
325.8095931657
 11
1520.7457372949
 21
325.8095931657
  0
LINE
  5
B3
100
AcDbEntity
  8
SIDE
  6
CONTINUOUS
 62
    7
370
   -1
100
AcDbLine
 10
1520.7457372949
 20
325.8095931657
 11
1520.7457372949
 21
300.8095931657
  0
LINE
  5
B4
100
AcDbEntity
  8
SIDE
  6
CONTINUOUS
 62
    7
370
   -1
100
AcDbLine
 10
1520.7457372949
 20
300.8095931657
 11
1508.2457372949
 21
300.8095931657
  0
LINE
  5
B5
100
AcDbEntity
  8
SIDE
  6
CONTINUOUS
 62
    7
370
   -1
100
AcDbLine
 10
1508.2457372949
 20
300.8095931657
 11
1508.2457372949
 21
313.3095931657
  0
LINE
  5
B6
100
AcDbEntity
  8
SIDE
  6
CONTINUOUS
 62
    7
370
   -1
100
AcDbLine
 10
1508.2457372949
 20
313.3095931657
 11
1470.7457372949
 21
313.3095931657
  0
LINE
  5
B7
100
AcDbEntity
  8
SIDE
  6
CONTINUOUS
 62
    7
370
   -1
100
AcDbLine
 10
1470.7457372949
 20
313.3095931657
 11
1470.7457372949
 21
263.3095931657
  0
LINE
  5
B8
100
AcDbEntity
  8
SIDE
  6
CONTINUOUS
 62
    7
370
   -1
100
AcDbLine
 10
1470.7457372949
 20
263.3095931657
 11
1558.2457372949
 21
263.3095931657
  0
LINE
  5
B9
100
AcDbEntity
  8
SIDE
  6
CONTINUOUS
 62
    7
370
   -1
100
AcDbLine
 10
1558.2457372949
 20
263.3095931657
 11
1558.2457372949
 21
325.8095931657
  0
LINE
  5
BA
100
AcDbEntity
  8
SIDE
  6
CONTINUOUS
 62
    7
370
   -1
100
AcDbLine
 10
1558.2457372949
 20
325.8095931657
 11
1607.9794668891
 21
325.8095931657
  0
LINE
  5
BB
100
AcDbEntity
  8
SIDE
  6
CONTINUOUS
 62
    7
370
   -1
100
AcDbLine
 10
1607.9794668891
 20
325.8095931657
 11
1598.5300621272
 21
338.3095931657
  0
LINE
  5
BC
100
AcDbEntity
  8
SIDE
  6
CONTINUOUS
 62
    7
370
   -1
100
AcDbLine
 10
1598.5300621272
 20
338.3095931657
 11
1545.7457372949
 21
338.3095931657
  0
LINE
  5
BD
100
AcDbEntity
  8
SIDE
  6
CONTINUOUS
 62
    7
370
   -1
100
AcDbLine
 10
1545.7457372949
 20
338.3095931657
 11
1545.7457372949
 21
275.8095931657
  0
LINE
  5
BE
100
AcDbEntity
  8
SIDE
  6
CONTINUOUS
 62
    7
370
   -1
100
AcDbLine
 10
1545.7457372949
 20
275.8095931657
 11
1483.2457372949
 21
275.8095931657
  0
LINE
  5
BF
100
AcDbEntity
  8
SIDE
  6
CONTINUOUS
 62
    7
370
   -1
100
AcDbLine
 10
1483.2457372949
 20
275.8095931657
 11
1483.2457372949
 21
300.8095931657
  0
LINE
  5
C0
100
AcDbEntity
  8
SIDE
  6
CONTINUOUS
 62
    7
370
   -1
100
AcDbLine
 10
1483.2457372949
 20
300.8095931657
 11
1495.7457372949
 21
300.8095931657
  0
LINE
  5
C1
100
AcDbEntity
  8
SIDE
  6
CONTINUOUS
 62
    7
370
   -1
100
AcDbLine
 10
1495.7457372949
 20
300.8095931657
 11
1495.7457372949
 21
288.3095931657
  0
LINE
  5
C2
100
AcDbEntity
  8
SIDE
  6
CONTINUOUS
 62
    7
370
   -1
100
AcDbLine
 10
1495.7457372949
 20
288.3095931657
 11
1533.2457372949
 21
288.3095931657
  0
LINE
  5
C3
100
AcDbEntity
  8
SIDE
  6
CONTINUOUS
 62
    7
370
   -1
100
AcDbLine
 10
1533.2457372949
 20
288.3095931657
 11
1533.2457372949
 21
338.3095931657
  0
LINE
  5
C4
100
AcDbEntity
  8
SIDE
  6
CONTINUOUS
 62
    7
370
   -1
100
AcDbLine
 10
1533.2457372949
 20
338.3095931657
 11
1445.7457372949
 21
338.3095931657
  0
LINE
  5
C5
100
AcDbEntity
  8
SIDE
  6
CONTINUOUS
 62
    7
370
   -1
100
AcDbLine
 10
1445.7457372949
 20
338.3095931657
 11
1445.7457372949
 21
275.8095931657
  0
LINE
  5
C6
100
AcDbEntity
  8
SIDE
  6
CONTINUOUS
 62
    7
370
   -1
100
AcDbLine
 10
1445.7457372949
 20
275.8095931657
 11
1383.2457372949
 21
275.8095931657
  0
LINE
  5
C7
100
AcDbEntity
  8
SIDE
  6
CONTINUOUS
 62
    7
370
   -1
100
AcDbLine
 10
1383.2457372949
 20
275.8095931657
 11
1383.2457372949
 21
300.8095931657
  0
LINE
  5
C8
100
AcDbEntity
  8
SIDE
  6
CONTINUOUS
 62
    7
370
   -1
100
AcDbLine
 10
1383.2457372949
 20
300.8095931657
 11
1395.7457372949
 21
300.8095931657
  0
LINE
  5
C9
100
AcDbEntity
  8
SIDE
  6
CONTINUOUS
 62
    7
370
   -1
100
AcDbLine
 10
1395.7457372949
 20
300.8095931657
 11
1395.7457372949
 21
288.3095931657
  0
LINE
  5
CA
100
AcDbEntity
  8
SIDE
  6
CONTINUOUS
 62
    7
370
   -1
100
AcDbLine
 10
1395.7457372949
 20
288.3095931657
 11
1433.2457372949
 21
288.3095931657
  0
LINE
  5
CB
100
AcDbEntity
  8
SIDE
  6
CONTINUOUS
 62
    7
370
   -1
100
AcDbLine
 10
1433.2457372949
 20
288.3095931657
 11
1433.2457372949
 21
338.3095931657
  0
LINE
  5
CC
100
AcDbEntity
  8
SIDE
  6
CONTINUOUS
 62
    7
370
   -1
100
AcDbLine
 10
1433.2457372949
 20
338.3095931657
 11
1345.7457372949
 21
338.3095931657
  0
LINE
  5
CD
100
AcDbEntity
  8
SIDE
  6
CONTINUOUS
 62
    7
370
   -1
100
AcDbLine
 10
1345.7457372949
 20
338.3095931657
 11
1345.7457372949
 21
275.8095931657
  0
LINE
  5
CE
100
AcDbEntity
  8
SIDE
  6
CONTINUOUS
 62
    7
370
   -1
100
AcDbLine
 10
1345.7457372949
 20
275.8095931657
 11
1283.2457372949
 21
275.8095931657
  0
LINE
  5
CF
100
AcDbEntity
  8
SIDE
  6
CONTINUOUS
 62
    7
370
   -1
100
AcDbLine
 10
1283.2457372949
 20
275.8095931657
 11
1283.2457372949
 21
300.8095931657
  0
LINE
  5
D0
100
AcDbEntity
  8
SIDE
  6
CONTINUOUS
 62
    7
370
   -1
100
AcDbLine
 10
1283.2457372949
 20
300.8095931657
 11
1295.7457372949
 21
300.8095931657
  0
LINE
  5
D1
100
AcDbEntity
  8
SIDE
  6
CONTINUOUS
 62
    7
370
   -1
100
AcDbLine
 10
1295.7457372949
 20
300.8095931657
 11
1295.7457372949
 21
288.3095931657
  0
LINE
  5
D2
100
AcDbEntity
  8
SIDE
  6
CONTINUOUS
 62
    7
370
   -1
100
AcDbLine
 10
1295.7457372949
 20
288.3095931657
 11
1333.2457372949
 21
288.3095931657
  0
LINE
  5
D3
100
AcDbEntity
  8
SIDE
  6
CONTINUOUS
 62
    7
370
   -1
100
AcDbLine
 10
1333.2457372949
 20
288.3095931657
 11
1333.2457372949
 21
338.3095931657
  0
LINE
  5
D4
100
AcDbEntity
  8
SIDE
  6
CONTINUOUS
 62
    7
370
   -1
100
AcDbLine
 10
1333.2457372949
 20
338.3095931657
 11
1245.7457372949
 21
338.3095931657
  0
LINE
  5
D5
100
AcDbEntity
  8
SIDE
  6
CONTINUOUS
 62
    7
370
   -1
100
AcDbLine
 10
1245.7457372949
 20
338.3095931657
 11
1245.7457372949
 21
275.8095931657
  0
LINE
  5
D6
100
AcDbEntity
  8
SIDE
  6
CONTINUOUS
 62
    7
370
   -1
100
AcDbLine
 10
1245.7457372949
 20
275.8095931657
 11
1183.2457372949
 21
275.8095931657
  0
LINE
  5
D7
100
AcDbEntity
  8
SIDE
  6
CONTINUOUS
 62
    7
370
   -1
100
AcDbLine
 10
1183.2457372949
 20
275.8095931657
 11
1183.2457372949
 21
300.8095931657
  0
LINE
  5
D8
100
AcDbEntity
  8
SIDE
  6
CONTINUOUS
 62
    7
370
   -1
100
AcDbLine
 10
1183.2457372949
 20
300.8095931657
 11
1195.7457372949
 21
300.8095931657
  0
LINE
  5
D9
100
AcDbEntity
  8
SIDE
  6
CONTINUOUS
 62
    7
370
   -1
100
AcDbLine
 10
1195.7457372949
 20
300.8095931657
 11
1195.7457372949
 21
288.3095931657
  0
LINE
  5
DA
100
AcDbEntity
  8
SIDE
  6
CONTINUOUS
 62
    7
370
   -1
100
AcDbLine
 10
1195.7457372949
 20
288.3095931657
 11
1233.2457372949
 21
288.3095931657
  0
LINE
  5
DB
100
AcDbEntity
  8
SIDE
  6
CONTINUOUS
 62
    7
370
   -1
100
AcDbLine
 10
1233.2457372949
 20
288.3095931657
 11
1233.2457372949
 21
338.3095931657
  0
LINE
  5
DC
100
AcDbEntity
  8
SIDE
  6
CONTINUOUS
 62
    7
370
   -1
100
AcDbLine
 10
1233.2457372949
 20
338.3095931657
 11
1180.4614124626
 21
338.3095931657
  0
LINE
  5
DD
100
AcDbEntity
  8
SIDE
  6
CONTINUOUS
 62
    7
370
   -1
100
AcDbLine
 10
1126.3007886211
 20
263.3095931657
 11
1158.2457372949
 21
263.3095931657
  0
LINE
  5
DE
100
AcDbEntity
  8
SIDE
  6
CONTINUOUS
 62
    7
370
   -1
100
AcDbLine
 10
1158.2457372949
 20
263.3095931657
 11
1158.2457372949
 21
308.9219283769
  0
LINE
  5
DF
100
AcDbEntity
  8
SIDE
  6
CONTINUOUS
 62
    7
370
   -1
100
AcDbLine
 10
1158.2457372949
 20
308.9219283769
 11
1145.7457372949
 21
292.3864953061
  0
LINE
  5
E0
100
AcDbEntity
  8
SIDE
  6
CONTINUOUS
 62
    7
370
   -1
100
AcDbLine
 10
1145.7457372949
 20
292.3864953061
 11
1145.7457372949
 21
275.8095931657
  0
LINE
  5
E1
100
AcDbEntity
  8
SIDE
  6
CONTINUOUS
 62
    7
370
   -1
100
AcDbLine
 10
1145.7457372949
 20
275.8095931657
 11
1133.2143886531
 21
275.8095931657
  0
LINE
  5
E2
100
AcDbEntity
  8
SIDE
  6
CONTINUOUS
 62
    7
370
   -1
100
AcDbLine
 10
1133.2143886531
 20
275.8095931657
 11
1128.3236381984
 21
269.339939021
  0
ARC
  5
E3
100
AcDbEntity
  8
SIDE
  6
CONTINUOUS
 62
    7
370
   -1
100
AcDbCircle
 10
1136.3007886211
 20
263.3095931657
 40
10.00000000000001
100
AcDbArc
 50
142.9124556156
 51
180
  0
LINE
  5
E4
100
AcDbEntity
  8
SIDE
  6
CONTINUOUS
 62
    7
370
   -1
100
AcDbLine
 10
1633.2457372949
 20
292.3864953061
 11
1620.7457372949
 21
308.9219283769
  0
LINE
  5
E5
100
AcDbEntity
  8
SIDE
  6
CONTINUOUS
 62
    7
370
   -1
100
AcDbLine
 10
1620.7457372949
 20
308.9219283769
 11
1620.7457372949
 21
300.8095931657
  0
LINE
  5
E6
100
AcDbEntity
  8
SIDE
  6
CONTINUOUS
 62
    7
370
   -1
100
AcDbLine
 10
1620.7457372949
 20
300.8095931657
 11
1608.2457372949
 21
300.8095931657
  0
LINE
  5
E7
100
AcDbEntity
  8
SIDE
  6
CONTINUOUS
 62
    7
370
   -1
100
AcDbLine
 10
1608.2457372949
 20
300.8095931657
 11
1608.2457372949
 21
313.3095931657
  0
LINE
  5
E8
100
AcDbEntity
  8
SIDE
  6
CONTINUOUS
 62
    7
370
   -1
100
AcDbLine
 10
1608.2457372949
 20
313.3095931657
 11
1570.7457372949
 21
313.3095931657
  0
LINE
  5
E9
100
AcDbEntity
  8
SIDE
  6
CONTINUOUS
 62
    7
370
   -1
100
AcDbLine
 10
1570.7457372949
 20
313.3095931657
 11
1570.7457372949
 21
263.3095931657
  0
LINE
  5
EA
100
AcDbEntity
  8
SIDE
  6
CONTINUOUS
 62
    7
370
   -1
100
AcDbLine
 10
1570.7457372949
 20
263.3095931657
 11
1652.6906859687
 21
263.3095931657
  0
ARC
  5
EB
100
AcDbEntity
  8
SIDE
  6
CONTINUOUS
 62
    7
370
   -1
100
AcDbCircle
 10
1642.6906859687
 20
263.3095931657
 40
10.00000000000001
100
AcDbArc
 50
0
 51
37.0875443844
  0
LINE
  5
EC
100
AcDbEntity
  8
SIDE
  6
CONTINUOUS
 62
    7
370
   -1
100
AcDbLine
 10
1650.6678363914
 20
269.339939021
 11
1645.7457372949
 21
275.8510622352
  0
LINE
  5
ED
100
AcDbEntity
  8
SIDE
  6
CONTINUOUS
 62
    7
370
   -1
100
AcDbLine
 10
1645.7457372949
 20
275.8510622352
 11
1645.7457372949
 21
275.8095931657
  0
LINE
  5
EE
100
AcDbEntity
  8
SIDE
  6
CONTINUOUS
 62
    7
370
   -1
100
AcDbLine
 10
1645.7457372949
 20
275.8095931657
 11
1583.2457372949
 21
275.8095931657
  0
LINE
  5
EF
100
AcDbEntity
  8
SIDE
  6
CONTINUOUS
 62
    7
370
   -1
100
AcDbLine
 10
1583.2457372949
 20
275.8095931657
 11
1583.2457372949
 21
300.8095931657
  0
LINE
  5
F0
100
AcDbEntity
  8
SIDE
  6
CONTINUOUS
 62
    7
370
   -1
100
AcDbLine
 10
1583.2457372949
 20
300.8095931657
 11
1595.7457372949
 21
300.8095931657
  0
LINE
  5
F1
100
AcDbEntity
  8
SIDE
  6
CONTINUOUS
 62
    7
370
   -1
100
AcDbLine
 10
1595.7457372949
 20
300.8095931657
 11
1595.7457372949
 21
288.3095931657
  0
LINE
  5
F2
100
AcDbEntity
  8
SIDE
  6
CONTINUOUS
 62
    7
370
   -1
100
AcDbLine
 10
1595.7457372949
 20
288.3095931657
 11
1633.2457372949
 21
288.3095931657
  0
LINE
  5
F3
100
AcDbEntity
  8
SIDE
  6
CONTINUOUS
 62
    7
370
   -1
100
AcDbLine
 10
1633.2457372949
 20
288.3095931657
 11
1633.2457372949
 21
292.3864953061
  0
ENDBLK
  5
57
330
55
100
AcDbEntity
  8
0
100
AcDbBlockEnd
  0
BLOCK
  5
59
330
58
100
AcDbEntity
  8
0
100
AcDbBlockBegin
  2
SE2
 70
    0
 10
0
 20
0
  3
SE2
  1

  0
LINE
  5
F4
100
AcDbEntity
  8
TRIANGLE
  6
CONTINUOUS
 62
    7
370
   -1
100
AcDbLine
 10
1574.9488884186
 20
637.4137533762
 11
1551.083649481
 21
584.2403262695
  0
ARC
  5
F5
100
AcDbEntity
  8
TRIANGLE
  6
CONTINUOUS
 62
    7
370
   -1
100
AcDbCircle
 10
1577.6858613351
 20
636.185348209
 40
2.999999999999999
100
AcDbArc
 50
24.1714442098
 51
155.8285557902
  0
LINE
  5
F6
100
AcDbEntity
  8
TRIANGLE
  6
CONTINUOUS
 62
    7
370
   -1
100
AcDbLine
 10
1604.2880731891
 20
584.2403262695
 11
1580.4228342515
 21
637.4137533762
  0
ARC
  5
F7
100
AcDbEntity
  8
TRIANGLE
  6
CONTINUOUS
 62
    7
370
   -1
100
AcDbCircle
 10
1601.5511002727
 20
583.0119211023
 40
3
100
AcDbArc
 50
270
 51
24.1714442098
  0
LINE
  5
F8
100
AcDbEntity
  8
TRIANGLE
  6
CONTINUOUS
 62
    7
370
   -1
100
AcDbLine
 10
1553.8206223974
 20
580.0119211023
 11
1601.5511002727
 21
580.0119211023
  0
ARC
  5
F9
100
AcDbEntity
  8
TRIANGLE
  6
CONTINUOUS
 62
    7
370
   -1
100
AcDbCircle
 10
1553.8206223974
 20
583.0119211023
 40
2.999999999999998
100
AcDbArc
 50
155.8285557902
 51
270
  0
ENDBLK
  5
5A
330
58
100
AcDbEntity
  8
0
100
AcDbBlockEnd
  0
BLOCK
  5
5C
330
5B
100
AcDbEntity
  8
0
100
AcDbBlockBegin
  2
SE3
 70
    0
 10
0
 20
0
  3
SE3
  1

  0
LINE
  5
FA
100
AcDbEntity
  8
PART7
  6
CONTINUOUS
 62
    7
370
   -1
100
AcDbLine
 10
2007.0202798671
 20
383.2095168104
 11
2007.0202798671
 21
669.2095168104
  0
LINE
  5
FB
100
AcDbEntity
  8
PART7
  6
CONTINUOUS
 62
    7
370
   -1
100
AcDbLine
 10
1711.5202798671
 20
373.7095168104
 11
1997.5202798671
 21
373.7095168104
  0
LINE
  5
FC
100
AcDbEntity
  8
PART7
  6
CONTINUOUS
 62
    7
370
   -1
100
AcDbLine
 10
1997.5202798671
 20
678.7095168104
 11
1711.5202798671
 21
678.7095168104
  0
LINE
  5
FD
100
AcDbEntity
  8
PART7
  6
CONTINUOUS
 62
    7
370
   -1
100
AcDbLine
 10
1702.0202798671
 20
669.2095168104
 11
1702.0202798671
 21
383.2095168104
  0
LINE
  5
FE
100
AcDbEntity
  8
PART7
  6
CONTINUOUS
 62
    7
370
   -1
100
AcDbLine
 10
2007.0202798671
 20
669.2095168104
 11
1997.5202798671
 21
678.7095168104
  0
LINE
  5
FF
100
AcDbEntity
  8
PART7
  6
CONTINUOUS
 62
    7
370
   -1
100
AcDbLine
 10
1711.5202798671
 20
678.7095168104
 11
1702.0202798671
 21
669.2095168104
  0
LINE
  5
100
100
AcDbEntity
  8
PART7
  6
CONTINUOUS
 62
    7
370
   -1
100
AcDbLine
 10
1702.0202798671
 20
383.2095168104
 11
1711.5202798671
 21
373.7095168104
  0
LINE
  5
101
100
AcDbEntity
  8
PART7
  6
CONTINUOUS
 62
    7
370
   -1
100
AcDbLine
 10
1997.5202798671
 20
373.7095168104
 11
2007.0202798671
 21
383.2095168104
  0
CIRCLE
  5
102
100
AcDbEntity
  8
PART7
  6
CONTINUOUS
 62
    7
370
   -1
100
AcDbCircle
 10
1854.5202798671
 20
526.2095168104
 40
16
  0
ENDBLK
  5
5D
330
5B
100
AcDbEntity
  8
0
100
AcDbBlockEnd
  0
ENDSEC
  0
SECTION
  2
ENTITIES
  0
INSERT
  5
103
100
AcDbEntity
  8
Default
  6
ByLayer
 62
  256
370
   -1
100
AcDbBlockReference
  2
SE
 10
0
 20
0
 30
0
 41
1
 42
1
 43
0
 50
0
 70
    1
 71
    1
 44
0
 45
0
  0
INSERT
  5
104
100
AcDbEntity
  8
Default
  6
ByLayer
 62
  256
370
   -1
100
AcDbBlockReference
  2
SE1
 10
0
 20
0
 30
0
 41
1
 42
1
 43
0
 50
0
 70
    1
 71
    1
 44
0
 45
0
  0
INSERT
  5
105
100
AcDbEntity
  8
Default
  6
ByLayer
 62
  256
370
   -1
100
AcDbBlockReference
  2
SE2
 10
0
 20
0
 30
0
 41
1
 42
1
 43
0
 50
0
 70
    1
 71
    1
 44
0
 45
0
  0
INSERT
  5
106
100
AcDbEntity
  8
Default
  6
ByLayer
 62
  256
370
   -1
100
AcDbBlockReference
  2
SE3
 10
0
 20
0
 30
0
 41
1
 42
1
 43
0
 50
0
 70
    1
 71
    1
 44
0
 45
0
  0
MTEXT
  5
107
100
AcDbEntity
  8
0
  6
ByLayer
 62
  256
370
   -1
100
AcDbMText
 10
1249.703782876877
 20
681.8461685218113
 30
0
 40
12
 41
196.0000123428962
 71
    1
 72
    1
  1
www.craftsmanspace.com
  7

210
0
220
0
230
1
 50
0
 73
    2
 44
1
  0
MTEXT
  5
108
100
AcDbEntity
  8
0
  6
ByLayer
 62
  256
370
   -1
100
AcDbMText
 10
985.0053369993631
 20
668.0344895458729
 30
0
 40
8
 41
16.88888888888889
 71
    1
 72
    1
  1
Top
  7

210
0
220
0
230
1
 50
0
 73
    2
 44
1
  0
MTEXT
  5
109
100
AcDbEntity
  8
0
  6
ByLayer
 62
  256
370
   -1
100
AcDbMText
 10
1268.619596071383
 20
406.9410042327571
 30
0
 40
8
 41
68.22222633652092
 71
    1
 72
    1
  1
Triangle side
  7

210
0
220
0
230
1
 50
0
 73
    2
 44
1
  0
MTEXT
  5
10A
100
AcDbEntity
  8
0
  6
ByLayer
 62
  256
370
   -1
100
AcDbMText
 10
1762.288393983949
 20
602.5310418079746
 30
0
 40
8
 41
35.55555555555592
 71
    1
 72
    1
  1
Bottom
  7

210
0
220
0
230
1
 50
0
 73
    2
 44
1
  0
MTEXT
  5
10B
100
AcDbEntity
  8
0
  6
ByLayer
 62
  256
370
   -1
100
AcDbMText
 10
1541.173452652482
 20
570.1238309334958
 30
0
 40
8
 41
73.55555385954023
 71
    1
 72
    1
  1
Small triangle
  7

210
0
220
0
230
1
 50
0
 73
    2
 44
1
  0
ENDSEC
  0
SECTION
  2
OBJECTS
  0
DICTIONARY
  5
C
330
0
100
AcDbDictionary
281
    1
  3
ACAD_GROUP
350
D
  0
DICTIONARY
  5
D
330
C
100
AcDbDictionary
281
    1
  0
ENDSEC
  0
EOF
