  0
SECTION
  2
HEADER
  9
$ACADVER
  1
AC1009
  9
$DWGCODEPAGE
  3
ansi_1252
  9
$INSBASE
 10
0.0
 20
0.0
 30
0.0
  9
$EXTMIN
 10
-110.374976955215
 20
-83.6423907763481
 30
0.0
  9
$EXTMAX
 10
166.5934764045901
 20
114.4612853351571
 30
0.0
  9
$LIMMIN
 10
0.0
 20
0.0
  9
$LIMMAX
 10
12.0
 20
9.0
  9
$ORTHOMODE
 70
     0
  9
$REGENMODE
 70
     1
  9
$FILLMODE
 70
     1
  9
$QTEXTMODE
 70
     0
  9
$MIRRTEXT
 70
     1
  9
$DRAGMODE
 70
     2
  9
$LTSCALE
 40
1.0
  9
$OSMODE
 70
    37
  9
$ATTMODE
 70
     1
  9
$TEXTSIZE
 40
0.2
  9
$TRACEWID
 40
0.05
  9
$TEXTSTYLE
  7
STANDARD
  9
$CLAYER
  8
DEFAULT
  9
$CELTYPE
  6
BYLAYER
  9
$CECOLOR
 62
   256
  9
$DIMSCALE
 40
1.0
  9
$DIMASZ
 40
0.18
  9
$DIMEXO
 40
0.0625
  9
$DIMDLI
 40
0.38
  9
$DIMRND
 40
0.0
  9
$DIMDLE
 40
0.0
  9
$DIMEXE
 40
0.18
  9
$DIMTP
 40
0.0
  9
$DIMTM
 40
0.0
  9
$DIMTXT
 40
0.18
  9
$DIMCEN
 40
0.09
  9
$DIMTSZ
 40
0.0
  9
$DIMTOL
 70
     0
  9
$DIMLIM
 70
     0
  9
$DIMTIH
 70
     1
  9
$DIMTOH
 70
     1
  9
$DIMSE1
 70
     0
  9
$DIMSE2
 70
     0
  9
$DIMTAD
 70
     0
  9
$DIMZIN
 70
     0
  9
$DIMBLK
  1

  9
$DIMASO
 70
     1
  9
$DIMSHO
 70
     1
  9
$DIMPOST
  1

  9
$DIMAPOST
  1

  9
$DIMALT
 70
     0
  9
$DIMALTD
 70
     2
  9
$DIMALTF
 40
25.4
  9
$DIMLFAC
 40
1.0
  9
$DIMTOFL
 70
     0
  9
$DIMTVP
 40
0.0
  9
$DIMTIX
 70
     0
  9
$DIMSOXD
 70
     0
  9
$DIMSAH
 70
     0
  9
$DIMBLK1
  1

  9
$DIMBLK2
  1

  9
$DIMSTYLE
  2
STANDARD
  9
$DIMCLRD
 70
     0
  9
$DIMCLRE
 70
     0
  9
$DIMCLRT
 70
     0
  9
$DIMTFAC
 40
1.0
  9
$DIMGAP
 40
0.09
  9
$LUNITS
 70
     2
  9
$LUPREC
 70
     4
  9
$SKETCHINC
 40
0.1
  9
$FILLETRAD
 40
0.5
  9
$AUNITS
 70
     0
  9
$AUPREC
 70
     0
  9
$MENU
  1
.
  9
$ELEVATION
 40
0.0
  9
$PELEVATION
 40
0.0
  9
$THICKNESS
 40
0.0
  9
$LIMCHECK
 70
     0
  9
$CHAMFERA
 40
0.0
  9
$CHAMFERB
 40
0.0
  9
$SKPOLY
 70
     0
  9
$TDCREATE
 40
2458801.821180937
  9
$TDUPDATE
 40
2458801.821198981
  9
$TDINDWG
 40
0.0000000116
  9
$TDUSRTIMER
 40
0.0000000116
  9
$USRTIMER
 70
     1
  9
$ANGBASE
 50
0.0
  9
$ANGDIR
 70
     0
  9
$PDMODE
 70
     0
  9
$PDSIZE
 40
0.0
  9
$PLINEWID
 40
0.0
  9
$COORDS
 70
     1
  9
$SPLFRAME
 70
     0
  9
$SPLINETYPE
 70
     6
  9
$SPLINESEGS
 70
     8
  9
$ATTDIA
 70
     0
  9
$ATTREQ
 70
     1
  9
$HANDLING
 70
     1
  9
$HANDSEED
  5
696
  9
$SURFTAB1
 70
     6
  9
$SURFTAB2
 70
     6
  9
$SURFTYPE
 70
     6
  9
$SURFU
 70
     6
  9
$SURFV
 70
     6
  9
$UCSNAME
  2

  9
$UCSORG
 10
0.0
 20
0.0
 30
0.0
  9
$UCSXDIR
 10
1.0
 20
0.0
 30
0.0
  9
$UCSYDIR
 10
0.0
 20
1.0
 30
0.0
  9
$PUCSNAME
  2

  9
$PUCSORG
 10
0.0
 20
0.0
 30
0.0
  9
$PUCSXDIR
 10
1.0
 20
0.0
 30
0.0
  9
$PUCSYDIR
 10
0.0
 20
1.0
 30
0.0
  9
$USERI1
 70
     0
  9
$USERI2
 70
     0
  9
$USERI3
 70
     0
  9
$USERI4
 70
     0
  9
$USERI5
 70
     0
  9
$USERR1
 40
0.0
  9
$USERR2
 40
0.0
  9
$USERR3
 40
0.0
  9
$USERR4
 40
0.0
  9
$USERR5
 40
0.0
  9
$WORLDVIEW
 70
     1
  9
$SHADEDGE
 70
     3
  9
$SHADEDIF
 70
    70
  9
$TILEMODE
 70
     1
  9
$MAXACTVP
 70
    64
  9
$PLIMCHECK
 70
     0
  9
$PEXTMIN
 10
1.000000000000000E+20
 20
1.000000000000000E+20
 30
1.000000000000000E+20
  9
$PEXTMAX
 10
-1.000000000000000E+20
 20
-1.000000000000000E+20
 30
-1.000000000000000E+20
  9
$PLIMMIN
 10
0.0
 20
0.0
  9
$PLIMMAX
 10
12.0
 20
9.0
  9
$UNITMODE
 70
     0
  9
$VISRETAIN
 70
     1
  9
$PLINEGEN
 70
     0
  9
$PSLTSCALE
 70
     1
  0
ENDSEC
  0
SECTION
  2
TABLES
  0
TABLE
  2
VPORT
 70
     1
  0
VPORT
  2
*ACTIVE
 70
     0
 10
0.0
 20
0.0
 11
1.0
 21
1.0
 12
28.10924972468757
 22
15.40944727940447
 13
0.0
 23
0.0
 14
0.5
 24
0.5
 15
0.5
 25
0.5
 16
0.0
 26
0.0
 36
1.0
 17
0.0
 27
0.0
 37
0.0
 40
202.0657496337352
 41
1.398098504764293
 42
50.0
 43
0.0
 44
0.0
 50
0.0
 51
0.0
 71
     0
 72
   100
 73
     1
 74
     3
 75
     0
 76
     0
 77
     0
 78
     0
  0
ENDTAB
  0
TABLE
  2
LTYPE
 70
     1
  0
LTYPE
  2
CONTINUOUS
 70
     0
  3
Solid line
 72
    65
 73
     0
 40
0.0
  0
ENDTAB
  0
TABLE
  2
LAYER
 70
     6
  0
LAYER
  2
0
 70
     0
 62
     7
  6
CONTINUOUS
  0
LAYER
  2
DEFAULT
 70
     0
 62
     7
  6
CONTINUOUS
  0
LAYER
  2
BOTTOM
 70
     0
 62
     7
  6
CONTINUOUS
  0
LAYER
  2
FRONT
 70
     0
 62
     7
  6
CONTINUOUS
  0
LAYER
  2
SIDE
 70
     0
 62
     7
  6
CONTINUOUS
  0
LAYER
  2
BACK
 70
     0
 62
     7
  6
CONTINUOUS
  0
ENDTAB
  0
TABLE
  2
STYLE
 70
     1
  0
STYLE
  2
STANDARD
 70
     0
 40
0.0
 41
1.0
 50
0.0
 71
     0
 42
0.2
  3
txt
  4

  0
ENDTAB
  0
TABLE
  2
VIEW
 70
     0
  0
ENDTAB
  0
TABLE
  2
UCS
 70
     0
  0
ENDTAB
  0
TABLE
  2
APPID
 70
     1
  0
APPID
  2
ACAD
 70
     0
  0
ENDTAB
  0
TABLE
  2
DIMSTYLE
 70
     1
  0
DIMSTYLE
  2
STANDARD
 70
     0
  3

  4

  5

  6

  7

 40
1.0
 41
0.18
 42
0.0625
 43
0.38
 44
0.18
 45
0.0
 46
0.0
 47
0.0
 48
0.0
140
0.18
141
0.09
142
0.0
143
25.4
144
1.0
145
0.0
146
1.0
147
0.09
 71
     0
 72
     0
 73
     1
 74
     1
 75
     0
 76
     0
 77
     0
 78
     0
170
     0
171
     2
172
     0
173
     0
174
     0
175
     0
176
     0
177
     0
178
     0
  0
ENDTAB
  0
ENDSEC
  0
SECTION
  2
BLOCKS
  0
BLOCK
  8
0
  2
$MODEL_SPACE
 70
     0
 10
0.0
 20
0.0
 30
0.0
  3
$MODEL_SPACE
  1

  0
ENDBLK
  5
21
  8
0
  0
BLOCK
 67
     1
  8
0
  2
$PAPER_SPACE
 70
     0
 10
0.0
 20
0.0
 30
0.0
  3
$PAPER_SPACE
  1

  0
ENDBLK
  5
1D
 67
     1
  8
0
  0
BLOCK
  8
0
  2
SE
 70
     0
 10
0.0
 20
0.0
 30
0.0
  3
SE
  1

  0
LINE
  5
640
  8
BACK
  6
CONTINUOUS
 62
     7
 10
110.9559373735
 20
205.1014608843
 30
0.0
 11
213.9559373735
 21
205.1014608843
 31
0.0
  0
LINE
  5
641
  8
BACK
  6
CONTINUOUS
 62
     7
 10
219.9559373735
 20
233.6014608843
 30
0.0
 11
219.9559373735
 21
205.1014608843
 31
0.0
  0
LINE
  5
642
  8
BACK
  6
CONTINUOUS
 62
     7
 10
213.9559373735
 20
233.6014608843
 30
0.0
 11
219.9559373735
 21
233.6014608843
 31
0.0
  0
LINE
  5
643
  8
BACK
  6
CONTINUOUS
 62
     7
 10
213.9559373735
 20
205.1014608843
 30
0.0
 11
213.9559373735
 21
233.6014608843
 31
0.0
  0
LINE
  5
644
  8
BACK
  6
CONTINUOUS
 62
     7
 10
110.9559373735
 20
233.6014608843
 30
0.0
 11
110.9559373735
 21
205.1014608843
 31
0.0
  0
LINE
  5
645
  8
BACK
  6
CONTINUOUS
 62
     7
 10
104.9559373735
 20
233.6014608843
 30
0.0
 11
110.9559373735
 21
233.6014608843
 31
0.0
  0
LINE
  5
646
  8
BACK
  6
CONTINUOUS
 62
     7
 10
104.9559373735
 20
205.1014608843
 30
0.0
 11
104.9559373735
 21
233.6014608843
 31
0.0
  0
LINE
  5
647
  8
BACK
  6
CONTINUOUS
 62
     7
 10
98.9559373735
 20
262.6014608843
 30
0.0
 11
98.9559373735
 21
211.1014608843
 31
0.0
  0
ARC
  5
648
  8
BACK
  6
CONTINUOUS
 62
     7
 10
104.9559373735
 20
262.6014608843
 30
0.0
 40
5.999999999999998
 50
90.0
 51
180.0
  0
LINE
  5
649
  8
BACK
  6
CONTINUOUS
 62
     7
 10
225.9559373735
 20
211.1014608843
 30
0.0
 11
225.9559373735
 21
262.6014608843
 31
0.0
  0
ARC
  5
64A
  8
BACK
  6
CONTINUOUS
 62
     7
 10
219.9559373735
 20
211.1014608843
 30
0.0
 40
5.999999999999998
 50
270.0
 51
0.0
  0
LINE
  5
64B
  8
BACK
  6
CONTINUOUS
 62
     7
 10
219.9559373735
 20
268.6014608843
 30
0.0
 11
104.9559373735
 21
268.6014608843
 31
0.0
  0
ARC
  5
64C
  8
BACK
  6
CONTINUOUS
 62
     7
 10
219.9559373735
 20
262.6014608843
 30
0.0
 40
5.999999999999998
 50
0.0
 51
90.0
  0
ARC
  5
64D
  8
BACK
  6
CONTINUOUS
 62
     7
 10
104.9559373735
 20
211.1014608843
 30
0.0
 40
5.999999999999998
 50
180.0
 51
270.0
  0
ENDBLK
  5
64F
  8
0
  0
BLOCK
  8
0
  2
SE1
 70
     0
 10
0.0
 20
0.0
 30
0.0
  3
SE1
  1

  0
LINE
  5
651
  8
SIDE
  6
CONTINUOUS
 62
     7
 10
172.1868642099
 20
105.2481969431
 30
0.0
 11
108.1868642099
 21
105.2481969431
 31
0.0
  0
LINE
  5
652
  8
SIDE
  6
CONTINUOUS
 62
     7
 10
160.1868642099
 20
143.2481969431
 30
0.0
 11
160.1868642099
 21
125.7481969431
 31
0.0
  0
LINE
  5
653
  8
SIDE
  6
CONTINUOUS
 62
     7
 10
160.1868642099
 20
125.7481969431
 30
0.0
 11
166.1868642099
 21
125.7481969431
 31
0.0
  0
LINE
  5
654
  8
SIDE
  6
CONTINUOUS
 62
     7
 10
166.1868642099
 20
125.7481969431
 30
0.0
 11
166.1868642099
 21
143.2481969431
 31
0.0
  0
LINE
  5
655
  8
SIDE
  6
CONTINUOUS
 62
     7
 10
102.1868642099
 20
105.2481969431
 30
0.0
 11
102.1868642099
 21
140.2481969431
 31
0.0
  0
LINE
  5
656
  8
SIDE
  6
CONTINUOUS
 62
     7
 10
102.1868642099
 20
140.2481969431
 30
0.0
 11
108.1868642099
 21
140.2481969431
 31
0.0
  0
LINE
  5
657
  8
SIDE
  6
CONTINUOUS
 62
     7
 10
108.1868642099
 20
140.2481969431
 30
0.0
 11
108.1868642099
 21
105.2481969431
 31
0.0
  0
LINE
  5
658
  8
SIDE
  6
CONTINUOUS
 62
     7
 10
96.1868642099
 20
111.2481969431
 30
0.0
 11
96.1868642099
 21
170.6653601711
 31
0.0
  0
ARC
  5
659
  8
SIDE
  6
CONTINUOUS
 62
     7
 10
102.1868642099
 20
111.2481969431
 30
0.0
 40
6.000000000000005
 50
180.0
 51
270.0
  0
LINE
  5
65A
  8
SIDE
  6
CONTINUOUS
 62
     7
 10
105.2678749619
 20
175.8138912962
 30
0.0
 11
115.2678749619
 21
169.8296393277
 31
0.0
  0
ARC
  5
65B
  8
SIDE
  6
CONTINUOUS
 62
     7
 10
102.1868642099
 20
170.6653601711
 30
0.0
 40
5.999999999999995
 50
59.10263483970014
 51
180.0
  0
LINE
  5
65C
  8
SIDE
  6
CONTINUOUS
 62
     7
 10
178.1868642099
 20
124.2481969431
 30
0.0
 11
201.1868642099
 21
124.2481969431
 31
0.0
  0
ARC
  5
65D
  8
SIDE
  6
CONTINUOUS
 62
     7
 10
178.1868642099
 20
130.2481969431
 30
0.0
 40
6.000000000000002
 50
180.0
 51
270.0
  0
LINE
  5
65E
  8
SIDE
  6
CONTINUOUS
 62
     7
 10
205.7397784805
 20
114.2386732256
 30
0.0
 11
172.1868642099
 21
105.2481969431
 31
0.0
  0
ARC
  5
65F
  8
SIDE
  6
CONTINUOUS
 62
     7
 10
204.1868642099
 20
120.0342281833
 30
0.0
 40
6.000000000000003
 50
285.0000000000001
 51
0.0000000000001357
  0
LINE
  5
660
  8
SIDE
  6
CONTINUOUS
 62
     7
 10
210.1868642099
 20
127.2481969431
 30
0.0
 11
210.1868642099
 21
120.0342281833
 31
0.0
  0
ARC
  5
661
  8
SIDE
  6
CONTINUOUS
 62
     7
 10
207.1868642099
 20
127.2481969431
 30
0.0
 40
3.000000000000003
 50
0.0
 51
180.0
  0
ARC
  5
662
  8
SIDE
  6
CONTINUOUS
 62
     7
 10
201.1868642099
 20
127.2481969431
 30
0.0
 40
3.000000000000003
 50
270.0
 51
0.0
  0
LINE
  5
663
  8
SIDE
  6
CONTINUOUS
 62
     7
 10
137.1868642099
 20
143.2481969431
 30
0.0
 11
160.1868642099
 21
143.2481969431
 31
0.0
  0
ARC
  5
664
  8
SIDE
  6
CONTINUOUS
 62
     7
 10
137.1868642099
 20
162.2481969431
 30
0.0
 40
19.00000000000001
 50
180.0
 51
270.0
  0
LINE
  5
665
  8
SIDE
  6
CONTINUOUS
 62
     7
 10
118.1868642099
 20
164.6811082026
 30
0.0
 11
118.1868642099
 21
162.2481969431
 31
0.0
  0
ARC
  5
666
  8
SIDE
  6
CONTINUOUS
 62
     7
 10
112.1868642099
 20
164.6811082026
 30
0.0
 40
5.999999999999998
 50
0.0
 51
59.10263483970002
  0
LINE
  5
667
  8
SIDE
  6
CONTINUOUS
 62
     7
 10
121.6868642099
 20
111.2481969431
 30
0.0
 11
121.6868642099
 21
117.2481969431
 31
0.0
  0
LINE
  5
668
  8
SIDE
  6
CONTINUOUS
 62
     7
 10
121.6868642099
 20
117.2481969431
 30
0.0
 11
143.6868642099
 21
117.2481969431
 31
0.0
  0
LINE
  5
669
  8
SIDE
  6
CONTINUOUS
 62
     7
 10
143.6868642099
 20
117.2481969431
 30
0.0
 11
143.6868642099
 21
111.2481969431
 31
0.0
  0
LINE
  5
66A
  8
SIDE
  6
CONTINUOUS
 62
     7
 10
143.6868642099
 20
111.2481969431
 30
0.0
 11
121.6868642099
 21
111.2481969431
 31
0.0
  0
LINE
  5
66B
  8
SIDE
  6
CONTINUOUS
 62
     7
 10
172.1868642099
 20
137.2481969431
 30
0.0
 11
172.1868642099
 21
130.2481969431
 31
0.0
  0
ARC
  5
66C
  8
SIDE
  6
CONTINUOUS
 62
     7
 10
166.1868642099
 20
137.2481969431
 30
0.0
 40
6.000000000000005
 50
0.0
 51
90.0
  0
ENDBLK
  5
66E
  8
0
  0
BLOCK
  8
0
  2
SE2
 70
     0
 10
0.0
 20
0.0
 30
0.0
  3
SE2
  1

  0
LINE
  5
670
  8
FRONT
  6
CONTINUOUS
 62
     7
 10
255.1267453426
 20
213.0283231338
 30
0.0
 11
358.1267453426
 21
213.0283231338
 31
0.0
  0
LINE
  5
671
  8
FRONT
  6
CONTINUOUS
 62
     7
 10
364.1267453426
 20
233.5283231338
 30
0.0
 11
364.1267453426
 21
213.0283231338
 31
0.0
  0
LINE
  5
672
  8
FRONT
  6
CONTINUOUS
 62
     7
 10
358.1267453426
 20
233.5283231338
 30
0.0
 11
364.1267453426
 21
233.5283231338
 31
0.0
  0
LINE
  5
673
  8
FRONT
  6
CONTINUOUS
 62
     7
 10
358.1267453426
 20
213.0283231338
 30
0.0
 11
358.1267453426
 21
233.5283231338
 31
0.0
  0
LINE
  5
674
  8
FRONT
  6
CONTINUOUS
 62
     7
 10
255.1267453426
 20
233.5283231338
 30
0.0
 11
255.1267453426
 21
213.0283231338
 31
0.0
  0
LINE
  5
675
  8
FRONT
  6
CONTINUOUS
 62
     7
 10
249.1267453426
 20
233.5283231338
 30
0.0
 11
255.1267453426
 21
233.5283231338
 31
0.0
  0
LINE
  5
676
  8
FRONT
  6
CONTINUOUS
 62
     7
 10
249.1267453426
 20
213.0283231338
 30
0.0
 11
249.1267453426
 21
233.5283231338
 31
0.0
  0
LINE
  5
677
  8
FRONT
  6
CONTINUOUS
 62
     7
 10
364.1267453426
 20
251.0283231338
 30
0.0
 11
249.1267453426
 21
251.0283231338
 31
0.0
  0
ARC
  5
678
  8
FRONT
  6
CONTINUOUS
 62
     7
 10
364.1267453426
 20
245.0283231338
 30
0.0
 40
5.999999999999998
 50
0.0
 51
90.0
  0
ARC
  5
679
  8
FRONT
  6
CONTINUOUS
 62
     7
 10
249.1267453426
 20
219.0283231338
 30
0.0
 40
5.999999999999998
 50
180.0
 51
270.0
  0
LINE
  5
67A
  8
FRONT
  6
CONTINUOUS
 62
     7
 10
370.1267453426
 20
219.0283231338
 30
0.0
 11
370.1267453426
 21
245.0283231338
 31
0.0
  0
ARC
  5
67B
  8
FRONT
  6
CONTINUOUS
 62
     7
 10
364.1267453426
 20
219.0283231338
 30
0.0
 40
6.000000000000026
 50
270.0
 51
0.0
  0
LINE
  5
67C
  8
FRONT
  6
CONTINUOUS
 62
     7
 10
243.1267453426
 20
245.0283231338
 30
0.0
 11
243.1267453426
 21
219.0283231338
 31
0.0
  0
ARC
  5
67D
  8
FRONT
  6
CONTINUOUS
 62
     7
 10
249.1267453426
 20
245.0283231338
 30
0.0
 40
6.0
 50
90.0
 51
180.0
  0
ENDBLK
  5
67F
  8
0
  0
BLOCK
  8
0
  2
SE3
 70
     0
 10
0.0
 20
0.0
 30
0.0
  3
SE3
  1

  0
LINE
  5
681
  8
BOTTOM
  6
CONTINUOUS
 62
     7
 10
357.0326073838
 20
160.9521424424
 30
0.0
 11
254.0326073838
 21
160.9521424424
 31
0.0
  0
LINE
  5
682
  8
BOTTOM
  6
CONTINUOUS
 62
     7
 10
254.0326073838
 20
160.9521424424
 30
0.0
 11
254.0326073838
 21
147.4521424424
 31
0.0
  0
LINE
  5
683
  8
BOTTOM
  6
CONTINUOUS
 62
     7
 10
254.0326073838
 20
108.9521424424
 30
0.0
 11
357.0326073838
 21
108.9521424424
 31
0.0
  0
LINE
  5
684
  8
BOTTOM
  6
CONTINUOUS
 62
     7
 10
357.0326073838
 20
108.9521424424
 30
0.0
 11
357.0326073838
 21
125.4521424424
 31
0.0
  0
LINE
  5
685
  8
BOTTOM
  6
CONTINUOUS
 62
     7
 10
254.0326073838
 20
125.4521424424
 30
0.0
 11
254.0326073838
 21
108.9521424424
 31
0.0
  0
LINE
  5
686
  8
BOTTOM
  6
CONTINUOUS
 62
     7
 10
254.0326073838
 20
125.4521424424
 30
0.0
 11
248.0326073838
 21
125.4521424424
 31
0.0
  0
LINE
  5
687
  8
BOTTOM
  6
CONTINUOUS
 62
     7
 10
248.0326073838
 20
125.4521424424
 30
0.0
 11
248.0326073838
 21
147.4521424424
 31
0.0
  0
LINE
  5
688
  8
BOTTOM
  6
CONTINUOUS
 62
     7
 10
248.0326073838
 20
147.4521424424
 30
0.0
 11
254.0326073838
 21
147.4521424424
 31
0.0
  0
LINE
  5
689
  8
BOTTOM
  6
CONTINUOUS
 62
     7
 10
357.0326073838
 20
147.4521424424
 30
0.0
 11
357.0326073838
 21
160.9521424424
 31
0.0
  0
LINE
  5
68A
  8
BOTTOM
  6
CONTINUOUS
 62
     7
 10
357.0326073838
 20
147.4521424424
 30
0.0
 11
363.0326073838
 21
147.4521424424
 31
0.0
  0
LINE
  5
68B
  8
BOTTOM
  6
CONTINUOUS
 62
     7
 10
363.0326073838
 20
147.4521424424
 30
0.0
 11
363.0326073838
 21
125.4521424424
 31
0.0
  0
LINE
  5
68C
  8
BOTTOM
  6
CONTINUOUS
 62
     7
 10
363.0326073838
 20
125.4521424424
 30
0.0
 11
357.0326073838
 21
125.4521424424
 31
0.0
  0
ENDBLK
  5
68E
  8
0
  0
ENDSEC
  0
SECTION
  2
ENTITIES
  0
POLYLINE
  5
6F
  8
DEFAULT
 62
     5
 66
     1
 10
0.0
 20
0.0
 30
0.0
 70
     1
  0
VERTEX
  5
70
  8
DEFAULT
 62
     5
 10
141.8225539089825
 20
94.17203110459845
 30
0.0
 42
0.1671831675161671
  0
VERTEX
  5
71
  8
DEFAULT
 62
     5
 10
142.1720910048893
 20
92.80513282105001
 30
0.0
 42
0.2386895617245472
  0
VERTEX
  5
72
  8
DEFAULT
 62
     5
 10
143.0339740623828
 20
92.37187644216665
 30
0.0
 42
0.230606702489755
  0
VERTEX
  5
73
  8
DEFAULT
 62
     5
 10
143.9622146500624
 20
92.8163208866111
 30
0.0
 42
0.1781814747799942
  0
VERTEX
  5
74
  8
DEFAULT
 62
     5
 10
144.3410724275011
 20
94.13345102251998
 30
0.0
 42
0.1711933697273316
  0
VERTEX
  5
75
  8
DEFAULT
 62
     5
 10
143.9784182242527
 20
95.48568821177045
 30
0.0
 42
0.2363895789849187
  0
VERTEX
  5
76
  8
DEFAULT
 62
     5
 10
143.060208277066
 20
95.92743199772218
 30
0.0
 42
0.238990945516016
  0
VERTEX
  5
77
  8
DEFAULT
 62
     5
 10
142.1720910048893
 20
95.49417599560478
 30
0.0
 42
0.1688350197989059
  0
SEQEND
  5
78
  8
DEFAULT
 62
     5
  0
POLYLINE
  5
79
  8
DEFAULT
 62
     5
 66
     1
 10
0.0
 20
0.0
 30
0.0
 70
     1
  0
VERTEX
  5
7A
  8
DEFAULT
 62
     5
 10
140.4892205756492
 20
90.79162952858638
 30
0.0
  0
VERTEX
  5
7B
  8
DEFAULT
 62
     5
 10
142.266998353427
 20
90.59409866438885
 30
0.0
 42
0.1963004846499127
  0
VERTEX
  5
7C
  8
DEFAULT
 62
     5
 10
142.4606718875954
 20
90.16740140432519
 30
0.0
 42
0.1652544786658496
  0
VERTEX
  5
7D
  8
DEFAULT
 62
     5
 10
143.1188503936618
 20
90.0015060717962
 30
0.0
 42
0.1335897911306156
  0
VERTEX
  5
7E
  8
DEFAULT
 62
     5
 10
143.9807334511554
 20
90.1782040382961
 30
0.0
 42
0.169594254885382
  0
VERTEX
  5
7F
  8
DEFAULT
 62
     5
 10
144.2731716638906
 20
90.55937666587143
 30
0.0
  0
VERTEX
  5
80
  8
DEFAULT
 62
     5
 10
144.3410724275011
 20
91.251506307275
 30
0.0
  0
VERTEX
  5
81
  8
DEFAULT
 62
     5
 10
144.3410724275011
 20
92.08252469628022
 30
0.0
 42
-0.2481650325452887
  0
VERTEX
  5
82
  8
DEFAULT
 62
     5
 10
142.6335110170023
 20
91.18669125698146
 30
0.0
 42
-0.2649646906886824
  0
VERTEX
  5
83
  8
DEFAULT
 62
     5
 10
140.817153157146
 20
92.1743455779691
 30
0.0
 42
-0.1513235680990968
  0
VERTEX
  5
84
  8
DEFAULT
 62
     5
 10
140.2916897114517
 20
94.11724707156361
 30
0.0
 42
-0.1864728947507099
  0
VERTEX
  5
85
  8
DEFAULT
 62
     5
 10
140.9803474544163
 20
96.34332737734685
 30
0.0
 42
-0.223476994237026
  0
VERTEX
  5
86
  8
DEFAULT
 62
     5
 10
142.6929247503104
 20
97.1126171829074
 30
0.0
 42
-0.2545979461410141
  0
VERTEX
  5
87
  8
DEFAULT
 62
     5
 10
144.4398378595998
 20
96.15891399725689
 30
0.0
  0
VERTEX
  5
88
  8
DEFAULT
 62
     5
 10
144.4398378595998
 20
96.96446903475922
 30
0.0
  0
VERTEX
  5
89
  8
DEFAULT
 62
     5
 10
145.8719366250319
 20
96.96446903475922
 30
0.0
  0
VERTEX
  5
8A
  8
DEFAULT
 62
     5
 10
145.8719366250319
 20
91.76308065214961
 30
0.0
 42
-0.0739274830705691
  0
VERTEX
  5
8B
  8
DEFAULT
 62
     5
 10
145.7048842442006
 20
90.22990160448212
 30
0.0
 42
-0.1231238869311677
  0
VERTEX
  5
8C
  8
DEFAULT
 62
     5
 10
145.2361342500876
 20
89.43283359728213
 30
0.0
 42
-0.1133489208680257
  0
VERTEX
  5
8D
  8
DEFAULT
 62
     5
 10
144.4305788358193
 20
88.97990136900337
 30
0.0
 42
-0.0770474087797174
  0
VERTEX
  5
8E
  8
DEFAULT
 62
     5
 10
143.1566588590281
 20
88.81632088661107
 30
0.0
 42
-0.1675355138834537
  0
VERTEX
  5
8F
  8
DEFAULT
 62
     5
 10
141.0926161789787
 20
89.32249391450023
 30
0.0
 42
-0.2345118942080026
  0
VERTEX
  5
90
  8
DEFAULT
 62
     5
 10
140.4838200121957
 20
90.60567291507198
 30
0.0
  0
SEQEND
  5
91
  8
DEFAULT
 62
     5
  0
POLYLINE
  5
92
  8
DEFAULT
 62
     5
 66
     1
 10
0.0
 20
0.0
 30
0.0
 70
     1
  0
VERTEX
  5
93
  8
DEFAULT
 62
     5
 10
139.1065045262665
 20
91.18669125698145
 30
0.0
  0
VERTEX
  5
94
  8
DEFAULT
 62
     5
 10
137.5756403287356
 20
91.18669125698145
 30
0.0
  0
VERTEX
  5
95
  8
DEFAULT
 62
     5
 10
137.5756403287356
 20
94.13653748936882
 30
0.0
 42
0.0659043403441921
  0
VERTEX
  5
96
  8
DEFAULT
 62
     5
 10
137.4791897467735
 20
95.3479572660031
 30
0.0
 42
0.1600130695765764
  0
VERTEX
  5
97
  8
DEFAULT
 62
     5
 10
137.1659182595746
 20
95.77504033442285
 30
0.0
 42
0.1575149176298341
  0
VERTEX
  5
98
  8
DEFAULT
 62
     5
 10
136.6443132742072
 20
95.92743199772218
 30
0.0
 42
0.1576987046345013
  0
VERTEX
  5
99
  8
DEFAULT
 62
     5
 10
135.9433104173793
 20
95.70983947577322
 30
0.0
 42
0.1684371822617102
  0
VERTEX
  5
9A
  8
DEFAULT
 62
     5
 10
135.5177702056179
 20
95.13306502578091
 30
0.0
 42
0.06598099185764
  0
VERTEX
  5
9B
  8
DEFAULT
 62
     5
 10
135.4028008225628
 20
93.80474682431094
 30
0.0
  0
VERTEX
  5
9C
  8
DEFAULT
 62
     5
 10
135.4028008225628
 20
91.18669125698145
 30
0.0
  0
VERTEX
  5
9D
  8
DEFAULT
 62
     5
 10
133.8719366250319
 20
91.18669125698145
 30
0.0
  0
VERTEX
  5
9E
  8
DEFAULT
 62
     5
 10
133.8719366250319
 20
96.96446903475922
 30
0.0
  0
VERTEX
  5
9F
  8
DEFAULT
 62
     5
 10
135.304035390464
 20
96.96446903475922
 30
0.0
  0
VERTEX
  5
A0
  8
DEFAULT
 62
     5
 10
135.304035390464
 20
96.12187714860283
 30
0.0
 42
-0.2486296121988586
  0
VERTEX
  5
A1
  8
DEFAULT
 62
     5
 10
137.1867515340382
 20
97.1126171829074
 30
0.0
 42
-0.1053164015607938
  0
VERTEX
  5
A2
  8
DEFAULT
 62
     5
 10
138.1007175893079
 20
96.92974703624176
 30
0.0
 42
-0.1292191717089108
  0
VERTEX
  5
A3
  8
DEFAULT
 62
     5
 10
138.7272609404717
 20
96.4633118922654
 30
0.0
 42
-0.1054932374261636
  0
VERTEX
  5
A4
  8
DEFAULT
 62
     5
 10
139.0231714284119
 20
95.81940754184289
 30
0.0
 42
-0.0533641385177547
  0
VERTEX
  5
A5
  8
DEFAULT
 62
     5
 10
139.1065045262665
 20
94.78777219855729
 30
0.0
  0
SEQEND
  5
A6
  8
DEFAULT
 62
     5
  0
POLYLINE
  5
A7
  8
DEFAULT
 62
     5
 66
     1
 10
0.0
 20
0.0
 30
0.0
 70
     1
  0
VERTEX
  5
A8
  8
DEFAULT
 62
     5
 10
130.8102082299702
 20
91.18669125698145
 30
0.0
  0
VERTEX
  5
A9
  8
DEFAULT
 62
     5
 10
130.8102082299702
 20
96.96446903475922
 30
0.0
  0
VERTEX
  5
AA
  8
DEFAULT
 62
     5
 10
132.3410724275011
 20
96.96446903475922
 30
0.0
  0
VERTEX
  5
AB
  8
DEFAULT
 62
     5
 10
132.3410724275011
 20
91.18669125698145
 30
0.0
  0
SEQEND
  5
AC
  8
DEFAULT
 62
     5
  0
POLYLINE
  5
AD
  8
DEFAULT
 62
     5
 66
     1
 10
0.0
 20
0.0
 30
0.0
 70
     1
  0
VERTEX
  5
AE
  8
DEFAULT
 62
     5
 10
130.8102082299702
 20
97.80397520759873
 30
0.0
  0
VERTEX
  5
AF
  8
DEFAULT
 62
     5
 10
130.8102082299702
 20
99.13730854093207
 30
0.0
  0
VERTEX
  5
B0
  8
DEFAULT
 62
     5
 10
132.3410724275011
 20
99.13730854093207
 30
0.0
  0
VERTEX
  5
B1
  8
DEFAULT
 62
     5
 10
132.3410724275011
 20
97.80397520759873
 30
0.0
  0
SEQEND
  5
B2
  8
DEFAULT
 62
     5
  0
POLYLINE
  5
B3
  8
DEFAULT
 62
     5
 66
     1
 10
0.0
 20
0.0
 30
0.0
 70
     1
  0
VERTEX
  5
B4
  8
DEFAULT
 62
     5
 10
129.7731711929331
 20
96.96446903475922
 30
0.0
  0
VERTEX
  5
B5
  8
DEFAULT
 62
     5
 10
129.7731711929331
 20
95.77928384957404
 30
0.0
  0
VERTEX
  5
B6
  8
DEFAULT
 62
     5
 10
128.7361341558961
 20
95.77928384957404
 30
0.0
  0
VERTEX
  5
B7
  8
DEFAULT
 62
     5
 10
128.7361341558961
 20
93.39348189849144
 30
0.0
  0
VERTEX
  5
B8
  8
DEFAULT
 62
     5
 10
128.7654552141941
 20
92.54895984025661
 30
0.0
  0
VERTEX
  5
B9
  8
DEFAULT
 62
     5
 10
128.8977855965079
 20
92.35104316770298
 30
0.0
  0
VERTEX
  5
BA
  8
DEFAULT
 62
     5
 10
129.1497146853842
 20
92.27311101006786
 30
0.0
  0
VERTEX
  5
BB
  8
DEFAULT
 62
     5
 10
129.7484802116744
 20
92.41894506161134
 30
0.0
  0
VERTEX
  5
BC
  8
DEFAULT
 62
     5
 10
129.8719366250319
 20
91.26076570782148
 30
0.0
 42
-0.1009135694950944
  0
VERTEX
  5
BD
  8
DEFAULT
 62
     5
 10
128.680579259681
 20
91.03854310883331
 30
0.0
 42
-0.1023112505794141
  0
VERTEX
  5
BE
  8
DEFAULT
 62
     5
 10
127.9456252675159
 20
91.1789754666253
 30
0.0
 42
-0.1427327602513354
  0
VERTEX
  5
BF
  8
DEFAULT
 62
     5
 10
127.4653010227197
 20
91.5420158549957
 30
0.0
 42
-0.1112474266807193
  0
VERTEX
  5
C0
  8
DEFAULT
 62
     5
 10
127.2538818112344
 20
92.14425327972492
 30
0.0
  0
VERTEX
  5
C1
  8
DEFAULT
 62
     5
 10
127.2052699583652
 20
93.23298788294797
 30
0.0
  0
VERTEX
  5
C2
  8
DEFAULT
 62
     5
 10
127.2052699583652
 20
95.77928384957404
 30
0.0
  0
VERTEX
  5
C3
  8
DEFAULT
 62
     5
 10
126.4645292176245
 20
95.77928384957404
 30
0.0
  0
VERTEX
  5
C4
  8
DEFAULT
 62
     5
 10
126.4645292176245
 20
96.96446903475922
 30
0.0
  0
VERTEX
  5
C5
  8
DEFAULT
 62
     5
 10
127.2052699583652
 20
96.96446903475922
 30
0.0
  0
VERTEX
  5
C6
  8
DEFAULT
 62
     5
 10
127.2052699583652
 20
98.05088878784565
 30
0.0
  0
VERTEX
  5
C7
  8
DEFAULT
 62
     5
 10
128.7361341558961
 20
98.93977767673454
 30
0.0
  0
VERTEX
  5
C8
  8
DEFAULT
 62
     5
 10
128.7361341558961
 20
96.96446903475922
 30
0.0
  0
SEQEND
  5
C9
  8
DEFAULT
 62
     5
  0
POLYLINE
  5
CA
  8
DEFAULT
 62
     5
 66
     1
 10
0.0
 20
0.0
 30
0.0
 70
     1
  0
VERTEX
  5
CB
  8
DEFAULT
 62
     5
 10
126.0694674892295
 20
96.96446903475922
 30
0.0
  0
VERTEX
  5
CC
  8
DEFAULT
 62
     5
 10
126.0694674892295
 20
95.77928384957404
 30
0.0
  0
VERTEX
  5
CD
  8
DEFAULT
 62
     5
 10
125.0324304521924
 20
95.77928384957404
 30
0.0
  0
VERTEX
  5
CE
  8
DEFAULT
 62
     5
 10
125.0324304521924
 20
93.39348189849144
 30
0.0
  0
VERTEX
  5
CF
  8
DEFAULT
 62
     5
 10
125.0617515104904
 20
92.54895984025661
 30
0.0
  0
VERTEX
  5
D0
  8
DEFAULT
 62
     5
 10
125.1940818928042
 20
92.35104316770298
 30
0.0
  0
VERTEX
  5
D1
  8
DEFAULT
 62
     5
 10
125.4460109816805
 20
92.27311101006786
 30
0.0
  0
VERTEX
  5
D2
  8
DEFAULT
 62
     5
 10
126.0447765079707
 20
92.41894506161134
 30
0.0
  0
VERTEX
  5
D3
  8
DEFAULT
 62
     5
 10
126.1682329213282
 20
91.2607657078215
 30
0.0
 42
-0.1009135694950966
  0
VERTEX
  5
D4
  8
DEFAULT
 62
     5
 10
124.9768755559773
 20
91.0385431088333
 30
0.0
 42
-0.1023112505794014
  0
VERTEX
  5
D5
  8
DEFAULT
 62
     5
 10
124.2419215638121
 20
91.17897546662532
 30
0.0
 42
-0.1427327602513417
  0
VERTEX
  5
D6
  8
DEFAULT
 62
     5
 10
123.761597319016
 20
91.5420158549957
 30
0.0
 42
-0.1112474266807418
  0
VERTEX
  5
D7
  8
DEFAULT
 62
     5
 10
123.5501781075307
 20
92.14425327972492
 30
0.0
  0
VERTEX
  5
D8
  8
DEFAULT
 62
     5
 10
123.5015662546616
 20
93.23298788294797
 30
0.0
  0
VERTEX
  5
D9
  8
DEFAULT
 62
     5
 10
123.5015662546616
 20
95.77928384957404
 30
0.0
  0
VERTEX
  5
DA
  8
DEFAULT
 62
     5
 10
122.7608255139208
 20
95.77928384957404
 30
0.0
  0
VERTEX
  5
DB
  8
DEFAULT
 62
     5
 10
122.7608255139208
 20
96.96446903475922
 30
0.0
  0
VERTEX
  5
DC
  8
DEFAULT
 62
     5
 10
123.5015662546616
 20
96.96446903475922
 30
0.0
  0
VERTEX
  5
DD
  8
DEFAULT
 62
     5
 10
123.5015662546616
 20
98.05088878784565
 30
0.0
  0
VERTEX
  5
DE
  8
DEFAULT
 62
     5
 10
125.0324304521924
 20
98.93977767673454
 30
0.0
  0
VERTEX
  5
DF
  8
DEFAULT
 62
     5
 10
125.0324304521924
 20
96.96446903475922
 30
0.0
  0
SEQEND
  5
E0
  8
DEFAULT
 62
     5
  0
POLYLINE
  5
E1
  8
DEFAULT
 62
     5
 66
     1
 10
0.0
 20
0.0
 30
0.0
 70
     1
  0
VERTEX
  5
E2
  8
DEFAULT
 62
     5
 10
120.4398378595998
 20
91.18669125698145
 30
0.0
  0
VERTEX
  5
E3
  8
DEFAULT
 62
     5
 10
120.4398378595998
 20
92.04548784762616
 30
0.0
 42
-0.1223972716446082
  0
VERTEX
  5
E4
  8
DEFAULT
 62
     5
 10
119.6173072544289
 20
91.31246289724155
 30
0.0
 42
-0.1257588650398458
  0
VERTEX
  5
E5
  8
DEFAULT
 62
     5
 10
118.5409185186012
 20
91.0385431088333
 30
0.0
 42
-0.1301059334599841
  0
VERTEX
  5
E6
  8
DEFAULT
 62
     5
 10
117.5058105233447
 20
91.29510189798282
 30
0.0
 42
-0.1670007383232392
  0
VERTEX
  5
E7
  8
DEFAULT
 62
     5
 10
116.8422299467609
 20
92.01539517261601
 30
0.0
 42
-0.1009427833083689
  0
VERTEX
  5
E8
  8
DEFAULT
 62
     5
 10
116.6373687237974
 20
93.29780293324151
 30
0.0
  0
VERTEX
  5
E9
  8
DEFAULT
 62
     5
 10
116.6373687237974
 20
96.96446903475922
 30
0.0
  0
VERTEX
  5
EA
  8
DEFAULT
 62
     5
 10
118.1682329213282
 20
96.96446903475922
 30
0.0
  0
VERTEX
  5
EB
  8
DEFAULT
 62
     5
 10
118.1682329213282
 20
94.3116914689123
 30
0.0
 42
0.0503730066259816
  0
VERTEX
  5
EC
  8
DEFAULT
 62
     5
 10
118.2515663959488
 20
92.81902192186978
 30
0.0
 42
0.1675734251047785
  0
VERTEX
  5
ED
  8
DEFAULT
 62
     5
 10
118.5555788593672
 20
92.38422230956196
 30
0.0
 42
0.1610647544742327
  0
VERTEX
  5
EE
  8
DEFAULT
 62
     5
 10
119.1149923101008
 20
92.22372829401849
 30
0.0
 42
0.1578518894734321
  0
VERTEX
  5
EF
  8
DEFAULT
 62
     5
 10
119.8086651849288
 20
92.4386205342407
 30
0.0
 42
0.1591085904631056
  0
VERTEX
  5
F0
  8
DEFAULT
 62
     5
 10
120.2280324629924
 20
92.97141396193507
 30
0.0
 42
0.062794802146836
  0
VERTEX
  5
F1
  8
DEFAULT
 62
     5
 10
120.3410724275011
 20
94.52851275091504
 30
0.0
  0
VERTEX
  5
F2
  8
DEFAULT
 62
     5
 10
120.3410724275011
 20
96.96446903475922
 30
0.0
  0
VERTEX
  5
F3
  8
DEFAULT
 62
     5
 10
121.8719366250319
 20
96.96446903475922
 30
0.0
  0
VERTEX
  5
F4
  8
DEFAULT
 62
     5
 10
121.8719366250319
 20
91.18669125698145
 30
0.0
  0
SEQEND
  5
F5
  8
DEFAULT
 62
     5
  0
POLYLINE
  5
F6
  8
DEFAULT
 62
     5
 66
     1
 10
0.0
 20
0.0
 30
0.0
 70
     1
  0
VERTEX
  5
F7
  8
DEFAULT
 62
     5
 10
115.4521835386122
 20
95.2854566890802
 30
0.0
  0
VERTEX
  5
F8
  8
DEFAULT
 62
     5
 10
113.9213193410813
 20
95.0385431088333
 30
0.0
 42
0.1809968098175252
  0
VERTEX
  5
F9
  8
DEFAULT
 62
     5
 10
113.5794987890626
 20
95.7040527271976
 30
0.0
 42
0.1804760167669809
  0
VERTEX
  5
FA
  8
DEFAULT
 62
     5
 10
112.8881403876053
 20
95.9274319977222
 30
0.0
 42
0.2329674834671501
  0
VERTEX
  5
FB
  8
DEFAULT
 62
     5
 10
111.9861343913749
 20
95.52619771239543
 30
0.0
 42
0.169517955512051
  0
VERTEX
  5
FC
  8
DEFAULT
 62
     5
 10
111.6497144028097
 20
94.18360535528157
 30
0.0
 42
0.1610966817174995
  0
VERTEX
  5
FD
  8
DEFAULT
 62
     5
 10
111.994236366853
 20
92.70482415552685
 30
0.0
 42
0.2405540491093946
  0
VERTEX
  5
FE
  8
DEFAULT
 62
     5
 10
112.9190050560937
 20
92.27311101006786
 30
0.0
 42
0.1883458441869822
  0
VERTEX
  5
FF
  8
DEFAULT
 62
     5
 10
113.6292673134681
 20
92.51771011694414
 30
0.0
 42
0.162260448994805
  0
VERTEX
  5
100
  8
DEFAULT
 62
     5
 10
114.0200847731801
 20
93.35953076315428
 30
0.0
  0
VERTEX
  5
101
  8
DEFAULT
 62
     5
 10
115.5509489707109
 20
93.16199989895675
 30
0.0
 42
-0.1724509721436003
  0
VERTEX
  5
102
  8
DEFAULT
 62
     5
 10
114.6566591416026
 20
91.57480881173261
 30
0.0
 42
-0.1746967243539295
  0
VERTEX
  5
103
  8
DEFAULT
 62
     5
 10
112.883511440864
 20
91.03854310883327
 30
0.0
 42
-0.2163976905724334
  0
VERTEX
  5
104
  8
DEFAULT
 62
     5
 10
110.8696219632783
 20
91.84294147479928
 30
0.0
 42
-0.1943870566320961
  0
VERTEX
  5
105
  8
DEFAULT
 62
     5
 10
110.1188502052788
 20
94.07017920565085
 30
0.0
 42
-0.1945054615972448
  0
VERTEX
  5
106
  8
DEFAULT
 62
     5
 10
110.8692361549222
 20
96.3109198522001
 30
0.0
 42
-0.2157801631579743
  0
VERTEX
  5
107
  8
DEFAULT
 62
     5
 10
112.8989430215762
 20
97.11261718290737
 30
0.0
 42
-0.1599423076958003
  0
VERTEX
  5
108
  8
DEFAULT
 62
     5
 10
114.5640666432015
 20
96.66122856481903
 30
0.0
 42
-0.1682635697126507
  0
SEQEND
  5
109
  8
DEFAULT
 62
     5
  0
POLYLINE
  5
10A
  8
DEFAULT
 62
     5
 66
     1
 10
0.0
 20
0.0
 30
0.0
 70
     1
  0
VERTEX
  5
10B
  8
DEFAULT
 62
     5
 10
104.6373687237974
 20
91.18669125698145
 30
0.0
  0
VERTEX
  5
10C
  8
DEFAULT
 62
     5
 10
103.1065045262665
 20
91.18669125698145
 30
0.0
  0
VERTEX
  5
10D
  8
DEFAULT
 62
     5
 10
103.1065045262665
 20
96.96446903475922
 30
0.0
  0
VERTEX
  5
10E
  8
DEFAULT
 62
     5
 10
104.5386032916986
 20
96.96446903475922
 30
0.0
  0
VERTEX
  5
10F
  8
DEFAULT
 62
     5
 10
104.5386032916986
 20
96.14888297999818
 30
0.0
 42
-0.0977550519460516
  0
VERTEX
  5
110
  8
DEFAULT
 62
     5
 10
105.1659182595746
 20
96.9197160189831
 30
0.0
 42
-0.1561720185079582
  0
VERTEX
  5
111
  8
DEFAULT
 62
     5
 10
105.7978629277238
 20
97.11261718290739
 30
0.0
 42
-0.1438170981369783
  0
VERTEX
  5
112
  8
DEFAULT
 62
     5
 10
106.7608255139208
 20
96.82172220359654
 30
0.0
  0
VERTEX
  5
113
  8
DEFAULT
 62
     5
 10
106.2916900882176
 20
95.48144507338527
 30
0.0
 42
0.1496770151887708
  0
VERTEX
  5
114
  8
DEFAULT
 62
     5
 10
105.6095914640728
 20
95.72990113352466
 30
0.0
 42
0.1810970994866865
  0
VERTEX
  5
115
  8
DEFAULT
 62
     5
 10
105.0922303706226
 20
95.55281811220064
 30
0.0
 42
0.1501348396488221
  0
VERTEX
  5
116
  8
DEFAULT
 62
     5
 10
104.7588968489063
 20
94.9127718453392
 30
0.0
 42
0.0509111359642197
  0
VERTEX
  5
117
  8
DEFAULT
 62
     5
 10
104.6373687237974
 20
92.97372843530573
 30
0.0
  0
SEQEND
  5
118
  8
DEFAULT
 62
     5
  0
POLYLINE
  5
119
  8
DEFAULT
 62
     5
 66
     1
 10
0.0
 20
0.0
 30
0.0
 70
     1
  0
VERTEX
  5
11A
  8
DEFAULT
 62
     5
 10
100.3904551435504
 20
94.59409866438885
 30
0.0
 42
0.1931771868552541
  0
VERTEX
  5
11B
  8
DEFAULT
 62
     5
 10
100.0389893826292
 20
95.58754011071807
 30
0.0
 42
0.2094545272841191
  0
VERTEX
  5
11C
  8
DEFAULT
 62
     5
 10
99.22456037617047
 20
95.92743199772217
 30
0.0
 42
0.2175151257022344
  0
VERTEX
  5
11D
  8
DEFAULT
 62
     5
 10
98.37656641949667
 20
95.56863625480091
 30
0.0
 42
0.1974850402976734
  0
VERTEX
  5
11E
  8
DEFAULT
 62
     5
 10
98.04709135810737
 20
94.59409866438885
 30
0.0
  0
SEQEND
  5
11F
  8
DEFAULT
 62
     5
  0
POLYLINE
  5
120
  8
DEFAULT
 62
     5
 66
     1
 10
0.0
 20
0.0
 30
0.0
 70
     1
  0
VERTEX
  5
121
  8
DEFAULT
 62
     5
 10
100.2916897114517
 20
93.01385175080861
 30
0.0
  0
VERTEX
  5
122
  8
DEFAULT
 62
     5
 10
101.8225539089825
 20
92.81632088661108
 30
0.0
 42
-0.1601948643917507
  0
VERTEX
  5
123
  8
DEFAULT
 62
     5
 10
100.8919984711663
 20
91.49301857053645
 30
0.0
 42
-0.1590209405814444
  0
VERTEX
  5
124
  8
DEFAULT
 62
     5
 10
99.30017806043494
 20
91.03854310883331
 30
0.0
 42
-0.2510606897924125
  0
VERTEX
  5
125
  8
DEFAULT
 62
     5
 10
97.06252350396854
 20
92.02928389666978
 30
0.0
 42
-0.1603231689598354
  0
VERTEX
  5
126
  8
DEFAULT
 62
     5
 10
96.4892205756492
 20
94.03159912357238
 30
0.0
 42
-0.1928988919450733
  0
VERTEX
  5
127
  8
DEFAULT
 62
     5
 10
97.24500784227803
 20
96.2947162780097
 30
0.0
 42
-0.2186957110499438
  0
VERTEX
  5
128
  8
DEFAULT
 62
     5
 10
99.15588724231588
 20
97.11261718290736
 30
0.0
 42
-0.2248762650829888
  0
VERTEX
  5
129
  8
DEFAULT
 62
     5
 10
101.2037271017068
 20
96.26192294450681
 30
0.0
 42
-0.1866850592647401
  0
VERTEX
  5
12A
  8
DEFAULT
 62
     5
 10
101.9213193410813
 20
93.65582705945059
 30
0.0
  0
VERTEX
  5
12B
  8
DEFAULT
 62
     5
 10
98.02008477318009
 20
93.65582705945059
 30
0.0
 42
0.1907233177561408
  0
VERTEX
  5
12C
  8
DEFAULT
 62
     5
 10
98.39778587908238
 20
92.60065740644261
 30
0.0
 42
0.2135192120775308
  0
VERTEX
  5
12D
  8
DEFAULT
 62
     5
 10
99.29786321029832
 20
92.22372829401847
 30
0.0
 42
0.1657236937101129
  0
VERTEX
  5
12E
  8
DEFAULT
 62
     5
 10
99.91398935908131
 20
92.41084270936717
 30
0.0
 42
0.1589948514629509
  0
SEQEND
  5
12F
  8
DEFAULT
 62
     5
  0
POLYLINE
  5
130
  8
DEFAULT
 62
     5
 66
     1
 10
0.0
 20
0.0
 30
0.0
 70
     1
  0
VERTEX
  5
131
  8
DEFAULT
 62
     5
 10
90.2176156373776
 20
92.81632088661108
 30
0.0
  0
VERTEX
  5
132
  8
DEFAULT
 62
     5
 10
91.74847983490847
 20
93.01385175080861
 30
0.0
 42
0.1817134537412954
  0
VERTEX
  5
133
  8
DEFAULT
 62
     5
 10
92.14469936513782
 20
92.35104316770298
 30
0.0
 42
0.1637490318833268
  0
VERTEX
  5
134
  8
DEFAULT
 62
     5
 10
92.97919040611396
 20
92.12496286191971
 30
0.0
 42
0.158154859031637
  0
VERTEX
  5
135
  8
DEFAULT
 62
     5
 10
93.86885091171504
 20
92.34641384419571
 30
0.0
 42
0.2454173628752374
  0
VERTEX
  5
136
  8
DEFAULT
 62
     5
 10
94.06946748922947
 20
92.76153760710818
 30
0.0
 42
0.1967133408659403
  0
VERTEX
  5
137
  8
DEFAULT
 62
     5
 10
93.96067179340396
 20
93.05474743655564
 30
0.0
 42
0.1152480441762693
  0
VERTEX
  5
138
  8
DEFAULT
 62
     5
 10
93.4483258318171
 20
93.25922285116306
 30
0.0
 42
-0.0750101977649216
  0
VERTEX
  5
139
  8
DEFAULT
 62
     5
 10
91.10110396281297
 20
94.01462355590378
 30
0.0
 42
-0.2630575377237162
  0
VERTEX
  5
13A
  8
DEFAULT
 62
     5
 10
90.41514650157514
 20
95.32480914140284
 30
0.0
 42
-0.2278055359034024
  0
VERTEX
  5
13B
  8
DEFAULT
 62
     5
 10
91.00812490252385
 20
96.5971851312377
 30
0.0
 42
-0.1789409577799034
  0
VERTEX
  5
13C
  8
DEFAULT
 62
     5
 10
92.84647383867801
 20
97.11261718290736
 30
0.0
 42
-0.1478680227513001
  0
VERTEX
  5
13D
  8
DEFAULT
 62
     5
 10
94.60881965897761
 20
96.71331193936116
 30
0.0
 42
-0.1798681362132373
  0
VERTEX
  5
13E
  8
DEFAULT
 62
     5
 10
95.4028008225628
 20
95.53237026932713
 30
0.0
  0
VERTEX
  5
13F
  8
DEFAULT
 62
     5
 10
93.9707020571307
 20
95.2854566890802
 30
0.0
 42
0.1762609448244201
  0
VERTEX
  5
140
  8
DEFAULT
 62
     5
 10
93.62039372127774
 20
95.83522530767719
 30
0.0
 42
0.1598214678236296
  0
VERTEX
  5
141
  8
DEFAULT
 62
     5
 10
92.88428230404426
 20
96.02619742982095
 30
0.0
 42
0.1371855487857318
  0
VERTEX
  5
142
  8
DEFAULT
 62
     5
 10
92.02085676665826
 20
95.8549015338385
 30
0.0
 42
0.5297885667389126
  0
VERTEX
  5
143
  8
DEFAULT
 62
     5
 10
91.99925149871642
 20
95.25690762426044
 30
0.0
 42
0.0664798749578805
  0
VERTEX
  5
144
  8
DEFAULT
 62
     5
 10
93.42286285708022
 20
94.81979353858199
 30
0.0
 42
-0.109521419337741
  0
VERTEX
  5
145
  8
DEFAULT
 62
     5
 10
95.12270847722286
 20
94.13267940580778
 30
0.0
 42
-0.228411495879774
  0
VERTEX
  5
146
  8
DEFAULT
 62
     5
 10
95.60033168676031
 20
92.98838915283768
 30
0.0
 42
-0.2276229810650719
  0
VERTEX
  5
147
  8
DEFAULT
 62
     5
 10
94.93829472036691
 20
91.61338889381108
 30
0.0
 42
-0.1809722242825229
  0
VERTEX
  5
148
  8
DEFAULT
 62
     5
 10
92.97919040611396
 20
91.0385431088333
 30
0.0
 42
-0.1534212868272004
  0
VERTEX
  5
149
  8
DEFAULT
 62
     5
 10
91.1153781184569
 20
91.51693831184893
 30
0.0
 42
-0.1853542620165918
  0
SEQEND
  5
14A
  8
DEFAULT
 62
     5
  0
POLYLINE
  5
14B
  8
DEFAULT
 62
     5
 66
     1
 10
0.0
 20
0.0
 30
0.0
 70
     1
  0
VERTEX
  5
14C
  8
DEFAULT
 62
     5
 10
87.6497144028097
 20
93.95212335574688
 30
0.0
  0
VERTEX
  5
14D
  8
DEFAULT
 62
     5
 10
86.75851104055016
 20
93.7183272596075
 30
0.0
 42
0.0811165779561226
  0
VERTEX
  5
14E
  8
DEFAULT
 62
     5
 10
85.96144341011615
 20
93.45212401508732
 30
0.0
 42
0.2517191883486561
  0
VERTEX
  5
14F
  8
DEFAULT
 62
     5
 10
85.67440576083439
 20
92.91354383881738
 30
0.0
 42
0.4298150945545279
  0
VERTEX
  5
150
  8
DEFAULT
 62
     5
 10
86.48767771899077
 20
92.12496286191968
 30
0.0
 42
0.1670482644845967
  0
VERTEX
  5
151
  8
DEFAULT
 62
     5
 10
87.24307917726347
 20
92.3965681769573
 30
0.0
 42
0.1651612454991154
  0
VERTEX
  5
152
  8
DEFAULT
 62
     5
 10
87.5926162731702
 20
92.90274120484645
 30
0.0
  0
VERTEX
  5
153
  8
DEFAULT
 62
     5
 10
87.6497144028097
 20
93.64734002914824
 30
0.0
  0
SEQEND
  5
154
  8
DEFAULT
 62
     5
  0
POLYLINE
  5
155
  8
DEFAULT
 62
     5
 66
     1
 10
0.0
 20
0.0
 30
0.0
 70
     1
  0
VERTEX
  5
156
  8
DEFAULT
 62
     5
 10
85.72378847688378
 20
95.18669125698145
 30
0.0
  0
VERTEX
  5
157
  8
DEFAULT
 62
     5
 10
84.34107242750109
 20
95.38422212117898
 30
0.0
 42
-0.1714833175990407
  0
VERTEX
  5
158
  8
DEFAULT
 62
     5
 10
85.13081045270106
 20
96.68900638969255
 30
0.0
 42
-0.1608829132837464
  0
VERTEX
  5
159
  8
DEFAULT
 62
     5
 10
86.79554826597018
 20
97.11261718290737
 30
0.0
 42
-0.1088364278880795
  0
VERTEX
  5
15A
  8
DEFAULT
 62
     5
 10
88.28937523808102
 20
96.8699474945776
 30
0.0
 42
-0.1580303644335268
  0
VERTEX
  5
15B
  8
DEFAULT
 62
     5
 10
88.98034745441629
 20
96.25343516067252
 30
0.0
 42
-0.1088017057953572
  0
VERTEX
  5
15C
  8
DEFAULT
 62
     5
 10
89.18057860034057
 20
94.8811363136706
 30
0.0
  0
VERTEX
  5
15D
  8
DEFAULT
 62
     5
 10
89.18057860034057
 20
93.09101266849748
 30
0.0
 42
0.0514080219695375
  0
VERTEX
  5
15E
  8
DEFAULT
 62
     5
 10
89.26391207496115
 20
91.9640834147861
 30
0.0
 42
0.0692287864232669
  0
VERTEX
  5
15F
  8
DEFAULT
 62
     5
 10
89.57564032873563
 20
91.18669125698145
 30
0.0
  0
VERTEX
  5
160
  8
DEFAULT
 62
     5
 10
88.04477613120477
 20
91.18669125698145
 30
0.0
  0
VERTEX
  5
161
  8
DEFAULT
 62
     5
 10
87.89817121648105
 20
91.63422216827472
 30
0.0
  0
VERTEX
  5
162
  8
DEFAULT
 62
     5
 10
87.84415955369035
 20
91.812463368199
 30
0.0
 42
-0.0933244186738192
  0
VERTEX
  5
163
  8
DEFAULT
 62
     5
 10
87.00851071087993
 20
91.23221626623575
 30
0.0
 42
-0.1040133466925637
  0
VERTEX
  5
164
  8
DEFAULT
 62
     5
 10
86.05866560879048
 20
91.03854310883331
 30
0.0
 42
-0.196543035759679
  0
VERTEX
  5
165
  8
DEFAULT
 62
     5
 10
84.65627333324649
 20
91.5227254371905
 30
0.0
 42
-0.2154369487651238
  0
VERTEX
  5
166
  8
DEFAULT
 62
     5
 10
84.14354156330353
 20
92.74687688957623
 30
0.0
 42
-0.1373780248024457
  0
VERTEX
  5
167
  8
DEFAULT
 62
     5
 10
84.37193671922341
 20
93.62033344422095
 30
0.0
 42
-0.1473783213971256
  0
VERTEX
  5
168
  8
DEFAULT
 62
     5
 10
85.01198336285084
 20
94.2079105281842
 30
0.0
 42
-0.063440493484709
  0
VERTEX
  5
169
  8
DEFAULT
 62
     5
 10
86.19909758981655
 20
94.56400636614468
 30
0.0
 42
0.047200987772904
  0
VERTEX
  5
16A
  8
DEFAULT
 62
     5
 10
87.6497144028097
 20
94.93977767673454
 30
0.0
  0
VERTEX
  5
16B
  8
DEFAULT
 62
     5
 10
87.64971440280972
 20
95.09487037529256
 30
0.0
 42
0.2070921599656212
  0
VERTEX
  5
16C
  8
DEFAULT
 62
     5
 10
87.44485355661217
 20
95.73607406722232
 30
0.0
 42
0.1777887432707962
  0
VERTEX
  5
16D
  8
DEFAULT
 62
     5
 10
86.67131948236855
 20
95.92743199772218
 30
0.0
 42
0.165109113803861
  0
VERTEX
  5
16E
  8
DEFAULT
 62
     5
 10
86.07216852448813
 20
95.76308027538364
 30
0.0
 42
0.149158767987722
  0
SEQEND
  5
16F
  8
DEFAULT
 62
     5
  0
POLYLINE
  5
170
  8
DEFAULT
 62
     5
 66
     1
 10
0.0
 20
0.0
 30
0.0
 70
     1
  0
VERTEX
  5
171
  8
DEFAULT
 62
     5
 10
81.52625761268624
 20
91.18669125698145
 30
0.0
  0
VERTEX
  5
172
  8
DEFAULT
 62
     5
 10
81.52625761268624
 20
99.13730854093207
 30
0.0
  0
VERTEX
  5
173
  8
DEFAULT
 62
     5
 10
83.05712181021713
 20
99.13730854093207
 30
0.0
  0
VERTEX
  5
174
  8
DEFAULT
 62
     5
 10
83.05712181021713
 20
91.18669125698145
 30
0.0
  0
SEQEND
  5
175
  8
DEFAULT
 62
     5
  0
POLYLINE
  5
176
  8
DEFAULT
 62
     5
 66
     1
 10
0.0
 20
0.0
 30
0.0
 70
     1
  0
VERTEX
  5
177
  8
DEFAULT
 62
     5
 10
71.62502342155099
 20
91.18669125698145
 30
0.0
  0
VERTEX
  5
178
  8
DEFAULT
 62
     5
 10
73.67363489765413
 20
94.16277170405195
 30
0.0
  0
VERTEX
  5
179
  8
DEFAULT
 62
     5
 10
71.72378885364975
 20
96.96446903475922
 30
0.0
  0
VERTEX
  5
17A
  8
DEFAULT
 62
     5
 10
73.56638168172108
 20
96.96446903475922
 30
0.0
  0
VERTEX
  5
17B
  8
DEFAULT
 62
     5
 10
74.5501779191477
 20
95.37573509087663
 30
0.0
  0
VERTEX
  5
17C
  8
DEFAULT
 62
     5
 10
75.591844656458
 20
96.96446903475922
 30
0.0
  0
VERTEX
  5
17D
  8
DEFAULT
 62
     5
 10
77.35341848327937
 20
96.96446903475922
 30
0.0
  0
VERTEX
  5
17E
  8
DEFAULT
 62
     5
 10
75.4490978252953
 20
94.2275867543455
 30
0.0
  0
VERTEX
  5
17F
  8
DEFAULT
 62
     5
 10
77.55094934747692
 20
91.18669125698145
 30
0.0
  0
VERTEX
  5
180
  8
DEFAULT
 62
     5
 10
75.70835651940558
 20
91.18669125698145
 30
0.0
  0
VERTEX
  5
181
  8
DEFAULT
 62
     5
 10
74.5501779191477
 20
92.97681490215456
 30
0.0
  0
VERTEX
  5
182
  8
DEFAULT
 62
     5
 10
73.3865972483724
 20
91.18669125698145
 30
0.0
  0
SEQEND
  5
183
  8
DEFAULT
 62
     5
  0
POLYLINE
  5
184
  8
DEFAULT
 62
     5
 66
     1
 10
0.0
 20
0.0
 30
0.0
 70
     1
  0
VERTEX
  5
185
  8
DEFAULT
 62
     5
 10
66.71144279787143
 20
94.07558052263632
 30
0.0
 42
0.1807696907208172
  0
VERTEX
  5
186
  8
DEFAULT
 62
     5
 10
67.11113422653975
 20
92.73761748902973
 30
0.0
 42
0.4777036397637872
  0
VERTEX
  5
187
  8
DEFAULT
 62
     5
 10
69.07988450322725
 20
92.73761748902973
 30
0.0
 42
0.1794408075869794
  0
VERTEX
  5
188
  8
DEFAULT
 62
     5
 10
69.47687489663687
 20
94.08638315660723
 30
0.0
 42
0.1800932450793947
  0
VERTEX
  5
189
  8
DEFAULT
 62
     5
 10
69.07988450322725
 20
95.41354317947692
 30
0.0
 42
0.4793729384846155
  0
VERTEX
  5
18A
  8
DEFAULT
 62
     5
 10
67.11113422653975
 20
95.41354317947692
 30
0.0
 42
0.1807697890868456
  0
SEQEND
  5
18B
  8
DEFAULT
 62
     5
  0
POLYLINE
  5
18C
  8
DEFAULT
 62
     5
 66
     1
 10
0.0
 20
0.0
 30
0.0
 70
     1
  0
VERTEX
  5
18D
  8
DEFAULT
 62
     5
 10
65.18057860034057
 20
94.15737038706649
 30
0.0
 42
-0.1222574291832674
  0
VERTEX
  5
18E
  8
DEFAULT
 62
     5
 10
65.55364962920368
 20
95.64039547873837
 30
0.0
 42
-0.1509199207835912
  0
VERTEX
  5
18F
  8
DEFAULT
 62
     5
 10
66.61074870075815
 20
96.73491683053699
 30
0.0
 42
-0.1287246067144088
  0
VERTEX
  5
190
  8
DEFAULT
 62
     5
 10
68.13814099985001
 20
97.11261718290737
 30
0.0
 42
-0.2109274079128463
  0
VERTEX
  5
191
  8
DEFAULT
 62
     5
 10
70.27394290383684
 20
96.25613581916524
 30
0.0
 42
-0.2026212639801798
  0
VERTEX
  5
192
  8
DEFAULT
 62
     5
 10
71.10650452626649
 20
94.09178447359268
 30
0.0
 42
-0.202229597332317
  0
VERTEX
  5
193
  8
DEFAULT
 62
     5
 10
70.26584130512464
 20
91.90582710654631
 30
0.0
 42
-0.2115506096601021
  0
VERTEX
  5
194
  8
DEFAULT
 62
     5
 10
68.14894288028898
 20
91.03854310883331
 30
0.0
 42
-0.1188796278362351
  0
VERTEX
  5
195
  8
DEFAULT
 62
     5
 10
66.64315584913894
 20
91.39965445542315
 30
0.0
 42
-0.1582355798320428
  0
VERTEX
  5
196
  8
DEFAULT
 62
     5
 10
65.55364962920368
 20
92.45868256875812
 30
0.0
 42
-0.1239053267140306
  0
SEQEND
  5
197
  8
DEFAULT
 62
     5
  0
POLYLINE
  5
198
  8
DEFAULT
 62
     5
 66
     1
 10
0.0
 20
0.0
 30
0.0
 70
     1
  0
VERTEX
  5
199
  8
DEFAULT
 62
     5
 10
60.29168971145168
 20
94.18283373856937
 30
0.0
 42
0.1375284068188292
  0
VERTEX
  5
19A
  8
DEFAULT
 62
     5
 10
60.57023957689913
 20
92.84024100468953
 30
0.0
 42
0.2740108968145664
  0
VERTEX
  5
19B
  8
DEFAULT
 62
     5
 10
61.60959146407279
 20
92.22372829401847
 30
0.0
 42
0.2391215062966231
  0
VERTEX
  5
19C
  8
DEFAULT
 62
     5
 10
62.45912827740502
 20
92.66122856481903
 30
0.0
 42
0.1664742695868123
  0
VERTEX
  5
19D
  8
DEFAULT
 62
     5
 10
62.81020822997023
 20
94.04008690740667
 30
0.0
 42
0.1640109831052131
  0
VERTEX
  5
19E
  8
DEFAULT
 62
     5
 10
62.45642761891229
 20
95.48453078670217
 30
0.0
 42
0.2405029912267731
  0
VERTEX
  5
19F
  8
DEFAULT
 62
     5
 10
61.55094934747692
 20
95.9274319977222
 30
0.0
 42
0.2344888738737515
  0
VERTEX
  5
1A0
  8
DEFAULT
 62
     5
 10
60.65087201626102
 20
95.49533342067308
 30
0.0
 42
0.1733692477042189
  0
SEQEND
  5
1A1
  8
DEFAULT
 62
     5
  0
POLYLINE
  5
1A2
  8
DEFAULT
 62
     5
 66
     1
 10
0.0
 20
0.0
 30
0.0
 70
     1
  0
VERTEX
  5
1A3
  8
DEFAULT
 62
     5
 10
58.76082551392082
 20
91.18669125698145
 30
0.0
  0
VERTEX
  5
1A4
  8
DEFAULT
 62
     5
 10
58.76082551392082
 20
99.13730854093207
 30
0.0
  0
VERTEX
  5
1A5
  8
DEFAULT
 62
     5
 10
60.29168971145168
 20
99.13730854093207
 30
0.0
  0
VERTEX
  5
1A6
  8
DEFAULT
 62
     5
 10
60.29168971145167
 20
96.3132350791027
 30
0.0
 42
-0.2270822596882884
  0
VERTEX
  5
1A7
  8
DEFAULT
 62
     5
 10
61.94138137559872
 20
97.11261718290736
 30
0.0
 42
-0.2252479393351434
  0
VERTEX
  5
1A8
  8
DEFAULT
 62
     5
 10
63.66090284513673
 20
96.34371318570298
 30
0.0
 42
-0.184998856429609
  0
VERTEX
  5
1A9
  8
DEFAULT
 62
     5
 10
64.34107242750108
 20
94.1357658726566
 30
0.0
 42
-0.1811789010422576
  0
VERTEX
  5
1AA
  8
DEFAULT
 62
     5
 10
63.64894316286348
 20
91.84294147479926
 30
0.0
 42
-0.2291506328684829
  0
VERTEX
  5
1AB
  8
DEFAULT
 62
     5
 10
61.9676163438138
 20
91.03854310883328
 30
0.0
 42
-0.1258590372260944
  0
VERTEX
  5
1AC
  8
DEFAULT
 62
     5
 10
61.00812527928981
 20
91.2935586645584
 30
0.0
 42
-0.1164914631293795
  0
VERTEX
  5
1AD
  8
DEFAULT
 62
     5
 10
60.19292427935292
 20
92.02928389666978
 30
0.0
  0
VERTEX
  5
1AE
  8
DEFAULT
 62
     5
 10
60.19292427935292
 20
91.18669125698145
 30
0.0
  0
SEQEND
  5
1AF
  8
DEFAULT
 62
     5
  0
POLYLINE
  5
1B0
  8
DEFAULT
 62
     5
 66
     1
 10
0.0
 20
0.0
 30
0.0
 70
     1
  0
VERTEX
  5
1B1
  8
DEFAULT
 62
     5
 10
52.98304773614305
 20
94.59409866438885
 30
0.0
 42
0.1931771868552653
  0
VERTEX
  5
1B2
  8
DEFAULT
 62
     5
 10
52.63158197522176
 20
95.58754011071807
 30
0.0
 42
0.2094545272841048
  0
VERTEX
  5
1B3
  8
DEFAULT
 62
     5
 10
51.81715296876305
 20
95.92743199772217
 30
0.0
 42
0.217515125702219
  0
VERTEX
  5
1B4
  8
DEFAULT
 62
     5
 10
50.96915901208929
 20
95.56863625480091
 30
0.0
 42
0.1974850402976797
  0
VERTEX
  5
1B5
  8
DEFAULT
 62
     5
 10
50.63968395069995
 20
94.59409866438885
 30
0.0
  0
SEQEND
  5
1B6
  8
DEFAULT
 62
     5
  0
POLYLINE
  5
1B7
  8
DEFAULT
 62
     5
 66
     1
 10
0.0
 20
0.0
 30
0.0
 70
     1
  0
VERTEX
  5
1B8
  8
DEFAULT
 62
     5
 10
52.88428230404429
 20
93.01385175080861
 30
0.0
  0
VERTEX
  5
1B9
  8
DEFAULT
 62
     5
 10
54.41514650157515
 20
92.81632088661108
 30
0.0
 42
-0.1601948643917409
  0
VERTEX
  5
1BA
  8
DEFAULT
 62
     5
 10
53.48459106375895
 20
91.49301857053645
 30
0.0
 42
-0.1590209405814362
  0
VERTEX
  5
1BB
  8
DEFAULT
 62
     5
 10
51.89277065302753
 20
91.0385431088333
 30
0.0
 42
-0.2510606897924108
  0
VERTEX
  5
1BC
  8
DEFAULT
 62
     5
 10
49.65511609656113
 20
92.02928389666978
 30
0.0
 42
-0.1603231689598252
  0
VERTEX
  5
1BD
  8
DEFAULT
 62
     5
 10
49.0818131682418
 20
94.03159912357238
 30
0.0
 42
-0.1928988919450662
  0
VERTEX
  5
1BE
  8
DEFAULT
 62
     5
 10
49.83760043487061
 20
96.29471627800972
 30
0.0
 42
-0.2186957110499379
  0
VERTEX
  5
1BF
  8
DEFAULT
 62
     5
 10
51.74847983490847
 20
97.11261718290739
 30
0.0
 42
-0.2248762650829826
  0
VERTEX
  5
1C0
  8
DEFAULT
 62
     5
 10
53.79631969429942
 20
96.26192294450681
 30
0.0
 42
-0.1866850592647359
  0
VERTEX
  5
1C1
  8
DEFAULT
 62
     5
 10
54.5139119336739
 20
93.65582705945059
 30
0.0
  0
VERTEX
  5
1C2
  8
DEFAULT
 62
     5
 10
50.61267736577267
 20
93.65582705945059
 30
0.0
 42
0.1907233177561209
  0
VERTEX
  5
1C3
  8
DEFAULT
 62
     5
 10
50.990378471675
 20
92.60065740644262
 30
0.0
 42
0.2135192120775291
  0
VERTEX
  5
1C4
  8
DEFAULT
 62
     5
 10
51.8904558028909
 20
92.22372829401849
 30
0.0
 42
0.165723693710104
  0
VERTEX
  5
1C5
  8
DEFAULT
 62
     5
 10
52.5065819516739
 20
92.41084270936716
 30
0.0
 42
0.1589948514629389
  0
SEQEND
  5
1C6
  8
DEFAULT
 62
     5
  0
POLYLINE
  5
1C7
  8
DEFAULT
 62
     5
 66
     1
 10
0.0
 20
0.0
 30
0.0
 70
     1
  0
VERTEX
  5
1C8
  8
DEFAULT
 62
     5
 10
46.46452921762452
 20
91.18669125698145
 30
0.0
  0
VERTEX
  5
1C9
  8
DEFAULT
 62
     5
 10
46.46452921762452
 20
99.13730854093207
 30
0.0
  0
VERTEX
  5
1CA
  8
DEFAULT
 62
     5
 10
47.99539341515538
 20
99.13730854093207
 30
0.0
  0
VERTEX
  5
1CB
  8
DEFAULT
 62
     5
 10
47.99539341515538
 20
91.18669125698145
 30
0.0
  0
SEQEND
  5
1CC
  8
DEFAULT
 62
     5
  0
POLYLINE
  5
1CD
  8
DEFAULT
 62
     5
 66
     1
 10
0.0
 20
0.0
 30
0.0
 70
     1
  0
VERTEX
  5
1CE
  8
DEFAULT
 62
     5
 10
41.22996131638996
 20
94.18283373856937
 30
0.0
 42
0.1375284068188308
  0
VERTEX
  5
1CF
  8
DEFAULT
 62
     5
 10
41.5085111818374
 20
92.84024100468953
 30
0.0
 42
0.2740108968145689
  0
VERTEX
  5
1D0
  8
DEFAULT
 62
     5
 10
42.54786306901107
 20
92.22372829401846
 30
0.0
 42
0.2391215062966195
  0
VERTEX
  5
1D1
  8
DEFAULT
 62
     5
 10
43.39739988234331
 20
92.66122856481901
 30
0.0
 42
0.1664742695868038
  0
VERTEX
  5
1D2
  8
DEFAULT
 62
     5
 10
43.74847983490844
 20
94.04008690740667
 30
0.0
 42
0.164010983105208
  0
VERTEX
  5
1D3
  8
DEFAULT
 62
     5
 10
43.39469922385058
 20
95.48453078670218
 30
0.0
 42
0.240502991226754
  0
VERTEX
  5
1D4
  8
DEFAULT
 62
     5
 10
42.4892209524152
 20
95.92743199772217
 30
0.0
 42
0.2344888738737481
  0
VERTEX
  5
1D5
  8
DEFAULT
 62
     5
 10
41.58914362119928
 20
95.49533342067308
 30
0.0
 42
0.1733692477041971
  0
SEQEND
  5
1D6
  8
DEFAULT
 62
     5
  0
POLYLINE
  5
1D7
  8
DEFAULT
 62
     5
 66
     1
 10
0.0
 20
0.0
 30
0.0
 70
     1
  0
VERTEX
  5
1D8
  8
DEFAULT
 62
     5
 10
39.6990971188591
 20
91.18669125698145
 30
0.0
  0
VERTEX
  5
1D9
  8
DEFAULT
 62
     5
 10
39.6990971188591
 20
99.13730854093207
 30
0.0
  0
VERTEX
  5
1DA
  8
DEFAULT
 62
     5
 10
41.22996131638996
 20
99.13730854093207
 30
0.0
  0
VERTEX
  5
1DB
  8
DEFAULT
 62
     5
 10
41.22996131638996
 20
96.3132350791027
 30
0.0
 42
-0.2270822596882972
  0
VERTEX
  5
1DC
  8
DEFAULT
 62
     5
 10
42.879652980537
 20
97.11261718290737
 30
0.0
 42
-0.2252479393351399
  0
VERTEX
  5
1DD
  8
DEFAULT
 62
     5
 10
44.599174450075
 20
96.34371318570298
 30
0.0
 42
-0.184998856429596
  0
VERTEX
  5
1DE
  8
DEFAULT
 62
     5
 10
45.27934403243933
 20
94.1357658726566
 30
0.0
 42
-0.1811789010422608
  0
VERTEX
  5
1DF
  8
DEFAULT
 62
     5
 10
44.58721476780176
 20
91.84294147479928
 30
0.0
 42
-0.2291506328684801
  0
VERTEX
  5
1E0
  8
DEFAULT
 62
     5
 10
42.90588794875208
 20
91.0385431088333
 30
0.0
 42
-0.1258590372260999
  0
VERTEX
  5
1E1
  8
DEFAULT
 62
     5
 10
41.94639688422807
 20
91.29355866455842
 30
0.0
 42
-0.1164914631293822
  0
VERTEX
  5
1E2
  8
DEFAULT
 62
     5
 10
41.1311958842912
 20
92.02928389666978
 30
0.0
  0
VERTEX
  5
1E3
  8
DEFAULT
 62
     5
 10
41.1311958842912
 20
91.18669125698145
 30
0.0
  0
SEQEND
  5
1E4
  8
DEFAULT
 62
     5
  0
POLYLINE
  5
1E5
  8
DEFAULT
 62
     5
 66
     1
 10
0.0
 20
0.0
 30
0.0
 70
     1
  0
VERTEX
  5
1E6
  8
DEFAULT
 62
     5
 10
36.63736872379735
 20
91.18669125698145
 30
0.0
  0
VERTEX
  5
1E7
  8
DEFAULT
 62
     5
 10
36.63736872379735
 20
96.96446903475922
 30
0.0
  0
VERTEX
  5
1E8
  8
DEFAULT
 62
     5
 10
38.16823292132824
 20
96.96446903475922
 30
0.0
  0
VERTEX
  5
1E9
  8
DEFAULT
 62
     5
 10
38.16823292132824
 20
91.18669125698145
 30
0.0
  0
SEQEND
  5
1EA
  8
DEFAULT
 62
     5
  0
POLYLINE
  5
1EB
  8
DEFAULT
 62
     5
 66
     1
 10
0.0
 20
0.0
 30
0.0
 70
     1
  0
VERTEX
  5
1EC
  8
DEFAULT
 62
     5
 10
36.63736872379735
 20
97.80397520759873
 30
0.0
  0
VERTEX
  5
1ED
  8
DEFAULT
 62
     5
 10
36.63736872379735
 20
99.13730854093207
 30
0.0
  0
VERTEX
  5
1EE
  8
DEFAULT
 62
     5
 10
38.16823292132824
 20
99.13730854093207
 30
0.0
  0
VERTEX
  5
1EF
  8
DEFAULT
 62
     5
 10
38.16823292132824
 20
97.80397520759873
 30
0.0
  0
SEQEND
  5
1F0
  8
DEFAULT
 62
     5
  0
POLYLINE
  5
1F1
  8
DEFAULT
 62
     5
 66
     1
 10
0.0
 20
0.0
 30
0.0
 70
     1
  0
VERTEX
  5
1F2
  8
DEFAULT
 62
     5
 10
29.92131934108133
 20
92.81632088661108
 30
0.0
  0
VERTEX
  5
1F3
  8
DEFAULT
 62
     5
 10
31.45218353861219
 20
93.01385175080861
 30
0.0
 42
0.181713453741309
  0
VERTEX
  5
1F4
  8
DEFAULT
 62
     5
 10
31.84840306884152
 20
92.351043167703
 30
0.0
 42
0.1637490318833184
  0
VERTEX
  5
1F5
  8
DEFAULT
 62
     5
 10
32.68289410981765
 20
92.12496286191971
 30
0.0
 42
0.15815485903164
  0
VERTEX
  5
1F6
  8
DEFAULT
 62
     5
 10
33.57255461541874
 20
92.34641384419572
 30
0.0
 42
0.2454173628753382
  0
VERTEX
  5
1F7
  8
DEFAULT
 62
     5
 10
33.77317119293318
 20
92.76153760710818
 30
0.0
 42
0.1967133408659613
  0
VERTEX
  5
1F8
  8
DEFAULT
 62
     5
 10
33.66437549710764
 20
93.05474743655564
 30
0.0
 42
0.1152480441762785
  0
VERTEX
  5
1F9
  8
DEFAULT
 62
     5
 10
33.15202953552082
 20
93.25922285116305
 30
0.0
 42
-0.0750101977649241
  0
VERTEX
  5
1FA
  8
DEFAULT
 62
     5
 10
30.80480766651668
 20
94.01462355590378
 30
0.0
 42
-0.2630575377237226
  0
VERTEX
  5
1FB
  8
DEFAULT
 62
     5
 10
30.11885020527887
 20
95.32480914140284
 30
0.0
 42
-0.2278055359034285
  0
VERTEX
  5
1FC
  8
DEFAULT
 62
     5
 10
30.71182860622755
 20
96.59718513123771
 30
0.0
 42
-0.178940957779905
  0
VERTEX
  5
1FD
  8
DEFAULT
 62
     5
 10
32.55017754238173
 20
97.11261718290737
 30
0.0
 42
-0.147868022751298
  0
VERTEX
  5
1FE
  8
DEFAULT
 62
     5
 10
34.3125233626813
 20
96.71331193936113
 30
0.0
 42
-0.1798681362132222
  0
VERTEX
  5
1FF
  8
DEFAULT
 62
     5
 10
35.10650452626649
 20
95.53237026932713
 30
0.0
  0
VERTEX
  5
200
  8
DEFAULT
 62
     5
 10
33.67440576083438
 20
95.28545668908019
 30
0.0
 42
0.1762609448244656
  0
VERTEX
  5
201
  8
DEFAULT
 62
     5
 10
33.32409742498144
 20
95.83522530767719
 30
0.0
 42
0.1598214678236301
  0
VERTEX
  5
202
  8
DEFAULT
 62
     5
 10
32.58798600774799
 20
96.02619742982097
 30
0.0
 42
0.1371855487857463
  0
VERTEX
  5
203
  8
DEFAULT
 62
     5
 10
31.724560470362
 20
95.85490153383849
 30
0.0
 42
0.5297885667389136
  0
VERTEX
  5
204
  8
DEFAULT
 62
     5
 10
31.70295520242012
 20
95.25690762426044
 30
0.0
 42
0.0664798749578785
  0
VERTEX
  5
205
  8
DEFAULT
 62
     5
 10
33.12656656078391
 20
94.81979353858199
 30
0.0
 42
-0.1095214193377318
  0
VERTEX
  5
206
  8
DEFAULT
 62
     5
 10
34.82641218092657
 20
94.13267940580776
 30
0.0
 42
-0.2284114958797614
  0
VERTEX
  5
207
  8
DEFAULT
 62
     5
 10
35.30403539046404
 20
92.98838915283768
 30
0.0
 42
-0.2276229810650924
  0
VERTEX
  5
208
  8
DEFAULT
 62
     5
 10
34.64199842407061
 20
91.61338889381108
 30
0.0
 42
-0.1809722242825285
  0
VERTEX
  5
209
  8
DEFAULT
 62
     5
 10
32.68289410981765
 20
91.0385431088333
 30
0.0
 42
-0.1534212868271944
  0
VERTEX
  5
20A
  8
DEFAULT
 62
     5
 10
30.81908182216059
 20
91.51693831184892
 30
0.0
 42
-0.1853542620166021
  0
SEQEND
  5
20B
  8
DEFAULT
 62
     5
  0
POLYLINE
  5
20C
  8
DEFAULT
 62
     5
 66
     1
 10
0.0
 20
0.0
 30
0.0
 70
     1
  0
VERTEX
  5
20D
  8
DEFAULT
 62
     5
 10
25.22996131638996
 20
94.17280272131066
 30
0.0
 42
0.1662127852120616
  0
VERTEX
  5
20E
  8
DEFAULT
 62
     5
 10
25.60881947059463
 20
92.6998086468975
 30
0.0
 42
0.2404461653497556
  0
VERTEX
  5
20F
  8
DEFAULT
 62
     5
 10
26.53165911805471
 20
92.22372829401849
 30
0.0
 42
0.2413239634426854
  0
VERTEX
  5
210
  8
DEFAULT
 62
     5
 10
27.40164377426046
 20
92.66084275646294
 30
0.0
 42
0.1627449374921636
  0
VERTEX
  5
211
  8
DEFAULT
 62
     5
 10
27.74847983490846
 20
94.09487094044151
 30
0.0
 42
0.1661976731382081
  0
VERTEX
  5
212
  8
DEFAULT
 62
     5
 10
27.39084114028956
 20
95.47642918798995
 30
0.0
 42
0.2412377667960266
  0
VERTEX
  5
213
  8
DEFAULT
 62
     5
 10
26.50542490337156
 20
95.92743199772218
 30
0.0
 42
0.2367422129321761
  0
VERTEX
  5
214
  8
DEFAULT
 62
     5
 10
25.59261589640424
 20
95.48453078670217
 30
0.0
 42
0.1723447809988964
  0
SEQEND
  5
215
  8
DEFAULT
 62
     5
  0
POLYLINE
  5
216
  8
DEFAULT
 62
     5
 66
     1
 10
0.0
 20
0.0
 30
0.0
 70
     1
  0
VERTEX
  5
217
  8
DEFAULT
 62
     5
 10
23.6990971188591
 20
96.96446903475922
 30
0.0
  0
VERTEX
  5
218
  8
DEFAULT
 62
     5
 10
25.1311958842912
 20
96.96446903475922
 30
0.0
  0
VERTEX
  5
219
  8
DEFAULT
 62
     5
 10
25.1311958842912
 20
96.12187714860283
 30
0.0
 42
-0.1189653659007442
  0
VERTEX
  5
21A
  8
DEFAULT
 62
     5
 10
25.8707795767296
 20
96.83329645427965
 30
0.0
 42
-0.1382105598910543
  0
VERTEX
  5
21B
  8
DEFAULT
 62
     5
 10
26.90511633203988
 20
97.11261718290739
 30
0.0
 42
-0.2273648758850354
  0
VERTEX
  5
21C
  8
DEFAULT
 62
     5
 10
28.58798600774798
 20
96.31902182767828
 30
0.0
 42
-0.183868218893615
  0
VERTEX
  5
21D
  8
DEFAULT
 62
     5
 10
29.27934403243932
 20
94.10875928772931
 30
0.0
 42
-0.1823656645300143
  0
VERTEX
  5
21E
  8
DEFAULT
 62
     5
 10
28.5821992591724
 20
91.845642133292
 30
0.0
 42
-0.2285594541574947
  0
VERTEX
  5
21F
  8
DEFAULT
 62
     5
 10
26.89277046464454
 20
91.0385431088333
 30
0.0
 42
-0.1163198006807606
  0
VERTEX
  5
220
  8
DEFAULT
 62
     5
 10
26.03706034084865
 20
91.22758656596251
 30
0.0
 42
-0.0904152380777476
  0
VERTEX
  5
221
  8
DEFAULT
 62
     5
 10
25.22996131638996
 20
91.87573518506812
 30
0.0
  0
VERTEX
  5
222
  8
DEFAULT
 62
     5
 10
25.22996131638996
 20
88.96446903475922
 30
0.0
  0
VERTEX
  5
223
  8
DEFAULT
 62
     5
 10
23.6990971188591
 20
88.96446903475922
 30
0.0
  0
SEQEND
  5
224
  8
DEFAULT
 62
     5
  0
POLYLINE
  5
225
  8
DEFAULT
 62
     5
 66
     1
 10
0.0
 20
0.0
 30
0.0
 70
     1
  0
VERTEX
  5
226
  8
DEFAULT
 62
     5
 10
20.58798600774799
 20
93.95212335574688
 30
0.0
  0
VERTEX
  5
227
  8
DEFAULT
 62
     5
 10
19.69678264548844
 20
93.7183272596075
 30
0.0
 42
0.0811165779561241
  0
VERTEX
  5
228
  8
DEFAULT
 62
     5
 10
18.89971501505442
 20
93.45212401508734
 30
0.0
 42
0.2517191883486328
  0
VERTEX
  5
229
  8
DEFAULT
 62
     5
 10
18.61267736577267
 20
92.91354383881738
 30
0.0
 42
0.4298150945544889
  0
VERTEX
  5
22A
  8
DEFAULT
 62
     5
 10
19.42594932392905
 20
92.12496286191971
 30
0.0
 42
0.1670482644845982
  0
VERTEX
  5
22B
  8
DEFAULT
 62
     5
 10
20.18135078220174
 20
92.3965681769573
 30
0.0
 42
0.1651612454991308
  0
VERTEX
  5
22C
  8
DEFAULT
 62
     5
 10
20.53088787810847
 20
92.90274120484645
 30
0.0
  0
VERTEX
  5
22D
  8
DEFAULT
 62
     5
 10
20.58798600774799
 20
93.64734002914824
 30
0.0
  0
SEQEND
  5
22E
  8
DEFAULT
 62
     5
  0
POLYLINE
  5
22F
  8
DEFAULT
 62
     5
 66
     1
 10
0.0
 20
0.0
 30
0.0
 70
     1
  0
VERTEX
  5
230
  8
DEFAULT
 62
     5
 10
18.66206008182206
 20
95.18669125698145
 30
0.0
  0
VERTEX
  5
231
  8
DEFAULT
 62
     5
 10
17.27934403243934
 20
95.38422212117898
 30
0.0
 42
-0.1714833175990247
  0
VERTEX
  5
232
  8
DEFAULT
 62
     5
 10
18.06908205763932
 20
96.68900638969255
 30
0.0
 42
-0.1608829132837382
  0
VERTEX
  5
233
  8
DEFAULT
 62
     5
 10
19.73381987090846
 20
97.11261718290737
 30
0.0
 42
-0.1088364278880818
  0
VERTEX
  5
234
  8
DEFAULT
 62
     5
 10
21.2276468430193
 20
96.86994749457759
 30
0.0
 42
-0.1580303644335048
  0
VERTEX
  5
235
  8
DEFAULT
 62
     5
 10
21.91861905935457
 20
96.25343516067251
 30
0.0
 42
-0.1088017057953416
  0
VERTEX
  5
236
  8
DEFAULT
 62
     5
 10
22.11885020527885
 20
94.8811363136706
 30
0.0
  0
VERTEX
  5
237
  8
DEFAULT
 62
     5
 10
22.11885020527885
 20
93.09101266849748
 30
0.0
 42
0.0514080219695256
  0
VERTEX
  5
238
  8
DEFAULT
 62
     5
 10
22.20218367989942
 20
91.9640834147861
 30
0.0
 42
0.0692287864232342
  0
VERTEX
  5
239
  8
DEFAULT
 62
     5
 10
22.51391193367391
 20
91.18669125698145
 30
0.0
  0
VERTEX
  5
23A
  8
DEFAULT
 62
     5
 10
20.98304773614305
 20
91.18669125698145
 30
0.0
  0
VERTEX
  5
23B
  8
DEFAULT
 62
     5
 10
20.83644282141933
 20
91.63422216827472
 30
0.0
  0
VERTEX
  5
23C
  8
DEFAULT
 62
     5
 10
20.78243115862862
 20
91.81246336819899
 30
0.0
 42
-0.0933244186738218
  0
VERTEX
  5
23D
  8
DEFAULT
 62
     5
 10
19.94678231581821
 20
91.23221626623577
 30
0.0
 42
-0.1040133466925768
  0
VERTEX
  5
23E
  8
DEFAULT
 62
     5
 10
18.99693721372876
 20
91.03854310883328
 30
0.0
 42
-0.1965430357596669
  0
VERTEX
  5
23F
  8
DEFAULT
 62
     5
 10
17.59454493818473
 20
91.52272543719052
 30
0.0
 42
-0.2154369487651089
  0
VERTEX
  5
240
  8
DEFAULT
 62
     5
 10
17.08181316824179
 20
92.74687688957623
 30
0.0
 42
-0.1373780248024425
  0
VERTEX
  5
241
  8
DEFAULT
 62
     5
 10
17.31020832416169
 20
93.62033344422095
 30
0.0
 42
-0.1473783213971182
  0
VERTEX
  5
242
  8
DEFAULT
 62
     5
 10
17.95025496778913
 20
94.2079105281842
 30
0.0
 42
-0.0634404934847076
  0
VERTEX
  5
243
  8
DEFAULT
 62
     5
 10
19.13736919475483
 20
94.56400636614468
 30
0.0
 42
0.0472009877729048
  0
VERTEX
  5
244
  8
DEFAULT
 62
     5
 10
20.58798600774799
 20
94.93977767673454
 30
0.0
  0
VERTEX
  5
245
  8
DEFAULT
 62
     5
 10
20.58798600774799
 20
95.09487037529256
 30
0.0
 42
0.2070921599656374
  0
VERTEX
  5
246
  8
DEFAULT
 62
     5
 10
20.38312516155045
 20
95.73607406722232
 30
0.0
 42
0.1777887432707894
  0
VERTEX
  5
247
  8
DEFAULT
 62
     5
 10
19.60959108730682
 20
95.92743199772218
 30
0.0
 42
0.1651091138038534
  0
VERTEX
  5
248
  8
DEFAULT
 62
     5
 10
19.01044012942642
 20
95.76308027538364
 30
0.0
 42
0.1491587679877963
  0
SEQEND
  5
249
  8
DEFAULT
 62
     5
  0
POLYLINE
  5
24A
  8
DEFAULT
 62
     5
 66
     1
 10
0.0
 20
0.0
 30
0.0
 70
     1
  0
VERTEX
  5
24B
  8
DEFAULT
 62
     5
 10
14.46452921762453
 20
91.18669125698145
 30
0.0
  0
VERTEX
  5
24C
  8
DEFAULT
 62
     5
 10
14.46452921762453
 20
99.13730854093207
 30
0.0
  0
VERTEX
  5
24D
  8
DEFAULT
 62
     5
 10
15.99539341515539
 20
99.13730854093207
 30
0.0
  0
VERTEX
  5
24E
  8
DEFAULT
 62
     5
 10
15.99539341515539
 20
91.18669125698145
 30
0.0
  0
SEQEND
  5
24F
  8
DEFAULT
 62
     5
  0
POLYLINE
  5
250
  8
DEFAULT
 62
     5
 66
     1
 10
0.0
 20
0.0
 30
0.0
 70
     1
  0
VERTEX
  5
251
  8
DEFAULT
 62
     5
 10
11.4028008225628
 20
91.18669125698145
 30
0.0
  0
VERTEX
  5
252
  8
DEFAULT
 62
     5
 10
11.4028008225628
 20
99.13730854093207
 30
0.0
  0
VERTEX
  5
253
  8
DEFAULT
 62
     5
 10
12.93366502009366
 20
99.13730854093207
 30
0.0
  0
VERTEX
  5
254
  8
DEFAULT
 62
     5
 10
12.93366502009366
 20
91.18669125698145
 30
0.0
  0
SEQEND
  5
255
  8
DEFAULT
 62
     5
  0
POLYLINE
  5
256
  8
DEFAULT
 62
     5
 66
     1
 10
0.0
 20
0.0
 30
0.0
 70
     1
  0
VERTEX
  5
257
  8
DEFAULT
 62
     5
 10
5.822553908982556
 20
94.07558052263632
 30
0.0
 42
0.1807696907208227
  0
VERTEX
  5
258
  8
DEFAULT
 62
     5
 10
6.222245337650859
 20
92.73761748902973
 30
0.0
 42
0.4777036397637766
  0
VERTEX
  5
259
  8
DEFAULT
 62
     5
 10
8.19099561433838
 20
92.73761748902972
 30
0.0
 42
0.1794408075869688
  0
VERTEX
  5
25A
  8
DEFAULT
 62
     5
 10
8.587986007747979
 20
94.08638315660723
 30
0.0
 42
0.1800932450793875
  0
VERTEX
  5
25B
  8
DEFAULT
 62
     5
 10
8.190995614338386
 20
95.41354317947692
 30
0.0
 42
0.4793729384846221
  0
VERTEX
  5
25C
  8
DEFAULT
 62
     5
 10
6.222245337650866
 20
95.4135431794769
 30
0.0
 42
0.1807697890868489
  0
SEQEND
  5
25D
  8
DEFAULT
 62
     5
  0
POLYLINE
  5
25E
  8
DEFAULT
 62
     5
 66
     1
 10
0.0
 20
0.0
 30
0.0
 70
     1
  0
VERTEX
  5
25F
  8
DEFAULT
 62
     5
 10
4.291689711451681
 20
94.15737038706649
 30
0.0
 42
-0.122257429183271
  0
VERTEX
  5
260
  8
DEFAULT
 62
     5
 10
4.664760740314792
 20
95.64039547873837
 30
0.0
 42
-0.1509199207835928
  0
VERTEX
  5
261
  8
DEFAULT
 62
     5
 10
5.721859811869239
 20
96.734916830537
 30
0.0
 42
-0.128724606714406
  0
VERTEX
  5
262
  8
DEFAULT
 62
     5
 10
7.249252110961138
 20
97.11261718290737
 30
0.0
 42
-0.2109274079128418
  0
VERTEX
  5
263
  8
DEFAULT
 62
     5
 10
9.385054014947988
 20
96.25613581916527
 30
0.0
 42
-0.202621263980183
  0
VERTEX
  5
264
  8
DEFAULT
 62
     5
 10
10.21761563737763
 20
94.0917844735927
 30
0.0
 42
-0.2022295973323237
  0
VERTEX
  5
265
  8
DEFAULT
 62
     5
 10
9.376952416235763
 20
91.90582710654633
 30
0.0
 42
-0.2115506096600998
  0
VERTEX
  5
266
  8
DEFAULT
 62
     5
 10
7.260053991400112
 20
91.0385431088333
 30
0.0
 42
-0.1188796278362293
  0
VERTEX
  5
267
  8
DEFAULT
 62
     5
 10
5.754266960250035
 20
91.39965445542315
 30
0.0
 42
-0.1582355798320452
  0
VERTEX
  5
268
  8
DEFAULT
 62
     5
 10
4.664760740314783
 20
92.45868256875814
 30
0.0
 42
-0.1239053267140398
  0
SEQEND
  5
269
  8
DEFAULT
 62
     5
  0
POLYLINE
  5
26A
  8
DEFAULT
 62
     5
 66
     1
 10
0.0
 20
0.0
 30
0.0
 70
     1
  0
VERTEX
  5
26B
  8
DEFAULT
 62
     5
 10
3.452183538612175
 20
95.2854566890802
 30
0.0
  0
VERTEX
  5
26C
  8
DEFAULT
 62
     5
 10
1.92131934108131
 20
95.0385431088333
 30
0.0
 42
0.1809968098175179
  0
VERTEX
  5
26D
  8
DEFAULT
 62
     5
 10
1.579498789062651
 20
95.70405272719762
 30
0.0
 42
0.1804760167669961
  0
VERTEX
  5
26E
  8
DEFAULT
 62
     5
 10
0.8881403876053183
 20
95.92743199772217
 30
0.0
 42
0.2329674834671342
  0
VERTEX
  5
26F
  8
DEFAULT
 62
     5
 10
-0.013865608625135
 20
95.52619771239542
 30
0.0
 42
0.1695179555120473
  0
VERTEX
  5
270
  8
DEFAULT
 62
     5
 10
-0.3502855971902954
 20
94.18360535528157
 30
0.0
 42
0.1610966817174947
  0
VERTEX
  5
271
  8
DEFAULT
 62
     5
 10
-0.0057636331469579
 20
92.70482415552684
 30
0.0
 42
0.240554049109388
  0
VERTEX
  5
272
  8
DEFAULT
 62
     5
 10
0.9190050560936527
 20
92.27311101006786
 30
0.0
 42
0.1883458441869796
  0
VERTEX
  5
273
  8
DEFAULT
 62
     5
 10
1.629267313468132
 20
92.51771011694413
 30
0.0
 42
0.1622604489947878
  0
VERTEX
  5
274
  8
DEFAULT
 62
     5
 10
2.02008477318009
 20
93.35953076315428
 30
0.0
  0
VERTEX
  5
275
  8
DEFAULT
 62
     5
 10
3.55094897071094
 20
93.16199989895675
 30
0.0
 42
-0.1724509721436027
  0
VERTEX
  5
276
  8
DEFAULT
 62
     5
 10
2.656659141602571
 20
91.57480881173262
 30
0.0
 42
-0.1746967243539393
  0
VERTEX
  5
277
  8
DEFAULT
 62
     5
 10
0.8835114408640126
 20
91.0385431088333
 30
0.0
 42
-0.2163976905724286
  0
VERTEX
  5
278
  8
DEFAULT
 62
     5
 10
-1.130378036721713
 20
91.84294147479928
 30
0.0
 42
-0.1943870566321055
  0
VERTEX
  5
279
  8
DEFAULT
 62
     5
 10
-1.881149794721147
 20
94.07017920565085
 30
0.0
 42
-0.1945054615972566
  0
VERTEX
  5
27A
  8
DEFAULT
 62
     5
 10
-1.130763845077812
 20
96.31091985220009
 30
0.0
 42
-0.2157801631579847
  0
VERTEX
  5
27B
  8
DEFAULT
 62
     5
 10
0.8989430215762291
 20
97.11261718290737
 30
0.0
 42
-0.1599423076958014
  0
VERTEX
  5
27C
  8
DEFAULT
 62
     5
 10
2.564066643201467
 20
96.66122856481903
 30
0.0
 42
-0.1682635697126478
  0
SEQEND
  5
27D
  8
DEFAULT
 62
     5
  0
POLYLINE
  5
27E
  8
DEFAULT
 62
     5
 66
     1
 10
0.0
 20
0.0
 30
0.0
 70
     1
  0
VERTEX
  5
27F
  8
DEFAULT
 62
     5
 10
-5.634236214474242
 20
96.96446903475922
 30
0.0
  0
VERTEX
  5
280
  8
DEFAULT
 62
     5
 10
-5.634236214474242
 20
95.77928384957404
 30
0.0
  0
VERTEX
  5
281
  8
DEFAULT
 62
     5
 10
-6.67127325151128
 20
95.77928384957404
 30
0.0
  0
VERTEX
  5
282
  8
DEFAULT
 62
     5
 10
-6.67127325151128
 20
93.39348189849144
 30
0.0
  0
VERTEX
  5
283
  8
DEFAULT
 62
     5
 10
-6.641952193213328
 20
92.54895984025661
 30
0.0
  0
VERTEX
  5
284
  8
DEFAULT
 62
     5
 10
-6.509621810899489
 20
92.35104316770298
 30
0.0
  0
VERTEX
  5
285
  8
DEFAULT
 62
     5
 10
-6.257692722023222
 20
92.27311101006786
 30
0.0
  0
VERTEX
  5
286
  8
DEFAULT
 62
     5
 10
-5.658927195732957
 20
92.41894506161134
 30
0.0
  0
VERTEX
  5
287
  8
DEFAULT
 62
     5
 10
-5.535470782375469
 20
91.26076570782149
 30
0.0
 42
-0.1009135694950957
  0
VERTEX
  5
288
  8
DEFAULT
 62
     5
 10
-6.72682814772638
 20
91.0385431088333
 30
0.0
 42
-0.1023112505794004
  0
VERTEX
  5
289
  8
DEFAULT
 62
     5
 10
-7.461782139891526
 20
91.17897546662532
 30
0.0
 42
-0.1427327602513672
  0
VERTEX
  5
28A
  8
DEFAULT
 62
     5
 10
-7.942106384687693
 20
91.5420158549957
 30
0.0
 42
-0.1112474266807753
  0
VERTEX
  5
28B
  8
DEFAULT
 62
     5
 10
-8.153525596173024
 20
92.14425327972492
 30
0.0
  0
VERTEX
  5
28C
  8
DEFAULT
 62
     5
 10
-8.20213744904214
 20
93.23298788294797
 30
0.0
  0
VERTEX
  5
28D
  8
DEFAULT
 62
     5
 10
-8.20213744904214
 20
95.77928384957404
 30
0.0
  0
VERTEX
  5
28E
  8
DEFAULT
 62
     5
 10
-8.942878189782874
 20
95.77928384957404
 30
0.0
  0
VERTEX
  5
28F
  8
DEFAULT
 62
     5
 10
-8.942878189782874
 20
96.96446903475922
 30
0.0
  0
VERTEX
  5
290
  8
DEFAULT
 62
     5
 10
-8.20213744904214
 20
96.96446903475922
 30
0.0
  0
VERTEX
  5
291
  8
DEFAULT
 62
     5
 10
-8.20213744904214
 20
98.05088878784565
 30
0.0
  0
VERTEX
  5
292
  8
DEFAULT
 62
     5
 10
-6.67127325151128
 20
98.93977767673454
 30
0.0
  0
VERTEX
  5
293
  8
DEFAULT
 62
     5
 10
-6.67127325151128
 20
96.96446903475922
 30
0.0
  0
SEQEND
  5
294
  8
DEFAULT
 62
     5
  0
POLYLINE
  5
295
  8
DEFAULT
 62
     5
 66
     1
 10
0.0
 20
0.0
 30
0.0
 70
     1
  0
VERTEX
  5
296
  8
DEFAULT
 62
     5
 10
-9.831767078671774
 20
91.18669125698145
 30
0.0
  0
VERTEX
  5
297
  8
DEFAULT
 62
     5
 10
-11.36263127620263
 20
91.18669125698145
 30
0.0
  0
VERTEX
  5
298
  8
DEFAULT
 62
     5
 10
-11.36263127620264
 20
94.13653748936882
 30
0.0
 42
0.0659043403442062
  0
VERTEX
  5
299
  8
DEFAULT
 62
     5
 10
-11.45908185816479
 20
95.3479572660031
 30
0.0
 42
0.1600130695765615
  0
VERTEX
  5
29A
  8
DEFAULT
 62
     5
 10
-11.77235334536369
 20
95.77504033442285
 30
0.0
 42
0.1575149176298083
  0
VERTEX
  5
29B
  8
DEFAULT
 62
     5
 10
-12.29395833073103
 20
95.92743199772218
 30
0.0
 42
0.1576987046345011
  0
VERTEX
  5
29C
  8
DEFAULT
 62
     5
 10
-12.99496118755902
 20
95.70983947577321
 30
0.0
 42
0.1684371822617516
  0
VERTEX
  5
29D
  8
DEFAULT
 62
     5
 10
-13.42050139932033
 20
95.1330650257809
 30
0.0
 42
0.0659809918576635
  0
VERTEX
  5
29E
  8
DEFAULT
 62
     5
 10
-13.53547078237547
 20
93.80474682431094
 30
0.0
  0
VERTEX
  5
29F
  8
DEFAULT
 62
     5
 10
-13.53547078237547
 20
91.18669125698145
 30
0.0
  0
VERTEX
  5
2A0
  8
DEFAULT
 62
     5
 10
-15.06633497990633
 20
91.18669125698145
 30
0.0
  0
VERTEX
  5
2A1
  8
DEFAULT
 62
     5
 10
-15.06633497990633
 20
96.96446903475922
 30
0.0
  0
VERTEX
  5
2A2
  8
DEFAULT
 62
     5
 10
-13.63423621447424
 20
96.96446903475922
 30
0.0
  0
VERTEX
  5
2A3
  8
DEFAULT
 62
     5
 10
-13.63423621447424
 20
96.12187714860283
 30
0.0
 42
-0.2486296121988593
  0
VERTEX
  5
2A4
  8
DEFAULT
 62
     5
 10
-11.75152007090003
 20
97.11261718290737
 30
0.0
 42
-0.1053164015608153
  0
VERTEX
  5
2A5
  8
DEFAULT
 62
     5
 10
-10.83755401563035
 20
96.92974703624178
 30
0.0
 42
-0.1292191717088799
  0
VERTEX
  5
2A6
  8
DEFAULT
 62
     5
 10
-10.21101066446656
 20
96.4633118922654
 30
0.0
 42
-0.1054932374261768
  0
VERTEX
  5
2A7
  8
DEFAULT
 62
     5
 10
-9.915100176526376
 20
95.81940754184289
 30
0.0
 42
-0.0533641385177115
  0
VERTEX
  5
2A8
  8
DEFAULT
 62
     5
 10
-9.831767078671778
 20
94.78777219855729
 30
0.0
  0
SEQEND
  5
2A9
  8
DEFAULT
 62
     5
  0
POLYLINE
  5
2AA
  8
DEFAULT
 62
     5
 66
     1
 10
0.0
 20
0.0
 30
0.0
 70
     1
  0
VERTEX
  5
2AB
  8
DEFAULT
 62
     5
 10
-17.78238436262238
 20
94.59409866438885
 30
0.0
 42
0.193177186855242
  0
VERTEX
  5
2AC
  8
DEFAULT
 62
     5
 10
-18.13385012354365
 20
95.58754011071807
 30
0.0
 42
0.2094545272841076
  0
VERTEX
  5
2AD
  8
DEFAULT
 62
     5
 10
-18.94827913000236
 20
95.9274319977222
 30
0.0
 42
0.2175151257022094
  0
VERTEX
  5
2AE
  8
DEFAULT
 62
     5
 10
-19.79627308667617
 20
95.5686362548009
 30
0.0
 42
0.197485040297676
  0
VERTEX
  5
2AF
  8
DEFAULT
 62
     5
 10
-20.12574814806547
 20
94.59409866438885
 30
0.0
  0
SEQEND
  5
2B0
  8
DEFAULT
 62
     5
  0
POLYLINE
  5
2B1
  8
DEFAULT
 62
     5
 66
     1
 10
0.0
 20
0.0
 30
0.0
 70
     1
  0
VERTEX
  5
2B2
  8
DEFAULT
 62
     5
 10
-17.88114979472115
 20
93.01385175080861
 30
0.0
  0
VERTEX
  5
2B3
  8
DEFAULT
 62
     5
 10
-16.35028559719029
 20
92.81632088661108
 30
0.0
 42
-0.1601948643917375
  0
VERTEX
  5
2B4
  8
DEFAULT
 62
     5
 10
-17.28084103500647
 20
91.49301857053645
 30
0.0
 42
-0.1590209405814402
  0
VERTEX
  5
2B5
  8
DEFAULT
 62
     5
 10
-18.8726614457379
 20
91.0385431088333
 30
0.0
 42
-0.2510606897924152
  0
VERTEX
  5
2B6
  8
DEFAULT
 62
     5
 10
-21.1103160022043
 20
92.02928389666977
 30
0.0
 42
-0.160323168959828
  0
VERTEX
  5
2B7
  8
DEFAULT
 62
     5
 10
-21.6836189305236
 20
94.03159912357238
 30
0.0
 42
-0.1928988919450664
  0
VERTEX
  5
2B8
  8
DEFAULT
 62
     5
 10
-20.92783166389483
 20
96.29471627800973
 30
0.0
 42
-0.2186957110499365
  0
VERTEX
  5
2B9
  8
DEFAULT
 62
     5
 10
-19.01695226385695
 20
97.11261718290736
 30
0.0
 42
-0.2248762650829878
  0
VERTEX
  5
2BA
  8
DEFAULT
 62
     5
 10
-16.96911240446602
 20
96.26192294450681
 30
0.0
 42
-0.1866850592647364
  0
VERTEX
  5
2BB
  8
DEFAULT
 62
     5
 10
-16.25152016509152
 20
93.65582705945059
 30
0.0
  0
VERTEX
  5
2BC
  8
DEFAULT
 62
     5
 10
-20.15275473299276
 20
93.65582705945059
 30
0.0
 42
0.1907233177561352
  0
VERTEX
  5
2BD
  8
DEFAULT
 62
     5
 10
-19.77505362709042
 20
92.60065740644262
 30
0.0
 42
0.2135192120775306
  0
VERTEX
  5
2BE
  8
DEFAULT
 62
     5
 10
-18.87497629587453
 20
92.22372829401849
 30
0.0
 42
0.165723693710108
  0
VERTEX
  5
2BF
  8
DEFAULT
 62
     5
 10
-18.25885014709153
 20
92.41084270936717
 30
0.0
 42
0.1589948514629492
  0
SEQEND
  5
2C0
  8
DEFAULT
 62
     5
  0
POLYLINE
  5
2C1
  8
DEFAULT
 62
     5
 66
     1
 10
0.0
 20
0.0
 30
0.0
 70
     1
  0
VERTEX
  5
2C2
  8
DEFAULT
 62
     5
 10
-31.21448312805448
 20
96.96446903475922
 30
0.0
  0
VERTEX
  5
2C3
  8
DEFAULT
 62
     5
 10
-29.83176707867177
 20
96.96446903475922
 30
0.0
  0
VERTEX
  5
2C4
  8
DEFAULT
 62
     5
 10
-29.83176707867177
 20
96.18129012837898
 30
0.0
 42
-0.2373869490350069
  0
VERTEX
  5
2C5
  8
DEFAULT
 62
     5
 10
-28.03469888308878
 20
97.11261718290737
 30
0.0
 42
-0.1315120310734392
  0
VERTEX
  5
2C6
  8
DEFAULT
 62
     5
 10
-27.07443657861855
 20
96.88113593690463
 30
0.0
 42
-0.1393853272245008
  0
VERTEX
  5
2C7
  8
DEFAULT
 62
     5
 10
-26.40661248688357
 20
96.18129012837899
 30
0.0
 42
-0.1018343532165784
  0
VERTEX
  5
2C8
  8
DEFAULT
 62
     5
 10
-25.58948282193213
 20
96.88113593690463
 30
0.0
 42
-0.1239296679571021
  0
VERTEX
  5
2C9
  8
DEFAULT
 62
     5
 10
-24.65352569036452
 20
97.11261718290739
 30
0.0
 42
-0.1355305589141816
  0
VERTEX
  5
2CA
  8
DEFAULT
 62
     5
 10
-23.58176665481005
 20
96.8533581120311
 30
0.0
 42
-0.1623661969580669
  0
VERTEX
  5
2CB
  8
DEFAULT
 62
     5
 10
-22.92667386206054
 20
96.0925557135389
 30
0.0
 42
-0.0915442810314551
  0
VERTEX
  5
2CC
  8
DEFAULT
 62
     5
 10
-22.77003868361004
 20
94.89193819410957
 30
0.0
  0
VERTEX
  5
2CD
  8
DEFAULT
 62
     5
 10
-22.77003868361004
 20
91.18669125698145
 30
0.0
  0
VERTEX
  5
2CE
  8
DEFAULT
 62
     5
 10
-24.3009028811409
 20
91.18669125698145
 30
0.0
  0
VERTEX
  5
2CF
  8
DEFAULT
 62
     5
 10
-24.30090288114089
 20
94.49070428554879
 30
0.0
 42
0.1141470137910652
  0
VERTEX
  5
2D0
  8
DEFAULT
 62
     5
 10
-24.45676644287919
 20
95.60104340318172
 30
0.0
 42
0.2721000606533813
  0
VERTEX
  5
2D1
  8
DEFAULT
 62
     5
 10
-25.1025998350822
 20
95.92743199772218
 30
0.0
 42
0.1575639071466336
  0
VERTEX
  5
2D2
  8
DEFAULT
 62
     5
 10
-25.69943669635792
 20
95.73144436694906
 30
0.0
 42
0.1657627374473957
  0
VERTEX
  5
2D3
  8
DEFAULT
 62
     5
 10
-26.10298620858726
 20
95.15737057544946
 30
0.0
 42
0.0723437487254928
  0
VERTEX
  5
2D4
  8
DEFAULT
 62
     5
 10
-26.22682880706682
 20
93.96292598971779
 30
0.0
  0
VERTEX
  5
2D5
  8
DEFAULT
 62
     5
 10
-26.22682880706682
 20
91.18669125698145
 30
0.0
  0
VERTEX
  5
2D6
  8
DEFAULT
 62
     5
 10
-27.7576930045977
 20
91.18669125698145
 30
0.0
  0
VERTEX
  5
2D7
  8
DEFAULT
 62
     5
 10
-27.75769300459769
 20
94.35412963455181
 30
0.0
 42
0.0609892367975021
  0
VERTEX
  5
2D8
  8
DEFAULT
 62
     5
 10
-27.83755382724735
 20
95.44325004613097
 30
0.0
 42
0.1633931196985306
  0
VERTEX
  5
2D9
  8
DEFAULT
 62
     5
 10
-28.0856244557966
 20
95.80783329115977
 30
0.0
 42
0.1561218014296772
  0
VERTEX
  5
2DA
  8
DEFAULT
 62
     5
 10
-28.54164352769016
 20
95.9274319977222
 30
0.0
 42
0.1551837175467919
  0
VERTEX
  5
2DB
  8
DEFAULT
 62
     5
 10
-29.16625746030744
 20
95.73684568393455
 30
0.0
 42
0.1670025847935218
  0
VERTEX
  5
2DC
  8
DEFAULT
 62
     5
 10
-29.56363403883914
 20
95.18707744210354
 30
0.0
 42
0.072269859496248
  0
VERTEX
  5
2DD
  8
DEFAULT
 62
     5
 10
-29.68361893052362
 20
93.99533389163054
 30
0.0
  0
VERTEX
  5
2DE
  8
DEFAULT
 62
     5
 10
-29.68361893052362
 20
91.18669125698145
 30
0.0
  0
VERTEX
  5
2DF
  8
DEFAULT
 62
     5
 10
-31.21448312805448
 20
91.18669125698145
 30
0.0
  0
SEQEND
  5
2E0
  8
DEFAULT
 62
     5
  0
POLYLINE
  5
2E1
  8
DEFAULT
 62
     5
 66
     1
 10
0.0
 20
0.0
 30
0.0
 70
     1
  0
VERTEX
  5
2E2
  8
DEFAULT
 62
     5
 10
-32.10337201694337
 20
96.96446903475922
 30
0.0
  0
VERTEX
  5
2E3
  8
DEFAULT
 62
     5
 10
-32.10337201694337
 20
95.77928384957404
 30
0.0
  0
VERTEX
  5
2E4
  8
DEFAULT
 62
     5
 10
-33.14040905398041
 20
95.77928384957404
 30
0.0
  0
VERTEX
  5
2E5
  8
DEFAULT
 62
     5
 10
-33.14040905398041
 20
93.39348189849144
 30
0.0
  0
VERTEX
  5
2E6
  8
DEFAULT
 62
     5
 10
-33.11108799568247
 20
92.54895984025661
 30
0.0
  0
VERTEX
  5
2E7
  8
DEFAULT
 62
     5
 10
-32.97875761336861
 20
92.35104316770298
 30
0.0
  0
VERTEX
  5
2E8
  8
DEFAULT
 62
     5
 10
-32.72682852449235
 20
92.27311101006786
 30
0.0
  0
VERTEX
  5
2E9
  8
DEFAULT
 62
     5
 10
-32.1280629982021
 20
92.41894506161134
 30
0.0
  0
VERTEX
  5
2EA
  8
DEFAULT
 62
     5
 10
-32.00460658484461
 20
91.26076570782149
 30
0.0
 42
-0.1009135694950959
  0
VERTEX
  5
2EB
  8
DEFAULT
 62
     5
 10
-33.19596395019552
 20
91.0385431088333
 30
0.0
 42
-0.1023112505793991
  0
VERTEX
  5
2EC
  8
DEFAULT
 62
     5
 10
-33.93091794236067
 20
91.17897546662533
 30
0.0
 42
-0.1427327602513694
  0
VERTEX
  5
2ED
  8
DEFAULT
 62
     5
 10
-34.41124218715681
 20
91.5420158549957
 30
0.0
 42
-0.111247426680811
  0
VERTEX
  5
2EE
  8
DEFAULT
 62
     5
 10
-34.62266139864216
 20
92.14425327972492
 30
0.0
  0
VERTEX
  5
2EF
  8
DEFAULT
 62
     5
 10
-34.67127325151128
 20
93.23298788294797
 30
0.0
  0
VERTEX
  5
2F0
  8
DEFAULT
 62
     5
 10
-34.67127325151128
 20
95.77928384957404
 30
0.0
  0
VERTEX
  5
2F1
  8
DEFAULT
 62
     5
 10
-35.41201399225201
 20
95.77928384957404
 30
0.0
  0
VERTEX
  5
2F2
  8
DEFAULT
 62
     5
 10
-35.41201399225201
 20
96.96446903475922
 30
0.0
  0
VERTEX
  5
2F3
  8
DEFAULT
 62
     5
 10
-34.67127325151128
 20
96.96446903475922
 30
0.0
  0
VERTEX
  5
2F4
  8
DEFAULT
 62
     5
 10
-34.67127325151128
 20
98.05088878784565
 30
0.0
  0
VERTEX
  5
2F5
  8
DEFAULT
 62
     5
 10
-33.14040905398041
 20
98.93977767673454
 30
0.0
  0
VERTEX
  5
2F6
  8
DEFAULT
 62
     5
 10
-33.14040905398041
 20
96.96446903475922
 30
0.0
  0
SEQEND
  5
2F7
  8
DEFAULT
 62
     5
  0
POLYLINE
  5
2F8
  8
DEFAULT
 62
     5
 66
     1
 10
0.0
 20
0.0
 30
0.0
 70
     1
  0
VERTEX
  5
2F9
  8
DEFAULT
 62
     5
 10
-37.53547078237547
 20
91.18669125698145
 30
0.0
  0
VERTEX
  5
2FA
  8
DEFAULT
 62
     5
 10
-39.06633497990633
 20
91.18669125698145
 30
0.0
  0
VERTEX
  5
2FB
  8
DEFAULT
 62
     5
 10
-39.06633497990633
 20
96.96446903475922
 30
0.0
  0
VERTEX
  5
2FC
  8
DEFAULT
 62
     5
 10
-37.63423621447424
 20
96.96446903475922
 30
0.0
  0
VERTEX
  5
2FD
  8
DEFAULT
 62
     5
 10
-37.63423621447424
 20
96.14888297999818
 30
0.0
 42
-0.0977550519460772
  0
VERTEX
  5
2FE
  8
DEFAULT
 62
     5
 10
-37.00692124659824
 20
96.9197160189831
 30
0.0
 42
-0.1561720185079516
  0
VERTEX
  5
2FF
  8
DEFAULT
 62
     5
 10
-36.37497657844901
 20
97.11261718290737
 30
0.0
 42
-0.143817098136973
  0
VERTEX
  5
300
  8
DEFAULT
 62
     5
 10
-35.41201399225201
 20
96.82172220359654
 30
0.0
  0
VERTEX
  5
301
  8
DEFAULT
 62
     5
 10
-35.88114941795517
 20
95.48144507338527
 30
0.0
 42
0.1496770151887516
  0
VERTEX
  5
302
  8
DEFAULT
 62
     5
 10
-36.56324804210004
 20
95.72990113352466
 30
0.0
 42
0.1810970994866772
  0
VERTEX
  5
303
  8
DEFAULT
 62
     5
 10
-37.08060913555025
 20
95.55281811220064
 30
0.0
 42
0.150134839648807
  0
VERTEX
  5
304
  8
DEFAULT
 62
     5
 10
-37.41394265726655
 20
94.91277184533918
 30
0.0
 42
0.0509111359642174
  0
VERTEX
  5
305
  8
DEFAULT
 62
     5
 10
-37.53547078237547
 20
92.97372843530573
 30
0.0
  0
SEQEND
  5
306
  8
DEFAULT
 62
     5
  0
POLYLINE
  5
307
  8
DEFAULT
 62
     5
 66
     1
 10
0.0
 20
0.0
 30
0.0
 70
     1
  0
VERTEX
  5
308
  8
DEFAULT
 62
     5
 10
-42.17744609101744
 20
93.95212335574688
 30
0.0
  0
VERTEX
  5
309
  8
DEFAULT
 62
     5
 10
-43.06864945327699
 20
93.7183272596075
 30
0.0
 42
0.0811165779561154
  0
VERTEX
  5
30A
  8
DEFAULT
 62
     5
 10
-43.86571708371101
 20
93.45212401508734
 30
0.0
 42
0.2517191883486256
  0
VERTEX
  5
30B
  8
DEFAULT
 62
     5
 10
-44.15275473299277
 20
92.91354383881738
 30
0.0
 42
0.4298150945544997
  0
VERTEX
  5
30C
  8
DEFAULT
 62
     5
 10
-43.33948277483638
 20
92.12496286191973
 30
0.0
 42
0.1670482644846018
  0
VERTEX
  5
30D
  8
DEFAULT
 62
     5
 10
-42.58408131656368
 20
92.3965681769573
 30
0.0
 42
0.1651612454991444
  0
VERTEX
  5
30E
  8
DEFAULT
 62
     5
 10
-42.23454422065697
 20
92.90274120484645
 30
0.0
  0
VERTEX
  5
30F
  8
DEFAULT
 62
     5
 10
-42.17744609101744
 20
93.64734002914824
 30
0.0
  0
SEQEND
  5
310
  8
DEFAULT
 62
     5
  0
POLYLINE
  5
311
  8
DEFAULT
 62
     5
 66
     1
 10
0.0
 20
0.0
 30
0.0
 70
     1
  0
VERTEX
  5
312
  8
DEFAULT
 62
     5
 10
-44.10337201694337
 20
95.18669125698145
 30
0.0
  0
VERTEX
  5
313
  8
DEFAULT
 62
     5
 10
-45.48608806632609
 20
95.38422212117898
 30
0.0
 42
-0.1714833175990352
  0
VERTEX
  5
314
  8
DEFAULT
 62
     5
 10
-44.6963500411261
 20
96.68900638969255
 30
0.0
 42
-0.1608829132837403
  0
VERTEX
  5
315
  8
DEFAULT
 62
     5
 10
-43.03161222785697
 20
97.11261718290737
 30
0.0
 42
-0.1088364278880803
  0
VERTEX
  5
316
  8
DEFAULT
 62
     5
 10
-41.53778525574614
 20
96.86994749457759
 30
0.0
 42
-0.1580303644335472
  0
VERTEX
  5
317
  8
DEFAULT
 62
     5
 10
-40.84681303941087
 20
96.25343516067252
 30
0.0
 42
-0.1088017057953509
  0
VERTEX
  5
318
  8
DEFAULT
 62
     5
 10
-40.64658189348658
 20
94.8811363136706
 30
0.0
  0
VERTEX
  5
319
  8
DEFAULT
 62
     5
 10
-40.64658189348658
 20
93.09101266849748
 30
0.0
 42
0.0514080219695248
  0
VERTEX
  5
31A
  8
DEFAULT
 62
     5
 10
-40.56324841886601
 20
91.9640834147861
 30
0.0
 42
0.0692287864232483
  0
VERTEX
  5
31B
  8
DEFAULT
 62
     5
 10
-40.25152016509152
 20
91.18669125698145
 30
0.0
  0
VERTEX
  5
31C
  8
DEFAULT
 62
     5
 10
-41.78238436262238
 20
91.18669125698145
 30
0.0
  0
VERTEX
  5
31D
  8
DEFAULT
 62
     5
 10
-41.92898927734612
 20
91.63422216827472
 30
0.0
  0
VERTEX
  5
31E
  8
DEFAULT
 62
     5
 10
-41.9830009401368
 20
91.81246336819899
 30
0.0
 42
-0.0933244186738285
  0
VERTEX
  5
31F
  8
DEFAULT
 62
     5
 10
-42.81864978294723
 20
91.23221626623577
 30
0.0
 42
-0.1040133466925816
  0
VERTEX
  5
320
  8
DEFAULT
 62
     5
 10
-43.76849488503666
 20
91.0385431088333
 30
0.0
 42
-0.1965430357596679
  0
VERTEX
  5
321
  8
DEFAULT
 62
     5
 10
-45.17088716058068
 20
91.52272543719052
 30
0.0
 42
-0.2154369487651162
  0
VERTEX
  5
322
  8
DEFAULT
 62
     5
 10
-45.68361893052362
 20
92.74687688957623
 30
0.0
 42
-0.137378024802443
  0
VERTEX
  5
323
  8
DEFAULT
 62
     5
 10
-45.45522377460374
 20
93.62033344422096
 30
0.0
 42
-0.1473783213971085
  0
VERTEX
  5
324
  8
DEFAULT
 62
     5
 10
-44.81517713097631
 20
94.20791052818419
 30
0.0
 42
-0.0634404934847101
  0
VERTEX
  5
325
  8
DEFAULT
 62
     5
 10
-43.62806290401059
 20
94.56400636614468
 30
0.0
 42
0.0472009877729063
  0
VERTEX
  5
326
  8
DEFAULT
 62
     5
 10
-42.17744609101744
 20
94.93977767673454
 30
0.0
  0
VERTEX
  5
327
  8
DEFAULT
 62
     5
 10
-42.17744609101744
 20
95.09487037529256
 30
0.0
 42
0.2070921599656339
  0
VERTEX
  5
328
  8
DEFAULT
 62
     5
 10
-42.38230693721498
 20
95.73607406722232
 30
0.0
 42
0.1777887432707909
  0
VERTEX
  5
329
  8
DEFAULT
 62
     5
 10
-43.15584101145861
 20
95.9274319977222
 30
0.0
 42
0.1651091138038551
  0
VERTEX
  5
32A
  8
DEFAULT
 62
     5
 10
-43.75499196933898
 20
95.76308027538364
 30
0.0
 42
0.1491587679877955
  0
SEQEND
  5
32B
  8
DEFAULT
 62
     5
  0
POLYLINE
  5
32C
  8
DEFAULT
 62
     5
 66
     1
 10
0.0
 20
0.0
 30
0.0
 70
     1
  0
VERTEX
  5
32D
  8
DEFAULT
 62
     5
 10
-50.47374238731374
 20
94.17280272131066
 30
0.0
 42
0.1662127852120595
  0
VERTEX
  5
32E
  8
DEFAULT
 62
     5
 10
-50.09488423310909
 20
92.6998086468975
 30
0.0
 42
0.2404461653497743
  0
VERTEX
  5
32F
  8
DEFAULT
 62
     5
 10
-49.172044585649
 20
92.22372829401849
 30
0.0
 42
0.2413239634426899
  0
VERTEX
  5
330
  8
DEFAULT
 62
     5
 10
-48.30205992944326
 20
92.66084275646294
 30
0.0
 42
0.1627449374921778
  0
VERTEX
  5
331
  8
DEFAULT
 62
     5
 10
-47.95522386879521
 20
94.09487094044151
 30
0.0
 42
0.1661976731382087
  0
VERTEX
  5
332
  8
DEFAULT
 62
     5
 10
-48.31286256341416
 20
95.47642918798996
 30
0.0
 42
0.2412377667960334
  0
VERTEX
  5
333
  8
DEFAULT
 62
     5
 10
-49.19827880033214
 20
95.92743199772218
 30
0.0
 42
0.2367422129321763
  0
VERTEX
  5
334
  8
DEFAULT
 62
     5
 10
-50.11108780729946
 20
95.48453078670217
 30
0.0
 42
0.1723447809988974
  0
SEQEND
  5
335
  8
DEFAULT
 62
     5
  0
POLYLINE
  5
336
  8
DEFAULT
 62
     5
 66
     1
 10
0.0
 20
0.0
 30
0.0
 70
     1
  0
VERTEX
  5
337
  8
DEFAULT
 62
     5
 10
-52.00460658484461
 20
96.96446903475922
 30
0.0
  0
VERTEX
  5
338
  8
DEFAULT
 62
     5
 10
-50.57250781941251
 20
96.96446903475922
 30
0.0
  0
VERTEX
  5
339
  8
DEFAULT
 62
     5
 10
-50.57250781941251
 20
96.12187714860283
 30
0.0
 42
-0.1189653659007464
  0
VERTEX
  5
33A
  8
DEFAULT
 62
     5
 10
-49.83292412697411
 20
96.83329645427968
 30
0.0
 42
-0.1382105598910295
  0
VERTEX
  5
33B
  8
DEFAULT
 62
     5
 10
-48.79858737166383
 20
97.11261718290736
 30
0.0
 42
-0.2273648758850503
  0
VERTEX
  5
33C
  8
DEFAULT
 62
     5
 10
-47.11571769595572
 20
96.31902182767828
 30
0.0
 42
-0.1838682188936166
  0
VERTEX
  5
33D
  8
DEFAULT
 62
     5
 10
-46.42435967126434
 20
94.10875928772931
 30
0.0
 42
-0.1823656645300105
  0
VERTEX
  5
33E
  8
DEFAULT
 62
     5
 10
-47.1215044445313
 20
91.845642133292
 30
0.0
 42
-0.2285594541574973
  0
VERTEX
  5
33F
  8
DEFAULT
 62
     5
 10
-48.81093323905916
 20
91.0385431088333
 30
0.0
 42
-0.1163198006807694
  0
VERTEX
  5
340
  8
DEFAULT
 62
     5
 10
-49.66664336285503
 20
91.22758656596251
 30
0.0
 42
-0.0904152380777488
  0
VERTEX
  5
341
  8
DEFAULT
 62
     5
 10
-50.47374238731375
 20
91.87573518506812
 30
0.0
  0
VERTEX
  5
342
  8
DEFAULT
 62
     5
 10
-50.47374238731374
 20
88.96446903475922
 30
0.0
  0
VERTEX
  5
343
  8
DEFAULT
 62
     5
 10
-52.00460658484461
 20
88.96446903475922
 30
0.0
  0
SEQEND
  5
344
  8
DEFAULT
 62
     5
  0
POLYLINE
  5
345
  8
DEFAULT
 62
     5
 66
     1
 10
0.0
 20
0.0
 30
0.0
 70
     1
  0
VERTEX
  5
346
  8
DEFAULT
 62
     5
 10
-61.97991522681991
 20
96.96446903475922
 30
0.0
  0
VERTEX
  5
347
  8
DEFAULT
 62
     5
 10
-60.5971991774372
 20
96.96446903475922
 30
0.0
  0
VERTEX
  5
348
  8
DEFAULT
 62
     5
 10
-60.5971991774372
 20
96.18129012837898
 30
0.0
 42
-0.2373869490350015
  0
VERTEX
  5
349
  8
DEFAULT
 62
     5
 10
-58.80013098185422
 20
97.11261718290737
 30
0.0
 42
-0.1315120310734423
  0
VERTEX
  5
34A
  8
DEFAULT
 62
     5
 10
-57.83986867738398
 20
96.88113593690463
 30
0.0
 42
-0.1393853272245057
  0
VERTEX
  5
34B
  8
DEFAULT
 62
     5
 10
-57.172044585649
 20
96.18129012837898
 30
0.0
 42
-0.1018343532165886
  0
VERTEX
  5
34C
  8
DEFAULT
 62
     5
 10
-56.35491492069756
 20
96.88113593690463
 30
0.0
 42
-0.1239296679571022
  0
VERTEX
  5
34D
  8
DEFAULT
 62
     5
 10
-55.41895778912994
 20
97.11261718290739
 30
0.0
 42
-0.1355305589141806
  0
VERTEX
  5
34E
  8
DEFAULT
 62
     5
 10
-54.34719875357548
 20
96.8533581120311
 30
0.0
 42
-0.1623661969580763
  0
VERTEX
  5
34F
  8
DEFAULT
 62
     5
 10
-53.69210596082596
 20
96.09255571353893
 30
0.0
 42
-0.0915442810314577
  0
VERTEX
  5
350
  8
DEFAULT
 62
     5
 10
-53.53547078237546
 20
94.89193819410957
 30
0.0
  0
VERTEX
  5
351
  8
DEFAULT
 62
     5
 10
-53.53547078237547
 20
91.18669125698145
 30
0.0
  0
VERTEX
  5
352
  8
DEFAULT
 62
     5
 10
-55.06633497990634
 20
91.18669125698145
 30
0.0
  0
VERTEX
  5
353
  8
DEFAULT
 62
     5
 10
-55.06633497990634
 20
94.49070428554879
 30
0.0
 42
0.1141470137910661
  0
VERTEX
  5
354
  8
DEFAULT
 62
     5
 10
-55.22219854164462
 20
95.60104340318172
 30
0.0
 42
0.2721000606534105
  0
VERTEX
  5
355
  8
DEFAULT
 62
     5
 10
-55.86803193384764
 20
95.92743199772218
 30
0.0
 42
0.1575639071466282
  0
VERTEX
  5
356
  8
DEFAULT
 62
     5
 10
-56.46486879512334
 20
95.73144436694908
 30
0.0
 42
0.165762737447367
  0
VERTEX
  5
357
  8
DEFAULT
 62
     5
 10
-56.86841830735268
 20
95.15737057544948
 30
0.0
 42
0.0723437487254983
  0
VERTEX
  5
358
  8
DEFAULT
 62
     5
 10
-56.99226090583226
 20
93.96292598971779
 30
0.0
  0
VERTEX
  5
359
  8
DEFAULT
 62
     5
 10
-56.99226090583226
 20
91.18669125698145
 30
0.0
  0
VERTEX
  5
35A
  8
DEFAULT
 62
     5
 10
-58.52312510336312
 20
91.18669125698145
 30
0.0
  0
VERTEX
  5
35B
  8
DEFAULT
 62
     5
 10
-58.52312510336312
 20
94.35412963455181
 30
0.0
 42
0.0609892367975028
  0
VERTEX
  5
35C
  8
DEFAULT
 62
     5
 10
-58.60298592601279
 20
95.44325004613097
 30
0.0
 42
0.1633931196985767
  0
VERTEX
  5
35D
  8
DEFAULT
 62
     5
 10
-58.85105655456204
 20
95.8078332911598
 30
0.0
 42
0.1561218014296535
  0
VERTEX
  5
35E
  8
DEFAULT
 62
     5
 10
-59.30707562645558
 20
95.92743199772217
 30
0.0
 42
0.1551837175467918
  0
VERTEX
  5
35F
  8
DEFAULT
 62
     5
 10
-59.93168955907288
 20
95.73684568393453
 30
0.0
 42
0.1670025847935173
  0
VERTEX
  5
360
  8
DEFAULT
 62
     5
 10
-60.32906613760456
 20
95.18707744210353
 30
0.0
 42
0.0722698594962416
  0
VERTEX
  5
361
  8
DEFAULT
 62
     5
 10
-60.44905102928904
 20
93.99533389163054
 30
0.0
  0
VERTEX
  5
362
  8
DEFAULT
 62
     5
 10
-60.44905102928905
 20
91.18669125698145
 30
0.0
  0
VERTEX
  5
363
  8
DEFAULT
 62
     5
 10
-61.97991522681991
 20
91.18669125698145
 30
0.0
  0
SEQEND
  5
364
  8
DEFAULT
 62
     5
  0
POLYLINE
  5
365
  8
DEFAULT
 62
     5
 66
     1
 10
0.0
 20
0.0
 30
0.0
 70
     1
  0
VERTEX
  5
366
  8
DEFAULT
 62
     5
 10
-67.41201399225201
 20
94.07558052263632
 30
0.0
 42
0.1807696907208146
  0
VERTEX
  5
367
  8
DEFAULT
 62
     5
 10
-67.0123225635837
 20
92.73761748902973
 30
0.0
 42
0.4777036397637872
  0
VERTEX
  5
368
  8
DEFAULT
 62
     5
 10
-65.04357228689618
 20
92.73761748902973
 30
0.0
 42
0.1794408075869903
  0
VERTEX
  5
369
  8
DEFAULT
 62
     5
 10
-64.64658189348658
 20
94.08638315660723
 30
0.0
 42
0.1800932450794108
  0
VERTEX
  5
36A
  8
DEFAULT
 62
     5
 10
-65.04357228689618
 20
95.41354317947692
 30
0.0
 42
0.4793729384846319
  0
VERTEX
  5
36B
  8
DEFAULT
 62
     5
 10
-67.01232256358371
 20
95.41354317947692
 30
0.0
 42
0.1807697890868433
  0
SEQEND
  5
36C
  8
DEFAULT
 62
     5
  0
POLYLINE
  5
36D
  8
DEFAULT
 62
     5
 66
     1
 10
0.0
 20
0.0
 30
0.0
 70
     1
  0
VERTEX
  5
36E
  8
DEFAULT
 62
     5
 10
-68.94287818978287
 20
94.15737038706649
 30
0.0
 42
-0.122257429183274
  0
VERTEX
  5
36F
  8
DEFAULT
 62
     5
 10
-68.56980716091978
 20
95.64039547873837
 30
0.0
 42
-0.1509199207835857
  0
VERTEX
  5
370
  8
DEFAULT
 62
     5
 10
-67.51270808936533
 20
96.73491683053697
 30
0.0
 42
-0.1287246067144107
  0
VERTEX
  5
371
  8
DEFAULT
 62
     5
 10
-65.98531579027343
 20
97.11261718290737
 30
0.0
 42
-0.2109274079128398
  0
VERTEX
  5
372
  8
DEFAULT
 62
     5
 10
-63.84951388628658
 20
96.25613581916524
 30
0.0
 42
-0.2026212639801848
  0
VERTEX
  5
373
  8
DEFAULT
 62
     5
 10
-63.01695226385696
 20
94.09178447359268
 30
0.0
 42
-0.202229597332319
  0
VERTEX
  5
374
  8
DEFAULT
 62
     5
 10
-63.8576154849988
 20
91.90582710654631
 30
0.0
 42
-0.2115506096601045
  0
VERTEX
  5
375
  8
DEFAULT
 62
     5
 10
-65.97451390983446
 20
91.03854310883331
 30
0.0
 42
-0.1188796278362263
  0
VERTEX
  5
376
  8
DEFAULT
 62
     5
 10
-67.48030094098453
 20
91.39965445542313
 30
0.0
 42
-0.158235579832039
  0
VERTEX
  5
377
  8
DEFAULT
 62
     5
 10
-68.56980716091978
 20
92.45868256875812
 30
0.0
 42
-0.123905326714038
  0
SEQEND
  5
378
  8
DEFAULT
 62
     5
  0
POLYLINE
  5
379
  8
DEFAULT
 62
     5
 66
     1
 10
0.0
 20
0.0
 30
0.0
 70
     1
  0
VERTEX
  5
37A
  8
DEFAULT
 62
     5
 10
-69.78238436262238
 20
95.2854566890802
 30
0.0
  0
VERTEX
  5
37B
  8
DEFAULT
 62
     5
 10
-71.31324856015324
 20
95.0385431088333
 30
0.0
 42
0.1809968098175304
  0
VERTEX
  5
37C
  8
DEFAULT
 62
     5
 10
-71.65506911217192
 20
95.7040527271976
 30
0.0
 42
0.180476016767002
  0
VERTEX
  5
37D
  8
DEFAULT
 62
     5
 10
-72.34642751362924
 20
95.92743199772218
 30
0.0
 42
0.2329674834671441
  0
VERTEX
  5
37E
  8
DEFAULT
 62
     5
 10
-73.2484335098597
 20
95.52619771239543
 30
0.0
 42
0.169517955512052
  0
VERTEX
  5
37F
  8
DEFAULT
 62
     5
 10
-73.58485349842483
 20
94.18360535528157
 30
0.0
 42
0.1610966817175014
  0
VERTEX
  5
380
  8
DEFAULT
 62
     5
 10
-73.24033153438151
 20
92.70482415552685
 30
0.0
 42
0.2405540491094032
  0
VERTEX
  5
381
  8
DEFAULT
 62
     5
 10
-72.31556284514089
 20
92.27311101006788
 30
0.0
 42
0.1883458441869845
  0
VERTEX
  5
382
  8
DEFAULT
 62
     5
 10
-71.60530058776641
 20
92.51771011694413
 30
0.0
 42
0.1622604489947842
  0
VERTEX
  5
383
  8
DEFAULT
 62
     5
 10
-71.21448312805448
 20
93.35953076315428
 30
0.0
  0
VERTEX
  5
384
  8
DEFAULT
 62
     5
 10
-69.68361893052361
 20
93.16199989895675
 30
0.0
 42
-0.1724509721436003
  0
VERTEX
  5
385
  8
DEFAULT
 62
     5
 10
-70.57790875963197
 20
91.5748088117326
 30
0.0
 42
-0.1746967243539356
  0
VERTEX
  5
386
  8
DEFAULT
 62
     5
 10
-72.35105646037056
 20
91.0385431088333
 30
0.0
 42
-0.2163976905724357
  0
VERTEX
  5
387
  8
DEFAULT
 62
     5
 10
-74.36494593795626
 20
91.84294147479926
 30
0.0
 42
-0.1943870566321023
  0
VERTEX
  5
388
  8
DEFAULT
 62
     5
 10
-75.11571769595571
 20
94.07017920565085
 30
0.0
 42
-0.1945054615972382
  0
VERTEX
  5
389
  8
DEFAULT
 62
     5
 10
-74.36533174631236
 20
96.3109198522001
 30
0.0
 42
-0.2157801631579806
  0
VERTEX
  5
38A
  8
DEFAULT
 62
     5
 10
-72.33562487965833
 20
97.11261718290737
 30
0.0
 42
-0.1599423076958005
  0
VERTEX
  5
38B
  8
DEFAULT
 62
     5
 10
-70.67050125803308
 20
96.66122856481903
 30
0.0
 42
-0.168263569712656
  0
SEQEND
  5
38C
  8
DEFAULT
 62
     5
  0
POLYLINE
  5
38D
  8
DEFAULT
 62
     5
 66
     1
 10
0.0
 20
0.0
 30
0.0
 70
     1
  0
VERTEX
  5
38E
  8
DEFAULT
 62
     5
 10
-80.54781646138781
 20
94.59409866438885
 30
0.0
 42
0.1931771868552589
  0
VERTEX
  5
38F
  8
DEFAULT
 62
     5
 10
-80.89928222230908
 20
95.58754011071807
 30
0.0
 42
0.2094545272840972
  0
VERTEX
  5
390
  8
DEFAULT
 62
     5
 10
-81.71371122876779
 20
95.92743199772217
 30
0.0
 42
0.2175151257022218
  0
VERTEX
  5
391
  8
DEFAULT
 62
     5
 10
-82.56170518544158
 20
95.56863625480091
 30
0.0
 42
0.1974850402976555
  0
VERTEX
  5
392
  8
DEFAULT
 62
     5
 10
-82.8911802468309
 20
94.59409866438885
 30
0.0
  0
SEQEND
  5
393
  8
DEFAULT
 62
     5
  0
POLYLINE
  5
394
  8
DEFAULT
 62
     5
 66
     1
 10
0.0
 20
0.0
 30
0.0
 70
     1
  0
VERTEX
  5
395
  8
DEFAULT
 62
     5
 10
-80.64658189348658
 20
93.01385175080861
 30
0.0
  0
VERTEX
  5
396
  8
DEFAULT
 62
     5
 10
-79.1157176959557
 20
92.81632088661107
 30
0.0
 42
-0.1601948643917315
  0
VERTEX
  5
397
  8
DEFAULT
 62
     5
 10
-80.0462731337719
 20
91.49301857053644
 30
0.0
 42
-0.1590209405814285
  0
VERTEX
  5
398
  8
DEFAULT
 62
     5
 10
-81.63809354450335
 20
91.0385431088333
 30
0.0
 42
-0.2510606897924139
  0
VERTEX
  5
399
  8
DEFAULT
 62
     5
 10
-83.87574810096972
 20
92.02928389666978
 30
0.0
 42
-0.1603231689598326
  0
VERTEX
  5
39A
  8
DEFAULT
 62
     5
 10
-84.44905102928905
 20
94.03159912357238
 30
0.0
 42
-0.1928988919450678
  0
VERTEX
  5
39B
  8
DEFAULT
 62
     5
 10
-83.69326376266024
 20
96.29471627800972
 30
0.0
 42
-0.2186957110499337
  0
VERTEX
  5
39C
  8
DEFAULT
 62
     5
 10
-81.78238436262238
 20
97.11261718290737
 30
0.0
 42
-0.2248762650829795
  0
VERTEX
  5
39D
  8
DEFAULT
 62
     5
 10
-79.73454450323146
 20
96.26192294450681
 30
0.0
 42
-0.1866850592647366
  0
VERTEX
  5
39E
  8
DEFAULT
 62
     5
 10
-79.01695226385695
 20
93.65582705945059
 30
0.0
  0
VERTEX
  5
39F
  8
DEFAULT
 62
     5
 10
-82.91818683175818
 20
93.65582705945059
 30
0.0
 42
0.1907233177561235
  0
VERTEX
  5
3A0
  8
DEFAULT
 62
     5
 10
-82.54048572585586
 20
92.60065740644262
 30
0.0
 42
0.2135192120775166
  0
VERTEX
  5
3A1
  8
DEFAULT
 62
     5
 10
-81.64040839463996
 20
92.22372829401847
 30
0.0
 42
0.1657236937100978
  0
VERTEX
  5
3A2
  8
DEFAULT
 62
     5
 10
-81.02428224585695
 20
92.41084270936717
 30
0.0
 42
0.1589948514629509
  0
SEQEND
  5
3A3
  8
DEFAULT
 62
     5
  0
POLYLINE
  5
3A4
  8
DEFAULT
 62
     5
 66
     1
 10
0.0
 20
0.0
 30
0.0
 70
     1
  0
VERTEX
  5
3A5
  8
DEFAULT
 62
     5
 10
-87.06633497990633
 20
91.18669125698145
 30
0.0
  0
VERTEX
  5
3A6
  8
DEFAULT
 62
     5
 10
-87.06633497990633
 20
99.13730854093207
 30
0.0
  0
VERTEX
  5
3A7
  8
DEFAULT
 62
     5
 10
-85.53547078237547
 20
99.13730854093207
 30
0.0
  0
VERTEX
  5
3A8
  8
DEFAULT
 62
     5
 10
-85.53547078237547
 20
91.18669125698145
 30
0.0
  0
SEQEND
  5
3A9
  8
DEFAULT
 62
     5
  0
POLYLINE
  5
3AA
  8
DEFAULT
 62
     5
 66
     1
 10
0.0
 20
0.0
 30
0.0
 70
     1
  0
VERTEX
  5
3AB
  8
DEFAULT
 62
     5
 10
-92.64658189348658
 20
94.17203110459845
 30
0.0
 42
0.167183167516166
  0
VERTEX
  5
3AC
  8
DEFAULT
 62
     5
 10
-92.29704479757987
 20
92.80513282105002
 30
0.0
 42
0.2386895617245899
  0
VERTEX
  5
3AD
  8
DEFAULT
 62
     5
 10
-91.43516174008631
 20
92.37187644216662
 30
0.0
 42
0.2306067024897288
  0
VERTEX
  5
3AE
  8
DEFAULT
 62
     5
 10
-90.50692115240676
 20
92.81632088661111
 30
0.0
 42
0.1781814747799711
  0
VERTEX
  5
3AF
  8
DEFAULT
 62
     5
 10
-90.12806337496806
 20
94.13345102251998
 30
0.0
 42
0.1711933697273436
  0
VERTEX
  5
3B0
  8
DEFAULT
 62
     5
 10
-90.49071757821636
 20
95.48568821177045
 30
0.0
 42
0.2363895789849495
  0
VERTEX
  5
3B1
  8
DEFAULT
 62
     5
 10
-91.40892752540319
 20
95.92743199772218
 30
0.0
 42
0.2389909455159706
  0
VERTEX
  5
3B2
  8
DEFAULT
 62
     5
 10
-92.29704479757987
 20
95.49417599560476
 30
0.0
 42
0.1688350197989081
  0
SEQEND
  5
3B3
  8
DEFAULT
 62
     5
  0
POLYLINE
  5
3B4
  8
DEFAULT
 62
     5
 66
     1
 10
0.0
 20
0.0
 30
0.0
 70
     1
  0
VERTEX
  5
3B5
  8
DEFAULT
 62
     5
 10
-93.97991522681991
 20
90.79162952858638
 30
0.0
  0
VERTEX
  5
3B6
  8
DEFAULT
 62
     5
 10
-92.20213744904214
 20
90.59409866438885
 30
0.0
 42
0.1963004846498961
  0
VERTEX
  5
3B7
  8
DEFAULT
 62
     5
 10
-92.0084639148737
 20
90.1674014043252
 30
0.0
 42
0.1652544786658416
  0
VERTEX
  5
3B8
  8
DEFAULT
 62
     5
 10
-91.3502854088073
 20
90.00150607179626
 30
0.0
 42
0.133589791130648
  0
VERTEX
  5
3B9
  8
DEFAULT
 62
     5
 10
-90.48840235131375
 20
90.17820403829612
 30
0.0
 42
0.1695942548853891
  0
VERTEX
  5
3BA
  8
DEFAULT
 62
     5
 10
-90.19596413857849
 20
90.55937666587143
 30
0.0
  0
VERTEX
  5
3BB
  8
DEFAULT
 62
     5
 10
-90.12806337496806
 20
91.251506307275
 30
0.0
  0
VERTEX
  5
3BC
  8
DEFAULT
 62
     5
 10
-90.12806337496806
 20
92.08252469628023
 30
0.0
 42
-0.2481650325452825
  0
VERTEX
  5
3BD
  8
DEFAULT
 62
     5
 10
-91.83562478546683
 20
91.18669125698146
 30
0.0
 42
-0.264964690688676
  0
VERTEX
  5
3BE
  8
DEFAULT
 62
     5
 10
-93.65198264532307
 20
92.1743455779691
 30
0.0
 42
-0.151323568099117
  0
VERTEX
  5
3BF
  8
DEFAULT
 62
     5
 10
-94.17744609101743
 20
94.11724707156361
 30
0.0
 42
-0.186472894750691
  0
VERTEX
  5
3C0
  8
DEFAULT
 62
     5
 10
-93.48878834805285
 20
96.34332737734688
 30
0.0
 42
-0.22347699423701
  0
VERTEX
  5
3C1
  8
DEFAULT
 62
     5
 10
-91.77621105215874
 20
97.11261718290737
 30
0.0
 42
-0.2545979461410063
  0
VERTEX
  5
3C2
  8
DEFAULT
 62
     5
 10
-90.0292979428693
 20
96.15891399725687
 30
0.0
  0
VERTEX
  5
3C3
  8
DEFAULT
 62
     5
 10
-90.02929794286929
 20
96.96446903475922
 30
0.0
  0
VERTEX
  5
3C4
  8
DEFAULT
 62
     5
 10
-88.5971991774372
 20
96.96446903475922
 30
0.0
  0
VERTEX
  5
3C5
  8
DEFAULT
 62
     5
 10
-88.5971991774372
 20
91.76308065214961
 30
0.0
 42
-0.0739274830705751
  0
VERTEX
  5
3C6
  8
DEFAULT
 62
     5
 10
-88.76425155826847
 20
90.22990160448212
 30
0.0
 42
-0.1231238869311841
  0
VERTEX
  5
3C7
  8
DEFAULT
 62
     5
 10
-89.23300155238151
 20
89.43283359728213
 30
0.0
 42
-0.1133489208680095
  0
VERTEX
  5
3C8
  8
DEFAULT
 62
     5
 10
-90.03855696664982
 20
88.9799013690034
 30
0.0
 42
-0.0770474087797246
  0
VERTEX
  5
3C9
  8
DEFAULT
 62
     5
 10
-91.31247694344104
 20
88.81632088661108
 30
0.0
 42
-0.1675355138834603
  0
VERTEX
  5
3CA
  8
DEFAULT
 62
     5
 10
-93.37651962349044
 20
89.32249391450023
 30
0.0
 42
-0.2345118942080163
  0
VERTEX
  5
3CB
  8
DEFAULT
 62
     5
 10
-93.98531579027345
 20
90.60567291507198
 30
0.0
  0
SEQEND
  5
3CC
  8
DEFAULT
 62
     5
  0
POLYLINE
  5
3CD
  8
DEFAULT
 62
     5
 66
     1
 10
0.0
 20
0.0
 30
0.0
 70
     1
  0
VERTEX
  5
3CE
  8
DEFAULT
 62
     5
 10
-95.36263127620263
 20
91.18669125698145
 30
0.0
  0
VERTEX
  5
3CF
  8
DEFAULT
 62
     5
 10
-96.8934954737335
 20
91.18669125698145
 30
0.0
  0
VERTEX
  5
3D0
  8
DEFAULT
 62
     5
 10
-96.8934954737335
 20
94.13653748936882
 30
0.0
 42
0.065904340344182
  0
VERTEX
  5
3D1
  8
DEFAULT
 62
     5
 10
-96.98994605569565
 20
95.3479572660031
 30
0.0
 42
0.1600130695765717
  0
VERTEX
  5
3D2
  8
DEFAULT
 62
     5
 10
-97.30321754289454
 20
95.77504033442288
 30
0.0
 42
0.1575149176297827
  0
VERTEX
  5
3D3
  8
DEFAULT
 62
     5
 10
-97.82482252826189
 20
95.92743199772218
 30
0.0
 42
0.1576987046345057
  0
VERTEX
  5
3D4
  8
DEFAULT
 62
     5
 10
-98.52582538508989
 20
95.70983947577321
 30
0.0
 42
0.1684371822617291
  0
VERTEX
  5
3D5
  8
DEFAULT
 62
     5
 10
-98.9513655968512
 20
95.1330650257809
 30
0.0
 42
0.065980991857673
  0
VERTEX
  5
3D6
  8
DEFAULT
 62
     5
 10
-99.06633497990633
 20
93.80474682431094
 30
0.0
  0
VERTEX
  5
3D7
  8
DEFAULT
 62
     5
 10
-99.06633497990633
 20
91.18669125698145
 30
0.0
  0
VERTEX
  5
3D8
  8
DEFAULT
 62
     5
 10
-100.5971991774372
 20
91.18669125698145
 30
0.0
  0
VERTEX
  5
3D9
  8
DEFAULT
 62
     5
 10
-100.5971991774372
 20
96.96446903475922
 30
0.0
  0
VERTEX
  5
3DA
  8
DEFAULT
 62
     5
 10
-99.1651004120051
 20
96.96446903475922
 30
0.0
  0
VERTEX
  5
3DB
  8
DEFAULT
 62
     5
 10
-99.1651004120051
 20
96.12187714860283
 30
0.0
 42
-0.2486296121988576
  0
VERTEX
  5
3DC
  8
DEFAULT
 62
     5
 10
-97.28238426843089
 20
97.11261718290737
 30
0.0
 42
-0.1053164015608111
  0
VERTEX
  5
3DD
  8
DEFAULT
 62
     5
 10
-96.36841821316119
 20
96.92974703624179
 30
0.0
 42
-0.1292191717088731
  0
VERTEX
  5
3DE
  8
DEFAULT
 62
     5
 10
-95.74187486199742
 20
96.4633118922654
 30
0.0
 42
-0.1054932374261892
  0
VERTEX
  5
3DF
  8
DEFAULT
 62
     5
 10
-95.44596437405724
 20
95.81940754184289
 30
0.0
 42
-0.053364138517733
  0
VERTEX
  5
3E0
  8
DEFAULT
 62
     5
 10
-95.36263127620263
 20
94.78777219855729
 30
0.0
  0
SEQEND
  5
3E1
  8
DEFAULT
 62
     5
  0
POLYLINE
  5
3E2
  8
DEFAULT
 62
     5
 66
     1
 10
0.0
 20
0.0
 30
0.0
 70
     1
  0
VERTEX
  5
3E3
  8
DEFAULT
 62
     5
 10
-103.6589275724989
 20
91.18669125698145
 30
0.0
  0
VERTEX
  5
3E4
  8
DEFAULT
 62
     5
 10
-103.6589275724989
 20
96.96446903475922
 30
0.0
  0
VERTEX
  5
3E5
  8
DEFAULT
 62
     5
 10
-102.1280633749681
 20
96.96446903475922
 30
0.0
  0
VERTEX
  5
3E6
  8
DEFAULT
 62
     5
 10
-102.1280633749681
 20
91.18669125698145
 30
0.0
  0
SEQEND
  5
3E7
  8
DEFAULT
 62
     5
  0
POLYLINE
  5
3E8
  8
DEFAULT
 62
     5
 66
     1
 10
0.0
 20
0.0
 30
0.0
 70
     1
  0
VERTEX
  5
3E9
  8
DEFAULT
 62
     5
 10
-103.6589275724989
 20
97.80397520759873
 30
0.0
  0
VERTEX
  5
3EA
  8
DEFAULT
 62
     5
 10
-103.6589275724989
 20
99.13730854093207
 30
0.0
  0
VERTEX
  5
3EB
  8
DEFAULT
 62
     5
 10
-102.1280633749681
 20
99.13730854093207
 30
0.0
  0
VERTEX
  5
3EC
  8
DEFAULT
 62
     5
 10
-102.1280633749681
 20
97.80397520759873
 30
0.0
  0
SEQEND
  5
3ED
  8
DEFAULT
 62
     5
  0
POLYLINE
  5
3EE
  8
DEFAULT
 62
     5
 66
     1
 10
0.0
 20
0.0
 30
0.0
 70
     1
  0
VERTEX
  5
3EF
  8
DEFAULT
 62
     5
 10
-110.374976955215
 20
92.81632088661108
 30
0.0
  0
VERTEX
  5
3F0
  8
DEFAULT
 62
     5
 10
-108.8441127576841
 20
93.01385175080861
 30
0.0
 42
0.1817134537412924
  0
VERTEX
  5
3F1
  8
DEFAULT
 62
     5
 10
-108.4478932274548
 20
92.35104316770298
 30
0.0
 42
0.16374903188333
  0
VERTEX
  5
3F2
  8
DEFAULT
 62
     5
 10
-107.6134021864786
 20
92.1249628619197
 30
0.0
 42
0.1581548590316373
  0
VERTEX
  5
3F3
  8
DEFAULT
 62
     5
 10
-106.7237416808776
 20
92.34641384419572
 30
0.0
 42
0.2454173628752578
  0
VERTEX
  5
3F4
  8
DEFAULT
 62
     5
 10
-106.5231251033631
 20
92.76153760710818
 30
0.0
 42
0.1967133408659693
  0
VERTEX
  5
3F5
  8
DEFAULT
 62
     5
 10
-106.6319207991886
 20
93.05474743655564
 30
0.0
 42
0.1152480441762739
  0
VERTEX
  5
3F6
  8
DEFAULT
 62
     5
 10
-107.1442667607755
 20
93.25922285116305
 30
0.0
 42
-0.0750101977649267
  0
VERTEX
  5
3F7
  8
DEFAULT
 62
     5
 10
-109.4914886297796
 20
94.01462355590377
 30
0.0
 42
-0.2630575377237233
  0
VERTEX
  5
3F8
  8
DEFAULT
 62
     5
 10
-110.1774460910174
 20
95.32480914140284
 30
0.0
 42
-0.2278055359034228
  0
VERTEX
  5
3F9
  8
DEFAULT
 62
     5
 10
-109.5844676900687
 20
96.59718513123768
 30
0.0
 42
-0.1789409577799093
  0
VERTEX
  5
3FA
  8
DEFAULT
 62
     5
 10
-107.7461187539146
 20
97.11261718290736
 30
0.0
 42
-0.1478680227513013
  0
VERTEX
  5
3FB
  8
DEFAULT
 62
     5
 10
-105.983772933615
 20
96.71331193936113
 30
0.0
 42
-0.1798681362132294
  0
VERTEX
  5
3FC
  8
DEFAULT
 62
     5
 10
-105.1897917700298
 20
95.53237026932713
 30
0.0
  0
VERTEX
  5
3FD
  8
DEFAULT
 62
     5
 10
-106.6218905354619
 20
95.2854566890802
 30
0.0
 42
0.1762609448244176
  0
VERTEX
  5
3FE
  8
DEFAULT
 62
     5
 10
-106.9721988713149
 20
95.83522530767718
 30
0.0
 42
0.1598214678236455
  0
VERTEX
  5
3FF
  8
DEFAULT
 62
     5
 10
-107.7083102885483
 20
96.02619742982095
 30
0.0
 42
0.1371855487857367
  0
VERTEX
  5
400
  8
DEFAULT
 62
     5
 10
-108.5717358259343
 20
95.85490153383853
 30
0.0
 42
0.5297885667388599
  0
VERTEX
  5
401
  8
DEFAULT
 62
     5
 10
-108.5933410938761
 20
95.25690762426044
 30
0.0
 42
0.0664798749578883
  0
VERTEX
  5
402
  8
DEFAULT
 62
     5
 10
-107.1697297355124
 20
94.81979353858199
 30
0.0
 42
-0.1095214193377388
  0
VERTEX
  5
403
  8
DEFAULT
 62
     5
 10
-105.4698841153697
 20
94.13267940580778
 30
0.0
 42
-0.2284114958797569
  0
VERTEX
  5
404
  8
DEFAULT
 62
     5
 10
-104.9922609058323
 20
92.98838915283768
 30
0.0
 42
-0.2276229810651051
  0
VERTEX
  5
405
  8
DEFAULT
 62
     5
 10
-105.6542978722257
 20
91.61338889381106
 30
0.0
 42
-0.1809722242825224
  0
VERTEX
  5
406
  8
DEFAULT
 62
     5
 10
-107.6134021864786
 20
91.03854310883331
 30
0.0
 42
-0.1534212868271948
  0
VERTEX
  5
407
  8
DEFAULT
 62
     5
 10
-109.4772144741357
 20
91.51693831184893
 30
0.0
 42
-0.1853542620166121
  0
SEQEND
  5
408
  8
DEFAULT
 62
     5
  0
POLYLINE
  5
409
  8
DEFAULT
 62
     5
 66
     1
 10
0.0
 20
0.0
 30
0.0
 70
     1
  0
VERTEX
  5
40A
  8
DEFAULT
 62
     5
 10
46.54005941362212
 20
112.138825276233
 30
0.0
  0
VERTEX
  5
40B
  8
DEFAULT
 62
     5
 10
47.92277546300483
 20
112.138825276233
 30
0.0
  0
VERTEX
  5
40C
  8
DEFAULT
 62
     5
 10
47.92277546300483
 20
111.3556463698528
 30
0.0
 42
-0.2373869490350202
  0
VERTEX
  5
40D
  8
DEFAULT
 62
     5
 10
49.71984365858782
 20
112.2869734243811
 30
0.0
 42
-0.131512031073454
  0
VERTEX
  5
40E
  8
DEFAULT
 62
     5
 10
50.68010596305805
 20
112.0554921783784
 30
0.0
 42
-0.1393853272244996
  0
VERTEX
  5
40F
  8
DEFAULT
 62
     5
 10
51.34793005479305
 20
111.3556463698527
 30
0.0
 42
-0.1018343532165994
  0
VERTEX
  5
410
  8
DEFAULT
 62
     5
 10
52.16505971974448
 20
112.0554921783784
 30
0.0
 42
-0.1239296679571233
  0
VERTEX
  5
411
  8
DEFAULT
 62
     5
 10
53.1010168513121
 20
112.2869734243811
 30
0.0
 42
-0.135530558914209
  0
VERTEX
  5
412
  8
DEFAULT
 62
     5
 10
54.17277588686656
 20
112.0277143535049
 30
0.0
 42
-0.1623661969580617
  0
VERTEX
  5
413
  8
DEFAULT
 62
     5
 10
54.82786867961607
 20
111.2669119550127
 30
0.0
 42
-0.091544281031441
  0
VERTEX
  5
414
  8
DEFAULT
 62
     5
 10
54.98450385806655
 20
110.0662944355833
 30
0.0
  0
VERTEX
  5
415
  8
DEFAULT
 62
     5
 10
54.98450385806655
 20
106.3610474984552
 30
0.0
  0
VERTEX
  5
416
  8
DEFAULT
 62
     5
 10
53.45363966053569
 20
106.3610474984552
 30
0.0
  0
VERTEX
  5
417
  8
DEFAULT
 62
     5
 10
53.45363966053569
 20
109.6650605270226
 30
0.0
 42
0.1141470137910631
  0
VERTEX
  5
418
  8
DEFAULT
 62
     5
 10
53.29777609879741
 20
110.7753996446555
 30
0.0
 42
0.2721000606533895
  0
VERTEX
  5
419
  8
DEFAULT
 62
     5
 10
52.65194270659438
 20
111.101788239196
 30
0.0
 42
0.1575639071466329
  0
VERTEX
  5
41A
  8
DEFAULT
 62
     5
 10
52.05510584531869
 20
110.9058006084229
 30
0.0
 42
0.165762737447388
  0
VERTEX
  5
41B
  8
DEFAULT
 62
     5
 10
51.65155633308934
 20
110.3317268169233
 30
0.0
 42
0.0723437487255054
  0
VERTEX
  5
41C
  8
DEFAULT
 62
     5
 10
51.52771373460976
 20
109.1372822311916
 30
0.0
  0
VERTEX
  5
41D
  8
DEFAULT
 62
     5
 10
51.52771373460976
 20
106.3610474984552
 30
0.0
  0
VERTEX
  5
41E
  8
DEFAULT
 62
     5
 10
49.9968495370789
 20
106.3610474984552
 30
0.0
  0
VERTEX
  5
41F
  8
DEFAULT
 62
     5
 10
49.99684953707889
 20
109.5284858760256
 30
0.0
 42
0.0609892367975034
  0
VERTEX
  5
420
  8
DEFAULT
 62
     5
 10
49.91698871442924
 20
110.6176062876047
 30
0.0
 42
0.1633931196984915
  0
VERTEX
  5
421
  8
DEFAULT
 62
     5
 10
49.66891808588
 20
110.9821895326336
 30
0.0
 42
0.1561218014296848
  0
VERTEX
  5
422
  8
DEFAULT
 62
     5
 10
49.21289901398646
 20
111.101788239196
 30
0.0
 42
0.1551837175468076
  0
VERTEX
  5
423
  8
DEFAULT
 62
     5
 10
48.58828508136915
 20
110.9112019254083
 30
0.0
 42
0.1670025847935157
  0
VERTEX
  5
424
  8
DEFAULT
 62
     5
 10
48.19090850283746
 20
110.3614336835773
 30
0.0
 42
0.0722698594962451
  0
VERTEX
  5
425
  8
DEFAULT
 62
     5
 10
48.07092361115298
 20
109.1696901331043
 30
0.0
  0
VERTEX
  5
426
  8
DEFAULT
 62
     5
 10
48.07092361115298
 20
106.3610474984552
 30
0.0
  0
VERTEX
  5
427
  8
DEFAULT
 62
     5
 10
46.54005941362212
 20
106.3610474984552
 30
0.0
  0
SEQEND
  5
428
  8
DEFAULT
 62
     5
  0
POLYLINE
  5
429
  8
DEFAULT
 62
     5
 66
     1
 10
0.0
 20
0.0
 30
0.0
 70
     1
  0
VERTEX
  5
42A
  8
DEFAULT
 62
     5
 10
41.10796064819002
 20
109.2499367641101
 30
0.0
 42
0.1807696907208352
  0
VERTEX
  5
42B
  8
DEFAULT
 62
     5
 10
41.50765207685832
 20
107.9119737305035
 30
0.0
 42
0.477703639763746
  0
VERTEX
  5
42C
  8
DEFAULT
 62
     5
 10
43.47640235354584
 20
107.9119737305035
 30
0.0
 42
0.1794408075869709
  0
VERTEX
  5
42D
  8
DEFAULT
 62
     5
 10
43.87339274695546
 20
109.260739398081
 30
0.0
 42
0.1800932450793722
  0
VERTEX
  5
42E
  8
DEFAULT
 62
     5
 10
43.47640235354584
 20
110.5878994209507
 30
0.0
 42
0.479372938484644
  0
VERTEX
  5
42F
  8
DEFAULT
 62
     5
 10
41.50765207685831
 20
110.5878994209507
 30
0.0
 42
0.1807697890868567
  0
SEQEND
  5
430
  8
DEFAULT
 62
     5
  0
POLYLINE
  5
431
  8
DEFAULT
 62
     5
 66
     1
 10
0.0
 20
0.0
 30
0.0
 70
     1
  0
VERTEX
  5
432
  8
DEFAULT
 62
     5
 10
39.57709645065916
 20
109.3317266285403
 30
0.0
 42
-0.122257429183274
  0
VERTEX
  5
433
  8
DEFAULT
 62
     5
 10
39.95016747952226
 20
110.8147517202121
 30
0.0
 42
-0.1509199207835933
  0
VERTEX
  5
434
  8
DEFAULT
 62
     5
 10
41.0072665510767
 20
111.9092730720108
 30
0.0
 42
-0.1287246067144055
  0
VERTEX
  5
435
  8
DEFAULT
 62
     5
 10
42.5346588501686
 20
112.2869734243811
 30
0.0
 42
-0.2109274079128298
  0
VERTEX
  5
436
  8
DEFAULT
 62
     5
 10
44.67046075415545
 20
111.430492060639
 30
0.0
 42
-0.2026212639801798
  0
VERTEX
  5
437
  8
DEFAULT
 62
     5
 10
45.50302237658509
 20
109.2661407150665
 30
0.0
 42
-0.2022295973323203
  0
VERTEX
  5
438
  8
DEFAULT
 62
     5
 10
44.66235915544323
 20
107.0801833480201
 30
0.0
 42
-0.2115506096600926
  0
VERTEX
  5
439
  8
DEFAULT
 62
     5
 10
42.54546073060757
 20
106.2128993503071
 30
0.0
 42
-0.1188796278362134
  0
VERTEX
  5
43A
  8
DEFAULT
 62
     5
 10
41.0396736994575
 20
106.5740106968969
 30
0.0
 42
-0.1582355798320286
  0
VERTEX
  5
43B
  8
DEFAULT
 62
     5
 10
39.95016747952225
 20
107.6330388102319
 30
0.0
 42
-0.1239053267140382
  0
SEQEND
  5
43C
  8
DEFAULT
 62
     5
  0
POLYLINE
  5
43D
  8
DEFAULT
 62
     5
 66
     1
 10
0.0
 20
0.0
 30
0.0
 70
     1
  0
VERTEX
  5
43E
  8
DEFAULT
 62
     5
 10
38.73759027781965
 20
110.459812930554
 30
0.0
  0
VERTEX
  5
43F
  8
DEFAULT
 62
     5
 10
37.20672608028877
 20
110.2128993503071
 30
0.0
 42
0.1809968098175628
  0
VERTEX
  5
440
  8
DEFAULT
 62
     5
 10
36.86490552827012
 20
110.8784089686714
 30
0.0
 42
0.1804760167669965
  0
VERTEX
  5
441
  8
DEFAULT
 62
     5
 10
36.17354712681278
 20
111.101788239196
 30
0.0
 42
0.2329674834671373
  0
VERTEX
  5
442
  8
DEFAULT
 62
     5
 10
35.27154113058233
 20
110.7005539538692
 30
0.0
 42
0.16951795551204
  0
VERTEX
  5
443
  8
DEFAULT
 62
     5
 10
34.93512114201719
 20
109.3579615967553
 30
0.0
 42
0.1610966817174984
  0
VERTEX
  5
444
  8
DEFAULT
 62
     5
 10
35.27964310606052
 20
107.8791803970006
 30
0.0
 42
0.2405540491094288
  0
VERTEX
  5
445
  8
DEFAULT
 62
     5
 10
36.20441179530111
 20
107.4474672515416
 30
0.0
 42
0.1883458441869648
  0
VERTEX
  5
446
  8
DEFAULT
 62
     5
 10
36.91467405267561
 20
107.6920663584179
 30
0.0
 42
0.1622604489947825
  0
VERTEX
  5
447
  8
DEFAULT
 62
     5
 10
37.30549151238755
 20
108.5338870046281
 30
0.0
  0
VERTEX
  5
448
  8
DEFAULT
 62
     5
 10
38.83635570991841
 20
108.3363561404305
 30
0.0
 42
-0.1724509721436042
  0
VERTEX
  5
449
  8
DEFAULT
 62
     5
 10
37.94206588081003
 20
106.7491650532064
 30
0.0
 42
-0.1746967243539187
  0
VERTEX
  5
44A
  8
DEFAULT
 62
     5
 10
36.16891818007149
 20
106.2128993503071
 30
0.0
 42
-0.2163976905724435
  0
VERTEX
  5
44B
  8
DEFAULT
 62
     5
 10
34.15502870248577
 20
107.017297716273
 30
0.0
 42
-0.1943870566321055
  0
VERTEX
  5
44C
  8
DEFAULT
 62
     5
 10
33.40425694448633
 20
109.2445354471246
 30
0.0
 42
-0.194505461597254
  0
VERTEX
  5
44D
  8
DEFAULT
 62
     5
 10
34.15464289412966
 20
111.4852760936739
 30
0.0
 42
-0.2157801631579887
  0
VERTEX
  5
44E
  8
DEFAULT
 62
     5
 10
36.1843497607837
 20
112.2869734243811
 30
0.0
 42
-0.1599423076957975
  0
VERTEX
  5
44F
  8
DEFAULT
 62
     5
 10
37.84947338240893
 20
111.8355848062928
 30
0.0
 42
-0.1682635697126314
  0
SEQEND
  5
450
  8
DEFAULT
 62
     5
  0
POLYLINE
  5
451
  8
DEFAULT
 62
     5
 66
     1
 10
0.0
 20
0.0
 30
0.0
 70
     1
  0
VERTEX
  5
452
  8
DEFAULT
 62
     5
 10
30.63882484572088
 20
106.3610474984552
 30
0.0
  0
VERTEX
  5
453
  8
DEFAULT
 62
     5
 10
30.63882484572088
 20
107.8919116959861
 30
0.0
  0
VERTEX
  5
454
  8
DEFAULT
 62
     5
 10
32.16968904325174
 20
107.8919116959861
 30
0.0
  0
VERTEX
  5
455
  8
DEFAULT
 62
     5
 10
32.16968904325174
 20
106.3610474984552
 30
0.0
  0
SEQEND
  5
456
  8
DEFAULT
 62
     5
  0
POLYLINE
  5
457
  8
DEFAULT
 62
     5
 66
     1
 10
0.0
 20
0.0
 30
0.0
 70
     1
  0
VERTEX
  5
458
  8
DEFAULT
 62
     5
 10
27.97215817905422
 20
109.7684549058626
 30
0.0
 42
0.1931771868552499
  0
VERTEX
  5
459
  8
DEFAULT
 62
     5
 10
27.62069241813294
 20
110.7618963521918
 30
0.0
 42
0.2094545272841259
  0
VERTEX
  5
45A
  8
DEFAULT
 62
     5
 10
26.80626341167424
 20
111.101788239196
 30
0.0
 42
0.2175151257022184
  0
VERTEX
  5
45B
  8
DEFAULT
 62
     5
 10
25.95826945500044
 20
110.7429924962747
 30
0.0
 42
0.197485040297648
  0
VERTEX
  5
45C
  8
DEFAULT
 62
     5
 10
25.62879439361113
 20
109.7684549058626
 30
0.0
  0
SEQEND
  5
45D
  8
DEFAULT
 62
     5
  0
POLYLINE
  5
45E
  8
DEFAULT
 62
     5
 66
     1
 10
0.0
 20
0.0
 30
0.0
 70
     1
  0
VERTEX
  5
45F
  8
DEFAULT
 62
     5
 10
27.87339274695545
 20
108.1882079922824
 30
0.0
  0
VERTEX
  5
460
  8
DEFAULT
 62
     5
 10
29.40425694448631
 20
107.9906771280849
 30
0.0
 42
-0.1601948643917459
  0
VERTEX
  5
461
  8
DEFAULT
 62
     5
 10
28.47370150667012
 20
106.6673748120102
 30
0.0
 42
-0.1590209405814549
  0
VERTEX
  5
462
  8
DEFAULT
 62
     5
 10
26.8818810959387
 20
106.2128993503071
 30
0.0
 42
-0.2510606897924144
  0
VERTEX
  5
463
  8
DEFAULT
 62
     5
 10
24.64422653947232
 20
107.2036401381436
 30
0.0
 42
-0.1603231689598292
  0
VERTEX
  5
464
  8
DEFAULT
 62
     5
 10
24.07092361115298
 20
109.2059553650462
 30
0.0
 42
-0.1928988919450636
  0
VERTEX
  5
465
  8
DEFAULT
 62
     5
 10
24.82671087778178
 20
111.4690725194835
 30
0.0
 42
-0.2186957110499458
  0
VERTEX
  5
466
  8
DEFAULT
 62
     5
 10
26.73759027781965
 20
112.2869734243811
 30
0.0
 42
-0.2248762650829848
  0
VERTEX
  5
467
  8
DEFAULT
 62
     5
 10
28.78543013721058
 20
111.4362791859806
 30
0.0
 42
-0.1866850592647445
  0
VERTEX
  5
468
  8
DEFAULT
 62
     5
 10
29.50302237658508
 20
108.8301833009244
 30
0.0
  0
VERTEX
  5
469
  8
DEFAULT
 62
     5
 10
25.60178780868383
 20
108.8301833009244
 30
0.0
 42
0.1907233177561095
  0
VERTEX
  5
46A
  8
DEFAULT
 62
     5
 10
25.97948891458616
 20
107.7750136479164
 30
0.0
 42
0.2135192120775285
  0
VERTEX
  5
46B
  8
DEFAULT
 62
     5
 10
26.87956624580207
 20
107.3980845354923
 30
0.0
 42
0.1657236937100695
  0
VERTEX
  5
46C
  8
DEFAULT
 62
     5
 10
27.49569239458508
 20
107.5851989508409
 30
0.0
 42
0.1589948514629234
  0
SEQEND
  5
46D
  8
DEFAULT
 62
     5
  0
POLYLINE
  5
46E
  8
DEFAULT
 62
     5
 66
     1
 10
0.0
 20
0.0
 30
0.0
 70
     1
  0
VERTEX
  5
46F
  8
DEFAULT
 62
     5
 10
23.33018287041223
 20
110.459812930554
 30
0.0
  0
VERTEX
  5
470
  8
DEFAULT
 62
     5
 10
21.79931867288137
 20
110.2128993503071
 30
0.0
 42
0.1809968098175528
  0
VERTEX
  5
471
  8
DEFAULT
 62
     5
 10
21.45749812086271
 20
110.8784089686714
 30
0.0
 42
0.1804760167670185
  0
VERTEX
  5
472
  8
DEFAULT
 62
     5
 10
20.76613971940537
 20
111.101788239196
 30
0.0
 42
0.2329674834671312
  0
VERTEX
  5
473
  8
DEFAULT
 62
     5
 10
19.86413372317492
 20
110.7005539538692
 30
0.0
 42
0.1695179555120459
  0
VERTEX
  5
474
  8
DEFAULT
 62
     5
 10
19.52771373460976
 20
109.3579615967554
 30
0.0
 42
0.1610966817175124
  0
VERTEX
  5
475
  8
DEFAULT
 62
     5
 10
19.8722356986531
 20
107.8791803970006
 30
0.0
 42
0.2405540491094243
  0
VERTEX
  5
476
  8
DEFAULT
 62
     5
 10
20.79700438789371
 20
107.4474672515416
 30
0.0
 42
0.1883458441869645
  0
VERTEX
  5
477
  8
DEFAULT
 62
     5
 10
21.50726664526818
 20
107.6920663584179
 30
0.0
 42
0.1622604489947961
  0
VERTEX
  5
478
  8
DEFAULT
 62
     5
 10
21.89808410498014
 20
108.5338870046281
 30
0.0
  0
VERTEX
  5
479
  8
DEFAULT
 62
     5
 10
23.42894830251099
 20
108.3363561404305
 30
0.0
 42
-0.1724509721436035
  0
VERTEX
  5
47A
  8
DEFAULT
 62
     5
 10
22.53465847340263
 20
106.7491650532064
 30
0.0
 42
-0.17469672435392
  0
VERTEX
  5
47B
  8
DEFAULT
 62
     5
 10
20.76151077266407
 20
106.2128993503071
 30
0.0
 42
-0.216397690572439
  0
VERTEX
  5
47C
  8
DEFAULT
 62
     5
 10
18.74762129507835
 20
107.017297716273
 30
0.0
 42
-0.1943870566321023
  0
VERTEX
  5
47D
  8
DEFAULT
 62
     5
 10
17.99684953707888
 20
109.2445354471246
 30
0.0
 42
-0.1945054615972534
  0
VERTEX
  5
47E
  8
DEFAULT
 62
     5
 10
18.74723548672225
 20
111.4852760936739
 30
0.0
 42
-0.2157801631579846
  0
VERTEX
  5
47F
  8
DEFAULT
 62
     5
 10
20.7769423533763
 20
112.2869734243812
 30
0.0
 42
-0.1599423076958009
  0
VERTEX
  5
480
  8
DEFAULT
 62
     5
 10
22.44206597500152
 20
111.8355848062928
 30
0.0
 42
-0.1682635697126368
  0
SEQEND
  5
481
  8
DEFAULT
 62
     5
  0
POLYLINE
  5
482
  8
DEFAULT
 62
     5
 66
     1
 10
0.0
 20
0.0
 30
0.0
 70
     1
  0
VERTEX
  5
483
  8
DEFAULT
 62
     5
 10
15.23141743831347
 20
109.1264795972207
 30
0.0
  0
VERTEX
  5
484
  8
DEFAULT
 62
     5
 10
14.34021407605393
 20
108.8926835010813
 30
0.0
 42
0.0811165779561213
  0
VERTEX
  5
485
  8
DEFAULT
 62
     5
 10
13.5431464456199
 20
108.6264802565611
 30
0.0
 42
0.2517191883486196
  0
VERTEX
  5
486
  8
DEFAULT
 62
     5
 10
13.25610879633819
 20
108.0879000802911
 30
0.0
 42
0.4298150945545282
  0
VERTEX
  5
487
  8
DEFAULT
 62
     5
 10
14.06938075449453
 20
107.2993191033935
 30
0.0
 42
0.1670482644845808
  0
VERTEX
  5
488
  8
DEFAULT
 62
     5
 10
14.82478221276723
 20
107.5709244184311
 30
0.0
 42
0.1651612454991144
  0
VERTEX
  5
489
  8
DEFAULT
 62
     5
 10
15.17431930867395
 20
108.0770974463202
 30
0.0
  0
VERTEX
  5
48A
  8
DEFAULT
 62
     5
 10
15.23141743831347
 20
108.821696270622
 30
0.0
  0
SEQEND
  5
48B
  8
DEFAULT
 62
     5
  0
POLYLINE
  5
48C
  8
DEFAULT
 62
     5
 66
     1
 10
0.0
 20
0.0
 30
0.0
 70
     1
  0
VERTEX
  5
48D
  8
DEFAULT
 62
     5
 10
13.30549151238755
 20
110.3610474984552
 30
0.0
  0
VERTEX
  5
48E
  8
DEFAULT
 62
     5
 10
11.92277546300484
 20
110.5585783626527
 30
0.0
 42
-0.1714833175990183
  0
VERTEX
  5
48F
  8
DEFAULT
 62
     5
 10
12.71251348820483
 20
111.8633626311663
 30
0.0
 42
-0.1608829132837527
  0
VERTEX
  5
490
  8
DEFAULT
 62
     5
 10
14.37725130147395
 20
112.2869734243811
 30
0.0
 42
-0.1088364278881018
  0
VERTEX
  5
491
  8
DEFAULT
 62
     5
 10
15.8710782735848
 20
112.0443037360514
 30
0.0
 42
-0.1580303644335201
  0
VERTEX
  5
492
  8
DEFAULT
 62
     5
 10
16.56205048992006
 20
111.4277914021463
 30
0.0
 42
-0.1088017057953413
  0
VERTEX
  5
493
  8
DEFAULT
 62
     5
 10
16.76228163584433
 20
110.0554925551444
 30
0.0
  0
VERTEX
  5
494
  8
DEFAULT
 62
     5
 10
16.76228163584432
 20
108.2653689099713
 30
0.0
 42
0.0514080219695321
  0
VERTEX
  5
495
  8
DEFAULT
 62
     5
 10
16.84561511046491
 20
107.1384396562599
 30
0.0
 42
0.0692287864232356
  0
VERTEX
  5
496
  8
DEFAULT
 62
     5
 10
17.1573433642394
 20
106.3610474984552
 30
0.0
  0
VERTEX
  5
497
  8
DEFAULT
 62
     5
 10
15.62647916670853
 20
106.3610474984552
 30
0.0
  0
VERTEX
  5
498
  8
DEFAULT
 62
     5
 10
15.4798742519848
 20
106.8085784097485
 30
0.0
  0
VERTEX
  5
499
  8
DEFAULT
 62
     5
 10
15.42586258919411
 20
106.9868196096728
 30
0.0
 42
-0.0933244186737955
  0
VERTEX
  5
49A
  8
DEFAULT
 62
     5
 10
14.59021374638371
 20
106.4065725077095
 30
0.0
 42
-0.1040133466926036
  0
VERTEX
  5
49B
  8
DEFAULT
 62
     5
 10
13.64036864429426
 20
106.2128993503071
 30
0.0
 42
-0.1965430357596507
  0
VERTEX
  5
49C
  8
DEFAULT
 62
     5
 10
12.23797636875023
 20
106.6970816786643
 30
0.0
 42
-0.215436948765101
  0
VERTEX
  5
49D
  8
DEFAULT
 62
     5
 10
11.7252445988073
 20
107.92123313105
 30
0.0
 42
-0.1373780248024359
  0
VERTEX
  5
49E
  8
DEFAULT
 62
     5
 10
11.9536397547272
 20
108.7946896856947
 30
0.0
 42
-0.1473783213971118
  0
VERTEX
  5
49F
  8
DEFAULT
 62
     5
 10
12.59368639835462
 20
109.382266769658
 30
0.0
 42
-0.0634404934847127
  0
VERTEX
  5
4A0
  8
DEFAULT
 62
     5
 10
13.78080062532032
 20
109.7383626076185
 30
0.0
 42
0.0472009877729056
  0
VERTEX
  5
4A1
  8
DEFAULT
 62
     5
 10
15.23141743831347
 20
110.1141339182083
 30
0.0
  0
VERTEX
  5
4A2
  8
DEFAULT
 62
     5
 10
15.23141743831347
 20
110.2692266167663
 30
0.0
 42
0.2070921599656255
  0
VERTEX
  5
4A3
  8
DEFAULT
 62
     5
 10
15.02655659211594
 20
110.9104303086961
 30
0.0
 42
0.1777887432708008
  0
VERTEX
  5
4A4
  8
DEFAULT
 62
     5
 10
14.25302251787231
 20
111.101788239196
 30
0.0
 42
0.1651091138038887
  0
VERTEX
  5
4A5
  8
DEFAULT
 62
     5
 10
13.65387155999193
 20
110.9374365168574
 30
0.0
 42
0.1491587679877678
  0
SEQEND
  5
4A6
  8
DEFAULT
 62
     5
  0
POLYLINE
  5
4A7
  8
DEFAULT
 62
     5
 66
     1
 10
0.0
 20
0.0
 30
0.0
 70
     1
  0
VERTEX
  5
4A8
  8
DEFAULT
 62
     5
 10
6.935121142017181
 20
109.3471589627844
 30
0.0
 42
0.1662127852120552
  0
VERTEX
  5
4A9
  8
DEFAULT
 62
     5
 10
7.313979296221834
 20
107.8741648883713
 30
0.0
 42
0.2404461653497553
  0
VERTEX
  5
4AA
  8
DEFAULT
 62
     5
 10
8.23681894368191
 20
107.3980845354923
 30
0.0
 42
0.2413239634427104
  0
VERTEX
  5
4AB
  8
DEFAULT
 62
     5
 10
9.10680359988767
 20
107.8351989979367
 30
0.0
 42
0.1627449374921811
  0
VERTEX
  5
4AC
  8
DEFAULT
 62
     5
 10
9.453639660535691
 20
109.2692271819153
 30
0.0
 42
0.1661976731382164
  0
VERTEX
  5
4AD
  8
DEFAULT
 62
     5
 10
9.096000965916748
 20
110.6507854294637
 30
0.0
 42
0.2412377667960564
  0
VERTEX
  5
4AE
  8
DEFAULT
 62
     5
 10
8.210584728998782
 20
111.101788239196
 30
0.0
 42
0.2367422129321694
  0
VERTEX
  5
4AF
  8
DEFAULT
 62
     5
 10
7.29777572203144
 20
110.6588870281759
 30
0.0
 42
0.1723447809989008
  0
SEQEND
  5
4B0
  8
DEFAULT
 62
     5
  0
POLYLINE
  5
4B1
  8
DEFAULT
 62
     5
 66
     1
 10
0.0
 20
0.0
 30
0.0
 70
     1
  0
VERTEX
  5
4B2
  8
DEFAULT
 62
     5
 10
5.404256944486306
 20
112.138825276233
 30
0.0
  0
VERTEX
  5
4B3
  8
DEFAULT
 62
     5
 10
6.836355709918408
 20
112.138825276233
 30
0.0
  0
VERTEX
  5
4B4
  8
DEFAULT
 62
     5
 10
6.836355709918413
 20
111.2962333900766
 30
0.0
 42
-0.1189653659007486
  0
VERTEX
  5
4B5
  8
DEFAULT
 62
     5
 10
7.575939402356809
 20
112.0076526957534
 30
0.0
 42
-0.1382105598910136
  0
VERTEX
  5
4B6
  8
DEFAULT
 62
     5
 10
8.610276157667087
 20
112.2869734243811
 30
0.0
 42
-0.2273648758850273
  0
VERTEX
  5
4B7
  8
DEFAULT
 62
     5
 10
10.29314583337522
 20
111.4933780691521
 30
0.0
 42
-0.1838682188936053
  0
VERTEX
  5
4B8
  8
DEFAULT
 62
     5
 10
10.98450385806657
 20
109.2831155292031
 30
0.0
 42
-0.1823656645300173
  0
VERTEX
  5
4B9
  8
DEFAULT
 62
     5
 10
10.28735908479962
 20
107.0199983747658
 30
0.0
 42
-0.2285594541574802
  0
VERTEX
  5
4BA
  8
DEFAULT
 62
     5
 10
8.597930290271762
 20
106.2128993503071
 30
0.0
 42
-0.1163198006807668
  0
VERTEX
  5
4BB
  8
DEFAULT
 62
     5
 10
7.742220166475873
 20
106.4019428074363
 30
0.0
 42
-0.090415238077755
  0
VERTEX
  5
4BC
  8
DEFAULT
 62
     5
 10
6.93512114201718
 20
107.0500914265419
 30
0.0
  0
VERTEX
  5
4BD
  8
DEFAULT
 62
     5
 10
6.935121142017181
 20
104.138825276233
 30
0.0
  0
VERTEX
  5
4BE
  8
DEFAULT
 62
     5
 10
5.404256944486306
 20
104.138825276233
 30
0.0
  0
SEQEND
  5
4BF
  8
DEFAULT
 62
     5
  0
POLYLINE
  5
4C0
  8
DEFAULT
 62
     5
 66
     1
 10
0.0
 20
0.0
 30
0.0
 70
     1
  0
VERTEX
  5
4C1
  8
DEFAULT
 62
     5
 10
-1.31179243822973
 20
107.9906771280849
 30
0.0
  0
VERTEX
  5
4C2
  8
DEFAULT
 62
     5
 10
0.2190717593011244
 20
108.1882079922824
 30
0.0
 42
0.1817134537413229
  0
VERTEX
  5
4C3
  8
DEFAULT
 62
     5
 10
0.6152912895304719
 20
107.5253994091768
 30
0.0
 42
0.1637490318832783
  0
VERTEX
  5
4C4
  8
DEFAULT
 62
     5
 10
1.449782330506594
 20
107.2993191033935
 30
0.0
 42
0.1581548590316356
  0
VERTEX
  5
4C5
  8
DEFAULT
 62
     5
 10
2.339442836107696
 20
107.5207700856695
 30
0.0
 42
0.2454173628753137
  0
VERTEX
  5
4C6
  8
DEFAULT
 62
     5
 10
2.540059413622109
 20
107.935893848582
 30
0.0
 42
0.196713340865985
  0
VERTEX
  5
4C7
  8
DEFAULT
 62
     5
 10
2.431263717796583
 20
108.2291036780294
 30
0.0
 42
0.1152480441762821
  0
VERTEX
  5
4C8
  8
DEFAULT
 62
     5
 10
1.918917756209765
 20
108.4335790926368
 30
0.0
 42
-0.0750101977649356
  0
VERTEX
  5
4C9
  8
DEFAULT
 62
     5
 10
-0.428304112794358
 20
109.1889797973776
 30
0.0
 42
-0.2630575377237235
  0
VERTEX
  5
4CA
  8
DEFAULT
 62
     5
 10
-1.114261574032206
 20
110.4991653828766
 30
0.0
 42
-0.2278055359034104
  0
VERTEX
  5
4CB
  8
DEFAULT
 62
     5
 10
-0.5212831730835099
 20
111.7715413727115
 30
0.0
 42
-0.1789409577799063
  0
VERTEX
  5
4CC
  8
DEFAULT
 62
     5
 10
1.317065763070673
 20
112.2869734243811
 30
0.0
 42
-0.1478680227512783
  0
VERTEX
  5
4CD
  8
DEFAULT
 62
     5
 10
3.079411583370262
 20
111.8876681808349
 30
0.0
 42
-0.1798681362132056
  0
VERTEX
  5
4CE
  8
DEFAULT
 62
     5
 10
3.873392746955439
 20
110.7067265108009
 30
0.0
  0
VERTEX
  5
4CF
  8
DEFAULT
 62
     5
 10
2.441293981523341
 20
110.459812930554
 30
0.0
 42
0.1762609448244138
  0
VERTEX
  5
4D0
  8
DEFAULT
 62
     5
 10
2.090985645670385
 20
111.009581549151
 30
0.0
 42
0.1598214678236327
  0
VERTEX
  5
4D1
  8
DEFAULT
 62
     5
 10
1.354874228436927
 20
111.2005536712947
 30
0.0
 42
0.1371855487857732
  0
VERTEX
  5
4D2
  8
DEFAULT
 62
     5
 10
0.4914486910509189
 20
111.0292577753123
 30
0.0
 42
0.5297885667390052
  0
VERTEX
  5
4D3
  8
DEFAULT
 62
     5
 10
0.4698434231090738
 20
110.4312638657342
 30
0.0
 42
0.0664798749578586
  0
VERTEX
  5
4D4
  8
DEFAULT
 62
     5
 10
1.893454781472869
 20
109.9941497800558
 30
0.0
 42
-0.1095214193377384
  0
VERTEX
  5
4D5
  8
DEFAULT
 62
     5
 10
3.593300401615524
 20
109.3070356472816
 30
0.0
 42
-0.2284114958797621
  0
VERTEX
  5
4D6
  8
DEFAULT
 62
     5
 10
4.070923611152981
 20
108.1627453943115
 30
0.0
 42
-0.227622981065072
  0
VERTEX
  5
4D7
  8
DEFAULT
 62
     5
 10
3.408886644759558
 20
106.7877451352849
 30
0.0
 42
-0.1809722242825428
  0
VERTEX
  5
4D8
  8
DEFAULT
 62
     5
 10
1.449782330506593
 20
106.2128993503071
 30
0.0
 42
-0.1534212868271982
  0
VERTEX
  5
4D9
  8
DEFAULT
 62
     5
 10
-0.4140299571504534
 20
106.6912945533227
 30
0.0
 42
-0.1853542620166126
  0
SEQEND
  5
4DA
  8
DEFAULT
 62
     5
  0
POLYLINE
  5
4DB
  8
DEFAULT
 62
     5
 66
     1
 10
0.0
 20
0.0
 30
0.0
 70
     1
  0
VERTEX
  5
4DC
  8
DEFAULT
 62
     5
 10
-2.299446759217389
 20
106.3610474984552
 30
0.0
  0
VERTEX
  5
4DD
  8
DEFAULT
 62
     5
 10
-3.830310956748249
 20
106.3610474984552
 30
0.0
  0
VERTEX
  5
4DE
  8
DEFAULT
 62
     5
 10
-3.830310956748258
 20
109.3108937308426
 30
0.0
 42
0.0659043403442048
  0
VERTEX
  5
4DF
  8
DEFAULT
 62
     5
 10
-3.926761538710393
 20
110.5223135074769
 30
0.0
 42
0.160013069576552
  0
VERTEX
  5
4E0
  8
DEFAULT
 62
     5
 10
-4.240033025909296
 20
110.9493965758967
 30
0.0
 42
0.157514917629797
  0
VERTEX
  5
4E1
  8
DEFAULT
 62
     5
 10
-4.761638011276659
 20
111.101788239196
 30
0.0
 42
0.1576987046345026
  0
VERTEX
  5
4E2
  8
DEFAULT
 62
     5
 10
-5.462640868104645
 20
110.884195717247
 30
0.0
 42
0.1684371822617521
  0
VERTEX
  5
4E3
  8
DEFAULT
 62
     5
 10
-5.888181079865968
 20
110.3074212672547
 30
0.0
 42
0.0659809918576688
  0
VERTEX
  5
4E4
  8
DEFAULT
 62
     5
 10
-6.003150462921098
 20
108.9791030657847
 30
0.0
  0
VERTEX
  5
4E5
  8
DEFAULT
 62
     5
 10
-6.003150462921099
 20
106.3610474984552
 30
0.0
  0
VERTEX
  5
4E6
  8
DEFAULT
 62
     5
 10
-7.534014660451959
 20
106.3610474984552
 30
0.0
  0
VERTEX
  5
4E7
  8
DEFAULT
 62
     5
 10
-7.534014660451959
 20
112.138825276233
 30
0.0
  0
VERTEX
  5
4E8
  8
DEFAULT
 62
     5
 10
-6.101915895019857
 20
112.138825276233
 30
0.0
  0
VERTEX
  5
4E9
  8
DEFAULT
 62
     5
 10
-6.101915895019857
 20
111.2962333900766
 30
0.0
 42
-0.2486296121988479
  0
VERTEX
  5
4EA
  8
DEFAULT
 62
     5
 10
-4.219199751445657
 20
112.2869734243811
 30
0.0
 42
-0.1053164015607878
  0
VERTEX
  5
4EB
  8
DEFAULT
 62
     5
 10
-3.305233696175961
 20
112.1041032777156
 30
0.0
 42
-0.1292191717088909
  0
VERTEX
  5
4EC
  8
DEFAULT
 62
     5
 10
-2.678690345012184
 20
111.6376681337392
 30
0.0
 42
-0.10549323742622
  0
VERTEX
  5
4ED
  8
DEFAULT
 62
     5
 10
-2.382779857072004
 20
110.9937637833167
 30
0.0
 42
-0.0533641385177169
  0
VERTEX
  5
4EE
  8
DEFAULT
 62
     5
 10
-2.29944675921739
 20
109.9621284400311
 30
0.0
  0
SEQEND
  5
4EF
  8
DEFAULT
 62
     5
  0
POLYLINE
  5
4F0
  8
DEFAULT
 62
     5
 66
     1
 10
0.0
 20
0.0
 30
0.0
 70
     1
  0
VERTEX
  5
4F1
  8
DEFAULT
 62
     5
 10
-10.64512577156307
 20
109.1264795972207
 30
0.0
  0
VERTEX
  5
4F2
  8
DEFAULT
 62
     5
 10
-11.53632913382261
 20
108.8926835010813
 30
0.0
 42
0.0811165779561193
  0
VERTEX
  5
4F3
  8
DEFAULT
 62
     5
 10
-12.33339676425663
 20
108.6264802565611
 30
0.0
 42
0.2517191883486191
  0
VERTEX
  5
4F4
  8
DEFAULT
 62
     5
 10
-12.62043441353837
 20
108.0879000802911
 30
0.0
 42
0.4298150945545057
  0
VERTEX
  5
4F5
  8
DEFAULT
 62
     5
 10
-11.80716245538201
 20
107.2993191033935
 30
0.0
 42
0.1670482644845642
  0
VERTEX
  5
4F6
  8
DEFAULT
 62
     5
 10
-11.05176099710931
 20
107.5709244184311
 30
0.0
 42
0.1651612454991233
  0
VERTEX
  5
4F7
  8
DEFAULT
 62
     5
 10
-10.70222390120259
 20
108.0770974463202
 30
0.0
  0
VERTEX
  5
4F8
  8
DEFAULT
 62
     5
 10
-10.64512577156307
 20
108.821696270622
 30
0.0
  0
SEQEND
  5
4F9
  8
DEFAULT
 62
     5
  0
POLYLINE
  5
4FA
  8
DEFAULT
 62
     5
 66
     1
 10
0.0
 20
0.0
 30
0.0
 70
     1
  0
VERTEX
  5
4FB
  8
DEFAULT
 62
     5
 10
-12.571051697489
 20
110.3610474984552
 30
0.0
  0
VERTEX
  5
4FC
  8
DEFAULT
 62
     5
 10
-13.9537677468717
 20
110.5585783626527
 30
0.0
 42
-0.1714833175990197
  0
VERTEX
  5
4FD
  8
DEFAULT
 62
     5
 10
-13.16402972167173
 20
111.8633626311663
 30
0.0
 42
-0.1608829132837557
  0
VERTEX
  5
4FE
  8
DEFAULT
 62
     5
 10
-11.49929190840258
 20
112.2869734243811
 30
0.0
 42
-0.1088364278881017
  0
VERTEX
  5
4FF
  8
DEFAULT
 62
     5
 10
-10.00546493629175
 20
112.0443037360514
 30
0.0
 42
-0.1580303644335307
  0
VERTEX
  5
500
  8
DEFAULT
 62
     5
 10
-9.314492719956487
 20
111.4277914021463
 30
0.0
 42
-0.1088017057953317
  0
VERTEX
  5
501
  8
DEFAULT
 62
     5
 10
-9.114261574032215
 20
110.0554925551444
 30
0.0
  0
VERTEX
  5
502
  8
DEFAULT
 62
     5
 10
-9.114261574032211
 20
108.2653689099713
 30
0.0
 42
0.051408021969532
  0
VERTEX
  5
503
  8
DEFAULT
 62
     5
 10
-9.030928099411637
 20
107.1384396562599
 30
0.0
 42
0.0692287864232356
  0
VERTEX
  5
504
  8
DEFAULT
 62
     5
 10
-8.719199845637148
 20
106.3610474984552
 30
0.0
  0
VERTEX
  5
505
  8
DEFAULT
 62
     5
 10
-10.25006404316801
 20
106.3610474984552
 30
0.0
  0
VERTEX
  5
506
  8
DEFAULT
 62
     5
 10
-10.39666895789173
 20
106.8085784097485
 30
0.0
  0
VERTEX
  5
507
  8
DEFAULT
 62
     5
 10
-10.45068062068244
 20
106.9868196096728
 30
0.0
 42
-0.093324418673793
  0
VERTEX
  5
508
  8
DEFAULT
 62
     5
 10
-11.28632946349284
 20
106.4065725077095
 30
0.0
 42
-0.1040133466926048
  0
VERTEX
  5
509
  8
DEFAULT
 62
     5
 10
-12.23617456558229
 20
106.2128993503071
 30
0.0
 42
-0.1965430357596485
  0
VERTEX
  5
50A
  8
DEFAULT
 62
     5
 10
-13.63856684112632
 20
106.6970816786643
 30
0.0
 42
-0.2154369487651044
  0
VERTEX
  5
50B
  8
DEFAULT
 62
     5
 10
-14.15129861106924
 20
107.92123313105
 30
0.0
 42
-0.1373780248024274
  0
VERTEX
  5
50C
  8
DEFAULT
 62
     5
 10
-13.92290345514935
 20
108.7946896856947
 30
0.0
 42
-0.1473783213971106
  0
VERTEX
  5
50D
  8
DEFAULT
 62
     5
 10
-13.28285681152192
 20
109.3822667696579
 30
0.0
 42
-0.063440493484713
  0
VERTEX
  5
50E
  8
DEFAULT
 62
     5
 10
-12.09574258455622
 20
109.7383626076185
 30
0.0
 42
0.0472009877729105
  0
VERTEX
  5
50F
  8
DEFAULT
 62
     5
 10
-10.64512577156307
 20
110.1141339182083
 30
0.0
  0
VERTEX
  5
510
  8
DEFAULT
 62
     5
 10
-10.64512577156308
 20
110.2692266167663
 30
0.0
 42
0.2070921599656432
  0
VERTEX
  5
511
  8
DEFAULT
 62
     5
 10
-10.84998661776061
 20
110.9104303086961
 30
0.0
 42
0.1777887432708115
  0
VERTEX
  5
512
  8
DEFAULT
 62
     5
 10
-11.62352069200422
 20
111.101788239196
 30
0.0
 42
0.165109113803886
  0
VERTEX
  5
513
  8
DEFAULT
 62
     5
 10
-12.22267164988461
 20
110.9374365168574
 30
0.0
 42
0.1491587679877669
  0
SEQEND
  5
514
  8
DEFAULT
 62
     5
  0
POLYLINE
  5
515
  8
DEFAULT
 62
     5
 66
     1
 10
0.0
 20
0.0
 30
0.0
 70
     1
  0
VERTEX
  5
516
  8
DEFAULT
 62
     5
 10
-23.6821628086001
 20
112.138825276233
 30
0.0
  0
VERTEX
  5
517
  8
DEFAULT
 62
     5
 10
-22.29944675921739
 20
112.138825276233
 30
0.0
  0
VERTEX
  5
518
  8
DEFAULT
 62
     5
 10
-22.29944675921739
 20
111.3556463698527
 30
0.0
 42
-0.2373869490350243
  0
VERTEX
  5
519
  8
DEFAULT
 62
     5
 10
-20.50237856363441
 20
112.2869734243811
 30
0.0
 42
-0.1315120310734729
  0
VERTEX
  5
51A
  8
DEFAULT
 62
     5
 10
-19.54211625916417
 20
112.0554921783784
 30
0.0
 42
-0.1393853272245129
  0
VERTEX
  5
51B
  8
DEFAULT
 62
     5
 10
-18.87429216742919
 20
111.3556463698527
 30
0.0
 42
-0.1018343532165889
  0
VERTEX
  5
51C
  8
DEFAULT
 62
     5
 10
-18.05716250247775
 20
112.0554921783784
 30
0.0
 42
-0.1239296679571239
  0
VERTEX
  5
51D
  8
DEFAULT
 62
     5
 10
-17.12120537091013
 20
112.2869734243811
 30
0.0
 42
-0.1355305589142101
  0
VERTEX
  5
51E
  8
DEFAULT
 62
     5
 10
-16.04944633535567
 20
112.0277143535049
 30
0.0
 42
-0.1623661969580674
  0
VERTEX
  5
51F
  8
DEFAULT
 62
     5
 10
-15.39435354260615
 20
111.2669119550127
 30
0.0
 42
-0.0915442810314417
  0
VERTEX
  5
520
  8
DEFAULT
 62
     5
 10
-15.23771836415566
 20
110.0662944355833
 30
0.0
  0
VERTEX
  5
521
  8
DEFAULT
 62
     5
 10
-15.23771836415567
 20
106.3610474984552
 30
0.0
  0
VERTEX
  5
522
  8
DEFAULT
 62
     5
 10
-16.76858256168653
 20
106.3610474984552
 30
0.0
  0
VERTEX
  5
523
  8
DEFAULT
 62
     5
 10
-16.76858256168653
 20
109.6650605270226
 30
0.0
 42
0.114147013791062
  0
VERTEX
  5
524
  8
DEFAULT
 62
     5
 10
-16.92444612342481
 20
110.7753996446555
 30
0.0
 42
0.2721000606533798
  0
VERTEX
  5
525
  8
DEFAULT
 62
     5
 10
-17.57027951562783
 20
111.101788239196
 30
0.0
 42
0.1575639071466514
  0
VERTEX
  5
526
  8
DEFAULT
 62
     5
 10
-18.16711637690354
 20
110.9058006084229
 30
0.0
 42
0.1657627374474031
  0
VERTEX
  5
527
  8
DEFAULT
 62
     5
 10
-18.5706658891329
 20
110.3317268169233
 30
0.0
 42
0.0723437487254923
  0
VERTEX
  5
528
  8
DEFAULT
 62
     5
 10
-18.69450848761245
 20
109.1372822311916
 30
0.0
  0
VERTEX
  5
529
  8
DEFAULT
 62
     5
 10
-18.69450848761245
 20
106.3610474984552
 30
0.0
  0
VERTEX
  5
52A
  8
DEFAULT
 62
     5
 10
-20.22537268514331
 20
106.3610474984552
 30
0.0
  0
VERTEX
  5
52B
  8
DEFAULT
 62
     5
 10
-20.22537268514331
 20
109.5284858760256
 30
0.0
 42
0.0609892367975023
  0
VERTEX
  5
52C
  8
DEFAULT
 62
     5
 10
-20.30523350779297
 20
110.6176062876047
 30
0.0
 42
0.1633931196984836
  0
VERTEX
  5
52D
  8
DEFAULT
 62
     5
 10
-20.55330413634223
 20
110.9821895326335
 30
0.0
 42
0.1561218014296998
  0
VERTEX
  5
52E
  8
DEFAULT
 62
     5
 10
-21.00932320823577
 20
111.101788239196
 30
0.0
 42
0.1551837175468076
  0
VERTEX
  5
52F
  8
DEFAULT
 62
     5
 10
-21.63393714085307
 20
110.9112019254083
 30
0.0
 42
0.167002584793556
  0
VERTEX
  5
530
  8
DEFAULT
 62
     5
 10
-22.03131371938475
 20
110.3614336835773
 30
0.0
 42
0.0722698594962421
  0
VERTEX
  5
531
  8
DEFAULT
 62
     5
 10
-22.15129861106925
 20
109.1696901331043
 30
0.0
  0
VERTEX
  5
532
  8
DEFAULT
 62
     5
 10
-22.15129861106924
 20
106.3610474984552
 30
0.0
  0
VERTEX
  5
533
  8
DEFAULT
 62
     5
 10
-23.6821628086001
 20
106.3610474984552
 30
0.0
  0
SEQEND
  5
534
  8
DEFAULT
 62
     5
  0
POLYLINE
  5
535
  8
DEFAULT
 62
     5
 66
     1
 10
0.0
 20
0.0
 30
0.0
 70
     1
  0
VERTEX
  5
536
  8
DEFAULT
 62
     5
 10
-30.25006404316801
 20
107.9906771280849
 30
0.0
  0
VERTEX
  5
537
  8
DEFAULT
 62
     5
 10
-28.71919984563715
 20
108.1882079922824
 30
0.0
 42
0.1817134537413085
  0
VERTEX
  5
538
  8
DEFAULT
 62
     5
 10
-28.3229803154078
 20
107.5253994091768
 30
0.0
 42
0.1637490318832743
  0
VERTEX
  5
539
  8
DEFAULT
 62
     5
 10
-27.48848927443167
 20
107.2993191033935
 30
0.0
 42
0.1581548590316428
  0
VERTEX
  5
53A
  8
DEFAULT
 62
     5
 10
-26.59882876883057
 20
107.5207700856695
 30
0.0
 42
0.2454173628753002
  0
VERTEX
  5
53B
  8
DEFAULT
 62
     5
 10
-26.39821219131616
 20
107.935893848582
 30
0.0
 42
0.1967133408659809
  0
VERTEX
  5
53C
  8
DEFAULT
 62
     5
 10
-26.50700788714169
 20
108.2291036780294
 30
0.0
 42
0.1152480441762863
  0
VERTEX
  5
53D
  8
DEFAULT
 62
     5
 10
-27.01935384872851
 20
108.4335790926368
 30
0.0
 42
-0.0750101977649353
  0
VERTEX
  5
53E
  8
DEFAULT
 62
     5
 10
-29.36657571773263
 20
109.1889797973776
 30
0.0
 42
-0.2630575377237279
  0
VERTEX
  5
53F
  8
DEFAULT
 62
     5
 10
-30.05253317897047
 20
110.4991653828766
 30
0.0
 42
-0.2278055359033996
  0
VERTEX
  5
540
  8
DEFAULT
 62
     5
 10
-29.45955477802178
 20
111.7715413727115
 30
0.0
 42
-0.1789409577799045
  0
VERTEX
  5
541
  8
DEFAULT
 62
     5
 10
-27.6212058418676
 20
112.2869734243812
 30
0.0
 42
-0.1478680227512746
  0
VERTEX
  5
542
  8
DEFAULT
 62
     5
 10
-25.85886002156801
 20
111.8876681808349
 30
0.0
 42
-0.1798681362132161
  0
VERTEX
  5
543
  8
DEFAULT
 62
     5
 10
-25.06487885798283
 20
110.7067265108009
 30
0.0
  0
VERTEX
  5
544
  8
DEFAULT
 62
     5
 10
-26.49697762341491
 20
110.459812930554
 30
0.0
 42
0.17626094482439
  0
VERTEX
  5
545
  8
DEFAULT
 62
     5
 10
-26.84728595926788
 20
111.009581549151
 30
0.0
 42
0.1598214678236338
  0
VERTEX
  5
546
  8
DEFAULT
 62
     5
 10
-27.58339737650134
 20
111.2005536712947
 30
0.0
 42
0.1371855487857654
  0
VERTEX
  5
547
  8
DEFAULT
 62
     5
 10
-28.44682291388736
 20
111.0292577753123
 30
0.0
 42
0.5297885667389534
  0
VERTEX
  5
548
  8
DEFAULT
 62
     5
 10
-28.46842818182919
 20
110.4312638657343
 30
0.0
 42
0.0664798749578775
  0
VERTEX
  5
549
  8
DEFAULT
 62
     5
 10
-27.04481682346541
 20
109.9941497800558
 30
0.0
 42
-0.1095214193377372
  0
VERTEX
  5
54A
  8
DEFAULT
 62
     5
 10
-25.34497120332273
 20
109.3070356472816
 30
0.0
 42
-0.2284114958797599
  0
VERTEX
  5
54B
  8
DEFAULT
 62
     5
 10
-24.86734799378529
 20
108.1627453943115
 30
0.0
 42
-0.2276229810650794
  0
VERTEX
  5
54C
  8
DEFAULT
 62
     5
 10
-25.52938496017871
 20
106.7877451352849
 30
0.0
 42
-0.1809722242825435
  0
VERTEX
  5
54D
  8
DEFAULT
 62
     5
 10
-27.48848927443167
 20
106.2128993503071
 30
0.0
 42
-0.1534212868271944
  0
VERTEX
  5
54E
  8
DEFAULT
 62
     5
 10
-29.35230156208873
 20
106.6912945533227
 30
0.0
 42
-0.1853542620165995
  0
SEQEND
  5
54F
  8
DEFAULT
 62
     5
  0
POLYLINE
  5
550
  8
DEFAULT
 62
     5
 66
     1
 10
0.0
 20
0.0
 30
0.0
 70
     1
  0
VERTEX
  5
551
  8
DEFAULT
 62
     5
 10
-30.74389120366183
 20
112.138825276233
 30
0.0
  0
VERTEX
  5
552
  8
DEFAULT
 62
     5
 10
-30.74389120366183
 20
110.9536400910478
 30
0.0
  0
VERTEX
  5
553
  8
DEFAULT
 62
     5
 10
-31.78092824069887
 20
110.9536400910478
 30
0.0
  0
VERTEX
  5
554
  8
DEFAULT
 62
     5
 10
-31.78092824069887
 20
108.5678381399652
 30
0.0
  0
VERTEX
  5
555
  8
DEFAULT
 62
     5
 10
-31.75160718240093
 20
107.7233160817304
 30
0.0
  0
VERTEX
  5
556
  8
DEFAULT
 62
     5
 10
-31.61927680008708
 20
107.5253994091768
 30
0.0
  0
VERTEX
  5
557
  8
DEFAULT
 62
     5
 10
-31.36734771121081
 20
107.4474672515416
 30
0.0
  0
VERTEX
  5
558
  8
DEFAULT
 62
     5
 10
-30.76858218492055
 20
107.5933013030851
 30
0.0
  0
VERTEX
  5
559
  8
DEFAULT
 62
     5
 10
-30.64512577156307
 20
106.4351219492953
 30
0.0
 42
-0.1009135694950963
  0
VERTEX
  5
55A
  8
DEFAULT
 62
     5
 10
-31.83648313691398
 20
106.2128993503071
 30
0.0
 42
-0.102311250579436
  0
VERTEX
  5
55B
  8
DEFAULT
 62
     5
 10
-32.57143712907913
 20
106.3533317080991
 30
0.0
 42
-0.1427327602513738
  0
VERTEX
  5
55C
  8
DEFAULT
 62
     5
 10
-33.05176137387527
 20
106.7163720964695
 30
0.0
 42
-0.1112474266807982
  0
VERTEX
  5
55D
  8
DEFAULT
 62
     5
 10
-33.26318058536062
 20
107.3186095211987
 30
0.0
  0
VERTEX
  5
55E
  8
DEFAULT
 62
     5
 10
-33.31179243822974
 20
108.4073441244217
 30
0.0
  0
VERTEX
  5
55F
  8
DEFAULT
 62
     5
 10
-33.31179243822974
 20
110.9536400910478
 30
0.0
  0
VERTEX
  5
560
  8
DEFAULT
 62
     5
 10
-34.05253317897048
 20
110.9536400910478
 30
0.0
  0
VERTEX
  5
561
  8
DEFAULT
 62
     5
 10
-34.05253317897048
 20
112.138825276233
 30
0.0
  0
VERTEX
  5
562
  8
DEFAULT
 62
     5
 10
-33.31179243822974
 20
112.138825276233
 30
0.0
  0
VERTEX
  5
563
  8
DEFAULT
 62
     5
 10
-33.31179243822974
 20
113.2252450293194
 30
0.0
  0
VERTEX
  5
564
  8
DEFAULT
 62
     5
 10
-31.78092824069887
 20
114.1141339182083
 30
0.0
  0
VERTEX
  5
565
  8
DEFAULT
 62
     5
 10
-31.78092824069887
 20
112.138825276233
 30
0.0
  0
SEQEND
  5
566
  8
DEFAULT
 62
     5
  0
POLYLINE
  5
567
  8
DEFAULT
 62
     5
 66
     1
 10
0.0
 20
0.0
 30
0.0
 70
     1
  0
VERTEX
  5
568
  8
DEFAULT
 62
     5
 10
-37.70685416662479
 20
112.138825276233
 30
0.0
  0
VERTEX
  5
569
  8
DEFAULT
 62
     5
 10
-36.91673070983467
 20
112.138825276233
 30
0.0
  0
VERTEX
  5
56A
  8
DEFAULT
 62
     5
 10
-36.91673070983468
 20
112.5716962235263
 30
0.0
 42
-0.0950504639922864
  0
VERTEX
  5
56B
  8
DEFAULT
 62
     5
 10
-36.76395286141327
 20
113.6534862763395
 30
0.0
 42
-0.1716707163023852
  0
VERTEX
  5
56C
  8
DEFAULT
 62
     5
 10
-36.20106675870875
 20
114.2352762349611
 30
0.0
 42
-0.1257658996646868
  0
VERTEX
  5
56D
  8
DEFAULT
 62
     5
 10
-35.16364391331562
 20
114.459812930554
 30
0.0
 42
-0.0781428993827065
  0
VERTEX
  5
56E
  8
DEFAULT
 62
     5
 10
-33.90438503082233
 20
114.2622820663564
 30
0.0
  0
VERTEX
  5
56F
  8
DEFAULT
 62
     5
 10
-34.07722416022919
 20
113.1882081806654
 30
0.0
  0
VERTEX
  5
570
  8
DEFAULT
 62
     5
 10
-34.77166865176939
 20
113.2746277453688
 30
0.0
 42
0.2070684672811841
  0
VERTEX
  5
571
  8
DEFAULT
 62
     5
 10
-35.24311930437516
 20
113.1226218904256
 30
0.0
 42
0.1773524100531858
  0
VERTEX
  5
572
  8
DEFAULT
 62
     5
 10
-35.38586651230381
 20
112.5385167049013
 30
0.0
  0
VERTEX
  5
573
  8
DEFAULT
 62
     5
 10
-35.38586651230381
 20
112.138825276233
 30
0.0
  0
VERTEX
  5
574
  8
DEFAULT
 62
     5
 10
-34.29944675921739
 20
112.138825276233
 30
0.0
  0
VERTEX
  5
575
  8
DEFAULT
 62
     5
 10
-34.29944675921739
 20
110.9536400910478
 30
0.0
  0
VERTEX
  5
576
  8
DEFAULT
 62
     5
 10
-35.38586651230381
 20
110.9536400910478
 30
0.0
  0
VERTEX
  5
577
  8
DEFAULT
 62
     5
 10
-35.38586651230381
 20
106.3610474984552
 30
0.0
  0
VERTEX
  5
578
  8
DEFAULT
 62
     5
 10
-36.91673070983467
 20
106.3610474984552
 30
0.0
  0
VERTEX
  5
579
  8
DEFAULT
 62
     5
 10
-36.91673070983467
 20
110.9536400910478
 30
0.0
  0
VERTEX
  5
57A
  8
DEFAULT
 62
     5
 10
-37.70685416662479
 20
110.9536400910478
 30
0.0
  0
SEQEND
  5
57B
  8
DEFAULT
 62
     5
  0
POLYLINE
  5
57C
  8
DEFAULT
 62
     5
 66
     1
 10
0.0
 20
0.0
 30
0.0
 70
     1
  0
VERTEX
  5
57D
  8
DEFAULT
 62
     5
 10
-40.22537268514331
 20
109.1264795972207
 30
0.0
  0
VERTEX
  5
57E
  8
DEFAULT
 62
     5
 10
-41.11657604740286
 20
108.8926835010813
 30
0.0
 42
0.0811165779561201
  0
VERTEX
  5
57F
  8
DEFAULT
 62
     5
 10
-41.91364367783688
 20
108.6264802565611
 30
0.0
 42
0.2517191883486077
  0
VERTEX
  5
580
  8
DEFAULT
 62
     5
 10
-42.20068132711862
 20
108.0879000802911
 30
0.0
 42
0.4298150945544891
  0
VERTEX
  5
581
  8
DEFAULT
 62
     5
 10
-41.38740936896225
 20
107.2993191033935
 30
0.0
 42
0.167048264484564
  0
VERTEX
  5
582
  8
DEFAULT
 62
     5
 10
-40.63200791068955
 20
107.5709244184311
 30
0.0
 42
0.1651612454991075
  0
VERTEX
  5
583
  8
DEFAULT
 62
     5
 10
-40.28247081478283
 20
108.0770974463202
 30
0.0
  0
VERTEX
  5
584
  8
DEFAULT
 62
     5
 10
-40.22537268514331
 20
108.821696270622
 30
0.0
  0
SEQEND
  5
585
  8
DEFAULT
 62
     5
  0
POLYLINE
  5
586
  8
DEFAULT
 62
     5
 66
     1
 10
0.0
 20
0.0
 30
0.0
 70
     1
  0
VERTEX
  5
587
  8
DEFAULT
 62
     5
 10
-42.15129861106924
 20
110.3610474984552
 30
0.0
  0
VERTEX
  5
588
  8
DEFAULT
 62
     5
 10
-43.53401466045195
 20
110.5585783626528
 30
0.0
 42
-0.1714833175990171
  0
VERTEX
  5
589
  8
DEFAULT
 62
     5
 10
-42.74427663525196
 20
111.8633626311663
 30
0.0
 42
-0.1608829132837576
  0
VERTEX
  5
58A
  8
DEFAULT
 62
     5
 10
-41.07953882198283
 20
112.2869734243811
 30
0.0
 42
-0.1088364278880982
  0
VERTEX
  5
58B
  8
DEFAULT
 62
     5
 10
-39.58571184987199
 20
112.0443037360514
 30
0.0
 42
-0.1580303644335237
  0
VERTEX
  5
58C
  8
DEFAULT
 62
     5
 10
-38.89473963353672
 20
111.4277914021463
 30
0.0
 42
-0.1088017057953457
  0
VERTEX
  5
58D
  8
DEFAULT
 62
     5
 10
-38.69450848761245
 20
110.0554925551444
 30
0.0
  0
VERTEX
  5
58E
  8
DEFAULT
 62
     5
 10
-38.69450848761245
 20
108.2653689099713
 30
0.0
 42
0.0514080219695249
  0
VERTEX
  5
58F
  8
DEFAULT
 62
     5
 10
-38.61117501299188
 20
107.1384396562599
 30
0.0
 42
0.0692287864232459
  0
VERTEX
  5
590
  8
DEFAULT
 62
     5
 10
-38.29944675921739
 20
106.3610474984552
 30
0.0
  0
VERTEX
  5
591
  8
DEFAULT
 62
     5
 10
-39.83031095674826
 20
106.3610474984552
 30
0.0
  0
VERTEX
  5
592
  8
DEFAULT
 62
     5
 10
-39.97691587147199
 20
106.8085784097485
 30
0.0
  0
VERTEX
  5
593
  8
DEFAULT
 62
     5
 10
-40.03092753426268
 20
106.9868196096728
 30
0.0
 42
-0.0933244186738014
  0
VERTEX
  5
594
  8
DEFAULT
 62
     5
 10
-40.86657637707308
 20
106.4065725077095
 30
0.0
 42
-0.1040133466926065
  0
VERTEX
  5
595
  8
DEFAULT
 62
     5
 10
-41.81642147916254
 20
106.2128993503071
 30
0.0
 42
-0.1965430357596495
  0
VERTEX
  5
596
  8
DEFAULT
 62
     5
 10
-43.21881375470655
 20
106.6970816786643
 30
0.0
 42
-0.2154369487651111
  0
VERTEX
  5
597
  8
DEFAULT
 62
     5
 10
-43.7315455246495
 20
107.92123313105
 30
0.0
 42
-0.1373780248024355
  0
VERTEX
  5
598
  8
DEFAULT
 62
     5
 10
-43.50315036872959
 20
108.7946896856947
 30
0.0
 42
-0.1473783213971046
  0
VERTEX
  5
599
  8
DEFAULT
 62
     5
 10
-42.86310372510216
 20
109.3822667696579
 30
0.0
 42
-0.0634404934847128
  0
VERTEX
  5
59A
  8
DEFAULT
 62
     5
 10
-41.67598949813647
 20
109.7383626076185
 30
0.0
 42
0.0472009877729046
  0
VERTEX
  5
59B
  8
DEFAULT
 62
     5
 10
-40.22537268514331
 20
110.1141339182083
 30
0.0
  0
VERTEX
  5
59C
  8
DEFAULT
 62
     5
 10
-40.22537268514331
 20
110.2692266167663
 30
0.0
 42
0.2070921599656475
  0
VERTEX
  5
59D
  8
DEFAULT
 62
     5
 10
-40.43023353134084
 20
110.9104303086961
 30
0.0
 42
0.1777887432708097
  0
VERTEX
  5
59E
  8
DEFAULT
 62
     5
 10
-41.20376760558447
 20
111.101788239196
 30
0.0
 42
0.1651091138038832
  0
VERTEX
  5
59F
  8
DEFAULT
 62
     5
 10
-41.80291856346485
 20
110.9374365168574
 30
0.0
 42
0.1491587679877806
  0
SEQEND
  5
5A0
  8
DEFAULT
 62
     5
  0
POLYLINE
  5
5A1
  8
DEFAULT
 62
     5
 66
     1
 10
0.0
 20
0.0
 30
0.0
 70
     1
  0
VERTEX
  5
5A2
  8
DEFAULT
 62
     5
 10
-46.05253317897048
 20
106.3610474984552
 30
0.0
  0
VERTEX
  5
5A3
  8
DEFAULT
 62
     5
 10
-47.58339737650134
 20
106.3610474984552
 30
0.0
  0
VERTEX
  5
5A4
  8
DEFAULT
 62
     5
 10
-47.58339737650134
 20
112.138825276233
 30
0.0
  0
VERTEX
  5
5A5
  8
DEFAULT
 62
     5
 10
-46.15129861106924
 20
112.138825276233
 30
0.0
  0
VERTEX
  5
5A6
  8
DEFAULT
 62
     5
 10
-46.15129861106925
 20
111.323239221472
 30
0.0
 42
-0.0977550519460683
  0
VERTEX
  5
5A7
  8
DEFAULT
 62
     5
 10
-45.52398364319325
 20
112.0940722604569
 30
0.0
 42
-0.1561720185078988
  0
VERTEX
  5
5A8
  8
DEFAULT
 62
     5
 10
-44.89203897504401
 20
112.2869734243811
 30
0.0
 42
-0.143817098136981
  0
VERTEX
  5
5A9
  8
DEFAULT
 62
     5
 10
-43.92907638884702
 20
111.9960784450703
 30
0.0
  0
VERTEX
  5
5AA
  8
DEFAULT
 62
     5
 10
-44.39821181455018
 20
110.6558013148591
 30
0.0
 42
0.1496770151887633
  0
VERTEX
  5
5AB
  8
DEFAULT
 62
     5
 10
-45.08031043869504
 20
110.9042573749985
 30
0.0
 42
0.1810970994867064
  0
VERTEX
  5
5AC
  8
DEFAULT
 62
     5
 10
-45.59767153214526
 20
110.7271743536744
 30
0.0
 42
0.1501348396488098
  0
VERTEX
  5
5AD
  8
DEFAULT
 62
     5
 10
-45.93100505386156
 20
110.087128086813
 30
0.0
 42
0.0509111359642193
  0
VERTEX
  5
5AE
  8
DEFAULT
 62
     5
 10
-46.05253317897049
 20
108.1480846767795
 30
0.0
  0
SEQEND
  5
5AF
  8
DEFAULT
 62
     5
  0
POLYLINE
  5
5B0
  8
DEFAULT
 62
     5
 66
     1
 10
0.0
 20
0.0
 30
0.0
 70
     1
  0
VERTEX
  5
5B1
  8
DEFAULT
 62
     5
 10
-48.76858256168652
 20
110.459812930554
 30
0.0
  0
VERTEX
  5
5B2
  8
DEFAULT
 62
     5
 10
-50.29944675921737
 20
110.2128993503071
 30
0.0
 42
0.1809968098175467
  0
VERTEX
  5
5B3
  8
DEFAULT
 62
     5
 10
-50.64126731123606
 20
110.8784089686714
 30
0.0
 42
0.1804760167670238
  0
VERTEX
  5
5B4
  8
DEFAULT
 62
     5
 10
-51.33262571269339
 20
111.101788239196
 30
0.0
 42
0.2329674834671373
  0
VERTEX
  5
5B5
  8
DEFAULT
 62
     5
 10
-52.23463170892384
 20
110.7005539538692
 30
0.0
 42
0.1695179555120398
  0
VERTEX
  5
5B6
  8
DEFAULT
 62
     5
 10
-52.57105169748901
 20
109.3579615967553
 30
0.0
 42
0.1610966817174984
  0
VERTEX
  5
5B7
  8
DEFAULT
 62
     5
 10
-52.22652973344567
 20
107.8791803970006
 30
0.0
 42
0.240554049109428
  0
VERTEX
  5
5B8
  8
DEFAULT
 62
     5
 10
-51.30176104420505
 20
107.4474672515416
 30
0.0
 42
0.1883458441869661
  0
VERTEX
  5
5B9
  8
DEFAULT
 62
     5
 10
-50.59149878683056
 20
107.6920663584179
 30
0.0
 42
0.1622604489947822
  0
VERTEX
  5
5BA
  8
DEFAULT
 62
     5
 10
-50.20068132711862
 20
108.5338870046281
 30
0.0
  0
VERTEX
  5
5BB
  8
DEFAULT
 62
     5
 10
-48.66981712958776
 20
108.3363561404305
 30
0.0
 42
-0.1724509721436064
  0
VERTEX
  5
5BC
  8
DEFAULT
 62
     5
 10
-49.56410695869614
 20
106.7491650532064
 30
0.0
 42
-0.1746967243539234
  0
VERTEX
  5
5BD
  8
DEFAULT
 62
     5
 10
-51.33725465943469
 20
106.2128993503071
 30
0.0
 42
-0.2163976905724448
  0
VERTEX
  5
5BE
  8
DEFAULT
 62
     5
 10
-53.35114413702041
 20
107.017297716273
 30
0.0
 42
-0.1943870566321023
  0
VERTEX
  5
5BF
  8
DEFAULT
 62
     5
 10
-54.10191589501984
 20
109.2445354471246
 30
0.0
 42
-0.1945054615972508
  0
VERTEX
  5
5C0
  8
DEFAULT
 62
     5
 10
-53.35152994537651
 20
111.4852760936739
 30
0.0
 42
-0.215780163157991
  0
VERTEX
  5
5C1
  8
DEFAULT
 62
     5
 10
-51.32182307872247
 20
112.2869734243812
 30
0.0
 42
-0.1599423076957973
  0
VERTEX
  5
5C2
  8
DEFAULT
 62
     5
 10
-49.65669945709723
 20
111.8355848062928
 30
0.0
 42
-0.1682635697126427
  0
SEQEND
  5
5C3
  8
DEFAULT
 62
     5
  0
POLYLINE
  5
5C4
  8
DEFAULT
 62
     5
 66
     1
 10
0.0
 20
0.0
 30
0.0
 70
     1
  0
VERTEX
  5
5C5
  8
DEFAULT
 62
     5
 10
-56.86734799378529
 20
106.3610474984552
 30
0.0
  0
VERTEX
  5
5C6
  8
DEFAULT
 62
     5
 10
-56.86734799378529
 20
107.8919116959861
 30
0.0
  0
VERTEX
  5
5C7
  8
DEFAULT
 62
     5
 10
-55.33648379625443
 20
107.8919116959861
 30
0.0
  0
VERTEX
  5
5C8
  8
DEFAULT
 62
     5
 10
-55.33648379625443
 20
106.3610474984552
 30
0.0
  0
SEQEND
  5
5C9
  8
DEFAULT
 62
     5
  0
POLYLINE
  5
5CA
  8
DEFAULT
 62
     5
 66
     1
 10
0.0
 20
0.0
 30
0.0
 70
     1
  0
VERTEX
  5
5CB
  8
DEFAULT
 62
     5
 10
-64.30561931614908
 20
106.3610474984552
 30
0.0
  0
VERTEX
  5
5CC
  8
DEFAULT
 62
     5
 10
-66.15129861106924
 20
112.138825276233
 30
0.0
  0
VERTEX
  5
5CD
  8
DEFAULT
 62
     5
 10
-64.65206994520696
 20
112.138825276233
 30
0.0
  0
VERTEX
  5
5CE
  8
DEFAULT
 62
     5
 10
-63.55870564171067
 20
108.3525600913869
 30
0.0
  0
VERTEX
  5
5CF
  8
DEFAULT
 62
     5
 10
-62.53247123864455
 20
112.138825276233
 30
0.0
  0
VERTEX
  5
5D0
  8
DEFAULT
 62
     5
 10
-61.04867490702645
 20
112.138825276233
 30
0.0
  0
VERTEX
  5
5D1
  8
DEFAULT
 62
     5
 10
-60.10191551825389
 20
108.3525600913869
 30
0.0
  0
VERTEX
  5
5D2
  8
DEFAULT
 62
     5
 10
-59.00546474790876
 20
112.138825276233
 30
0.0
  0
VERTEX
  5
5D3
  8
DEFAULT
 62
     5
 10
-57.50932330242726
 20
112.138825276233
 30
0.0
  0
VERTEX
  5
5D4
  8
DEFAULT
 62
     5
 10
-59.35114376025444
 20
106.3610474984552
 30
0.0
  0
VERTEX
  5
5D5
  8
DEFAULT
 62
     5
 10
-60.80253294349174
 20
106.3610474984552
 30
0.0
  0
VERTEX
  5
5D6
  8
DEFAULT
 62
     5
 10
-61.7809278639329
 20
110.0770970695543
 30
0.0
  0
VERTEX
  5
5D7
  8
DEFAULT
 62
     5
 10
-62.79018745286238
 20
106.3610474984552
 30
0.0
  0
SEQEND
  5
5D8
  8
DEFAULT
 62
     5
  0
POLYLINE
  5
5D9
  8
DEFAULT
 62
     5
 66
     1
 10
0.0
 20
0.0
 30
0.0
 70
     1
  0
VERTEX
  5
5DA
  8
DEFAULT
 62
     5
 10
-72.89821190874167
 20
106.3610474984552
 30
0.0
  0
VERTEX
  5
5DB
  8
DEFAULT
 62
     5
 10
-74.74389120366183
 20
112.138825276233
 30
0.0
  0
VERTEX
  5
5DC
  8
DEFAULT
 62
     5
 10
-73.24466253779956
 20
112.138825276233
 30
0.0
  0
VERTEX
  5
5DD
  8
DEFAULT
 62
     5
 10
-72.15129823430327
 20
108.3525600913869
 30
0.0
  0
VERTEX
  5
5DE
  8
DEFAULT
 62
     5
 10
-71.12506383123714
 20
112.138825276233
 30
0.0
  0
VERTEX
  5
5DF
  8
DEFAULT
 62
     5
 10
-69.64126749961903
 20
112.138825276233
 30
0.0
  0
VERTEX
  5
5E0
  8
DEFAULT
 62
     5
 10
-68.69450811084647
 20
108.3525600913869
 30
0.0
  0
VERTEX
  5
5E1
  8
DEFAULT
 62
     5
 10
-67.59805734050136
 20
112.138825276233
 30
0.0
  0
VERTEX
  5
5E2
  8
DEFAULT
 62
     5
 10
-66.10191589501986
 20
112.138825276233
 30
0.0
  0
VERTEX
  5
5E3
  8
DEFAULT
 62
     5
 10
-67.94373635284703
 20
106.3610474984552
 30
0.0
  0
VERTEX
  5
5E4
  8
DEFAULT
 62
     5
 10
-69.39512553608434
 20
106.3610474984552
 30
0.0
  0
VERTEX
  5
5E5
  8
DEFAULT
 62
     5
 10
-70.37352045652548
 20
110.0770970695543
 30
0.0
  0
VERTEX
  5
5E6
  8
DEFAULT
 62
     5
 10
-71.38278004545498
 20
106.3610474984552
 30
0.0
  0
SEQEND
  5
5E7
  8
DEFAULT
 62
     5
  0
POLYLINE
  5
5E8
  8
DEFAULT
 62
     5
 66
     1
 10
0.0
 20
0.0
 30
0.0
 70
     1
  0
VERTEX
  5
5E9
  8
DEFAULT
 62
     5
 10
-81.49080450133427
 20
106.3610474984552
 30
0.0
  0
VERTEX
  5
5EA
  8
DEFAULT
 62
     5
 10
-83.33648379625443
 20
112.138825276233
 30
0.0
  0
VERTEX
  5
5EB
  8
DEFAULT
 62
     5
 10
-81.83725513039215
 20
112.138825276233
 30
0.0
  0
VERTEX
  5
5EC
  8
DEFAULT
 62
     5
 10
-80.74389082689586
 20
108.3525600913869
 30
0.0
  0
VERTEX
  5
5ED
  8
DEFAULT
 62
     5
 10
-79.71765642382974
 20
112.138825276233
 30
0.0
  0
VERTEX
  5
5EE
  8
DEFAULT
 62
     5
 10
-78.23386009221163
 20
112.138825276233
 30
0.0
  0
VERTEX
  5
5EF
  8
DEFAULT
 62
     5
 10
-77.28710070343907
 20
108.3525600913869
 30
0.0
  0
VERTEX
  5
5F0
  8
DEFAULT
 62
     5
 10
-76.19064993309394
 20
112.138825276233
 30
0.0
  0
VERTEX
  5
5F1
  8
DEFAULT
 62
     5
 10
-74.69450848761245
 20
112.138825276233
 30
0.0
  0
VERTEX
  5
5F2
  8
DEFAULT
 62
     5
 10
-76.53632894543962
 20
106.3610474984552
 30
0.0
  0
VERTEX
  5
5F3
  8
DEFAULT
 62
     5
 10
-77.98771812867693
 20
106.3610474984552
 30
0.0
  0
VERTEX
  5
5F4
  8
DEFAULT
 62
     5
 10
-78.96611304911808
 20
110.0770970695543
 30
0.0
  0
VERTEX
  5
5F5
  8
DEFAULT
 62
     5
 10
-79.97537263804756
 20
106.3610474984552
 30
0.0
  0
SEQEND
  5
5F6
  8
DEFAULT
 62
     5
  0
LINE
  5
5F8
  8
BOTTOM
  6
CONTINUOUS
 62
     5
 10
153.4993384457901
 20
-27.93844527704809
 30
0.0
 11
50.49933844579013
 21
-27.93844527704809
 31
0.0
  0
LINE
  5
5F9
  8
BOTTOM
  6
CONTINUOUS
 62
     5
 10
50.49933844579013
 20
-27.93844527704809
 30
0.0
 11
50.49933844579013
 21
-41.43844527704809
 31
0.0
  0
LINE
  5
5FA
  8
BOTTOM
  6
CONTINUOUS
 62
     5
 10
50.49933844579013
 20
-79.93844527704809
 30
0.0
 11
153.4993384457901
 21
-79.93844527704809
 31
0.0
  0
LINE
  5
5FB
  8
BOTTOM
  6
CONTINUOUS
 62
     5
 10
153.4993384457901
 20
-79.93844527704809
 30
0.0
 11
153.4993384457901
 21
-63.43844527704809
 31
0.0
  0
LINE
  5
5FC
  8
BOTTOM
  6
CONTINUOUS
 62
     5
 10
50.49933844579013
 20
-63.43844527704809
 30
0.0
 11
50.49933844579013
 21
-79.93844527704809
 31
0.0
  0
LINE
  5
5FD
  8
BOTTOM
  6
CONTINUOUS
 62
     5
 10
50.49933844579013
 20
-63.43844527704809
 30
0.0
 11
44.49933844579013
 21
-63.43844527704809
 31
0.0
  0
LINE
  5
5FE
  8
BOTTOM
  6
CONTINUOUS
 62
     5
 10
44.49933844579013
 20
-63.43844527704809
 30
0.0
 11
44.49933844579013
 21
-41.43844527704809
 31
0.0
  0
LINE
  5
5FF
  8
BOTTOM
  6
CONTINUOUS
 62
     5
 10
44.49933844579013
 20
-41.43844527704809
 30
0.0
 11
50.49933844579013
 21
-41.43844527704809
 31
0.0
  0
LINE
  5
600
  8
BOTTOM
  6
CONTINUOUS
 62
     5
 10
153.4993384457901
 20
-41.43844527704809
 30
0.0
 11
153.4993384457901
 21
-27.93844527704809
 31
0.0
  0
LINE
  5
601
  8
BOTTOM
  6
CONTINUOUS
 62
     5
 10
153.4993384457901
 20
-41.43844527704809
 30
0.0
 11
159.4993384457901
 21
-41.43844527704809
 31
0.0
  0
LINE
  5
602
  8
BOTTOM
  6
CONTINUOUS
 62
     5
 10
159.4993384457901
 20
-41.43844527704809
 30
0.0
 11
159.4993384457901
 21
-63.43844527704809
 31
0.0
  0
LINE
  5
603
  8
BOTTOM
  6
CONTINUOUS
 62
     5
 10
159.4993384457901
 20
-63.43844527704809
 30
0.0
 11
153.4993384457901
 21
-63.43844527704809
 31
0.0
  0
LINE
  5
605
  8
FRONT
  6
CONTINUOUS
 62
     5
 10
51.59347640459012
 20
24.13773541435191
 30
0.0
 11
154.5934764045901
 21
24.13773541435191
 31
0.0
  0
LINE
  5
606
  8
FRONT
  6
CONTINUOUS
 62
     5
 10
160.5934764045901
 20
44.63773541435191
 30
0.0
 11
160.5934764045901
 21
24.13773541435191
 31
0.0
  0
LINE
  5
607
  8
FRONT
  6
CONTINUOUS
 62
     5
 10
154.5934764045901
 20
44.63773541435191
 30
0.0
 11
160.5934764045901
 21
44.63773541435191
 31
0.0
  0
LINE
  5
608
  8
FRONT
  6
CONTINUOUS
 62
     5
 10
154.5934764045901
 20
24.13773541435191
 30
0.0
 11
154.5934764045901
 21
44.63773541435191
 31
0.0
  0
LINE
  5
609
  8
FRONT
  6
CONTINUOUS
 62
     5
 10
51.59347640459012
 20
44.63773541435191
 30
0.0
 11
51.59347640459012
 21
24.13773541435191
 31
0.0
  0
LINE
  5
60A
  8
FRONT
  6
CONTINUOUS
 62
     5
 10
45.59347640459012
 20
44.63773541435191
 30
0.0
 11
51.59347640459012
 21
44.63773541435191
 31
0.0
  0
LINE
  5
60B
  8
FRONT
  6
CONTINUOUS
 62
     5
 10
45.59347640459012
 20
24.13773541435191
 30
0.0
 11
45.59347640459012
 21
44.63773541435191
 31
0.0
  0
LINE
  5
60C
  8
FRONT
  6
CONTINUOUS
 62
     5
 10
160.5934764045901
 20
62.13773541435191
 30
0.0
 11
45.59347640459012
 21
62.13773541435191
 31
0.0
  0
ARC
  5
60D
  8
FRONT
  6
CONTINUOUS
 62
     5
 10
160.5934764045901
 20
56.13773541435191
 30
0.0
 40
5.999999999999998
 50
0.0
 51
90.0
  0
ARC
  5
60E
  8
FRONT
  6
CONTINUOUS
 62
     5
 10
45.59347640459012
 20
30.13773541435191
 30
0.0
 40
5.999999999999998
 50
180.0
 51
270.0
  0
LINE
  5
60F
  8
FRONT
  6
CONTINUOUS
 62
     5
 10
166.5934764045901
 20
30.13773541435191
 30
0.0
 11
166.5934764045901
 21
56.13773541435191
 31
0.0
  0
ARC
  5
610
  8
FRONT
  6
CONTINUOUS
 62
     5
 10
160.5934764045901
 20
30.13773541435191
 30
0.0
 40
6.000000000000026
 50
270.0
 51
0.0
  0
LINE
  5
611
  8
FRONT
  6
CONTINUOUS
 62
     5
 10
39.59347640459012
 20
56.13773541435191
 30
0.0
 11
39.59347640459012
 21
30.13773541435191
 31
0.0
  0
ARC
  5
612
  8
FRONT
  6
CONTINUOUS
 62
     5
 10
45.59347640459012
 20
56.13773541435191
 30
0.0
 40
6.0
 50
90.0
 51
180.0
  0
LINE
  5
614
  8
SIDE
  6
CONTINUOUS
 62
     5
 10
-31.34640472810989
 20
-83.6423907763481
 30
0.0
 11
-95.34640472810989
 21
-83.6423907763481
 31
0.0
  0
LINE
  5
615
  8
SIDE
  6
CONTINUOUS
 62
     5
 10
-43.34640472810989
 20
-45.64239077634809
 30
0.0
 11
-43.34640472810989
 21
-63.14239077634809
 31
0.0
  0
LINE
  5
616
  8
SIDE
  6
CONTINUOUS
 62
     5
 10
-43.34640472810989
 20
-63.14239077634809
 30
0.0
 11
-37.34640472810989
 21
-63.14239077634809
 31
0.0
  0
LINE
  5
617
  8
SIDE
  6
CONTINUOUS
 62
     5
 10
-37.34640472810989
 20
-63.14239077634809
 30
0.0
 11
-37.34640472810989
 21
-45.64239077634809
 31
0.0
  0
LINE
  5
618
  8
SIDE
  6
CONTINUOUS
 62
     5
 10
-101.3464047281099
 20
-83.6423907763481
 30
0.0
 11
-101.3464047281099
 21
-48.64239077634809
 31
0.0
  0
LINE
  5
619
  8
SIDE
  6
CONTINUOUS
 62
     5
 10
-101.3464047281099
 20
-48.64239077634809
 30
0.0
 11
-95.34640472810989
 21
-48.64239077634809
 31
0.0
  0
LINE
  5
61A
  8
SIDE
  6
CONTINUOUS
 62
     5
 10
-95.34640472810989
 20
-48.64239077634809
 30
0.0
 11
-95.34640472810989
 21
-83.6423907763481
 31
0.0
  0
LINE
  5
61B
  8
SIDE
  6
CONTINUOUS
 62
     5
 10
-107.3464047281099
 20
-77.6423907763481
 30
0.0
 11
-107.3464047281099
 21
-18.2252275483481
 31
0.0
  0
ARC
  5
61C
  8
SIDE
  6
CONTINUOUS
 62
     5
 10
-101.3464047281099
 20
-77.6423907763481
 30
0.0
 40
6.000000000000005
 50
180.0
 51
270.0
  0
LINE
  5
61D
  8
SIDE
  6
CONTINUOUS
 62
     5
 10
-98.26539397610988
 20
-13.07669642324808
 30
0.0
 11
-88.26539397610988
 21
-19.0609483917481
 31
0.0
  0
ARC
  5
61E
  8
SIDE
  6
CONTINUOUS
 62
     5
 10
-101.3464047281099
 20
-18.2252275483481
 30
0.0
 40
5.999999999999995
 50
59.10263483970007
 51
180.0
  0
LINE
  5
61F
  8
SIDE
  6
CONTINUOUS
 62
     5
 10
-25.34640472810989
 20
-64.6423907763481
 30
0.0
 11
-2.346404728109889
 21
-64.6423907763481
 31
0.0
  0
ARC
  5
620
  8
SIDE
  6
CONTINUOUS
 62
     5
 10
-25.34640472810989
 20
-58.64239077634809
 30
0.0
 40
6.000000000000002
 50
180.0
 51
270.0
  0
LINE
  5
621
  8
SIDE
  6
CONTINUOUS
 62
     5
 10
2.206509542490124
 20
-74.6519144938481
 30
0.0
 11
-31.34640472810989
 21
-83.6423907763481
 31
0.0
  0
ARC
  5
622
  8
SIDE
  6
CONTINUOUS
 62
     5
 10
0.6535952718901115
 20
-68.85635953614809
 30
0.0
 40
6.000000000000003
 50
285.0000000000001
 51
0.0000000000001357
  0
LINE
  5
623
  8
SIDE
  6
CONTINUOUS
 62
     5
 10
6.653595271890111
 20
-61.64239077634809
 30
0.0
 11
6.653595271890111
 21
-68.85635953614809
 31
0.0
  0
ARC
  5
624
  8
SIDE
  6
CONTINUOUS
 62
     5
 10
3.653595271890111
 20
-61.64239077634809
 30
0.0
 40
3.000000000000003
 50
0.0
 51
180.0
  0
ARC
  5
625
  8
SIDE
  6
CONTINUOUS
 62
     5
 10
-2.346404728109889
 20
-61.64239077634809
 30
0.0
 40
3.000000000000003
 50
270.0
 51
0.0
  0
LINE
  5
626
  8
SIDE
  6
CONTINUOUS
 62
     5
 10
-66.34640472810989
 20
-45.64239077634809
 30
0.0
 11
-43.34640472810989
 21
-45.64239077634809
 31
0.0
  0
ARC
  5
627
  8
SIDE
  6
CONTINUOUS
 62
     5
 10
-66.34640472810989
 20
-26.64239077634809
 30
0.0
 40
19.00000000000001
 50
180.0
 51
270.0
  0
LINE
  5
628
  8
SIDE
  6
CONTINUOUS
 62
     5
 10
-85.34640472810989
 20
-24.20947951684809
 30
0.0
 11
-85.34640472810989
 21
-26.64239077634809
 31
0.0
  0
ARC
  5
629
  8
SIDE
  6
CONTINUOUS
 62
     5
 10
-91.34640472810989
 20
-24.20947951684809
 30
0.0
 40
5.999999999999998
 50
0.0
 51
59.10263483969998
  0
LINE
  5
62A
  8
SIDE
  6
CONTINUOUS
 62
     5
 10
-81.84640472810989
 20
-77.6423907763481
 30
0.0
 11
-81.84640472810989
 21
-71.6423907763481
 31
0.0
  0
LINE
  5
62B
  8
SIDE
  6
CONTINUOUS
 62
     5
 10
-81.84640472810989
 20
-71.6423907763481
 30
0.0
 11
-59.84640472810989
 21
-71.6423907763481
 31
0.0
  0
LINE
  5
62C
  8
SIDE
  6
CONTINUOUS
 62
     5
 10
-59.84640472810989
 20
-71.6423907763481
 30
0.0
 11
-59.84640472810989
 21
-77.6423907763481
 31
0.0
  0
LINE
  5
62D
  8
SIDE
  6
CONTINUOUS
 62
     5
 10
-59.84640472810989
 20
-77.6423907763481
 30
0.0
 11
-81.84640472810989
 21
-77.6423907763481
 31
0.0
  0
LINE
  5
62E
  8
SIDE
  6
CONTINUOUS
 62
     5
 10
-31.34640472810989
 20
-51.64239077634809
 30
0.0
 11
-31.34640472810989
 21
-58.64239077634809
 31
0.0
  0
ARC
  5
62F
  8
SIDE
  6
CONTINUOUS
 62
     5
 10
-37.34640472810989
 20
-51.64239077634809
 30
0.0
 40
6.000000000000005
 50
0.0
 51
90.0
  0
LINE
  5
631
  8
BACK
  6
CONTINUOUS
 62
     5
 10
-92.57733156450988
 20
16.2108731648519
 30
0.0
 11
10.42266843549012
 21
16.2108731648519
 31
0.0
  0
LINE
  5
632
  8
BACK
  6
CONTINUOUS
 62
     5
 10
16.42266843549012
 20
44.7108731648519
 30
0.0
 11
16.42266843549012
 21
16.2108731648519
 31
0.0
  0
LINE
  5
633
  8
BACK
  6
CONTINUOUS
 62
     5
 10
10.42266843549012
 20
44.7108731648519
 30
0.0
 11
16.42266843549012
 21
44.7108731648519
 31
0.0
  0
LINE
  5
634
  8
BACK
  6
CONTINUOUS
 62
     5
 10
10.42266843549012
 20
16.2108731648519
 30
0.0
 11
10.42266843549012
 21
44.7108731648519
 31
0.0
  0
LINE
  5
635
  8
BACK
  6
CONTINUOUS
 62
     5
 10
-92.57733156450988
 20
44.7108731648519
 30
0.0
 11
-92.57733156450988
 21
16.2108731648519
 31
0.0
  0
LINE
  5
636
  8
BACK
  6
CONTINUOUS
 62
     5
 10
-98.57733156450988
 20
44.7108731648519
 30
0.0
 11
-92.57733156450988
 21
44.7108731648519
 31
0.0
  0
LINE
  5
637
  8
BACK
  6
CONTINUOUS
 62
     5
 10
-98.57733156450988
 20
16.2108731648519
 30
0.0
 11
-98.57733156450988
 21
44.7108731648519
 31
0.0
  0
LINE
  5
638
  8
BACK
  6
CONTINUOUS
 62
     5
 10
-104.5773315645099
 20
73.71087316485193
 30
0.0
 11
-104.5773315645099
 21
22.2108731648519
 31
0.0
  0
ARC
  5
639
  8
BACK
  6
CONTINUOUS
 62
     5
 10
-98.57733156450988
 20
73.71087316485193
 30
0.0
 40
5.999999999999998
 50
90.0
 51
180.0
  0
LINE
  5
63A
  8
BACK
  6
CONTINUOUS
 62
     5
 10
22.42266843549012
 20
22.2108731648519
 30
0.0
 11
22.42266843549012
 21
73.71087316485193
 31
0.0
  0
ARC
  5
63B
  8
BACK
  6
CONTINUOUS
 62
     5
 10
16.42266843549012
 20
22.2108731648519
 30
0.0
 40
5.999999999999998
 50
270.0
 51
0.0
  0
LINE
  5
63C
  8
BACK
  6
CONTINUOUS
 62
     5
 10
16.42266843549012
 20
79.71087316485193
 30
0.0
 11
-98.57733156450988
 21
79.71087316485193
 31
0.0
  0
ARC
  5
63D
  8
BACK
  6
CONTINUOUS
 62
     5
 10
16.42266843549012
 20
73.71087316485193
 30
0.0
 40
5.999999999999998
 50
0.0
 51
90.0
  0
ARC
  5
63E
  8
BACK
  6
CONTINUOUS
 62
     5
 10
-98.57733156450988
 20
22.2108731648519
 30
0.0
 40
5.999999999999998
 50
180.0
 51
270.0
  0
ENDSEC
  0
EOF
